  0
SECTION
  2
HEADER
  9
$ACADVER
  1
AC1015
  9
$ACADMAINTVER
 70
    20
  9
$DWGCODEPAGE
  3
ANSI_932
  9
$INSBASE
 10
0.0
 20
0.0
 30
0.0
  9
$EXTMIN
 10
1719.449971256603
 20
-2406.357213692391
 30
-0.0015258207003583
  9
$EXTMAX
 10
8067.282160277152
 20
4899.088390951277
 30
0.0000000349246037
  9
$LIMMIN
 10
0.0
 20
0.0
  9
$LIMMAX
 10
59400.0
 20
42000.0
  9
$ORTHOMODE
 70
     1
  9
$REGENMODE
 70
     1
  9
$FILLMODE
 70
     1
  9
$QTEXTMODE
 70
     0
  9
$MIRRTEXT
 70
     1
  9
$LTSCALE
 40
100.0
  9
$ATTMODE
 70
     1
  9
$TEXTSIZE
 40
300.0
  9
$TRACEWID
 40
0.05
  9
$TEXTSTYLE
  7
スタイル1
  9
$CLAYER
  8
下書き
  9
$CELTYPE
  6
ByLayer
  9
$CECOLOR
 62
   256
  9
$CELTSCALE
 40
1.0
  9
$DISPSILH
 70
     0
  9
$DIMSCALE
 40
100.0
  9
$DIMASZ
 40
2.0
  9
$DIMEXO
 40
2.0
  9
$DIMDLI
 40
0.38
  9
$DIMRND
 40
0.0
  9
$DIMDLE
 40
0.0
  9
$DIMEXE
 40
0.18
  9
$DIMTP
 40
0.0
  9
$DIMTM
 40
0.0
  9
$DIMTXT
 40
2.0
  9
$DIMCEN
 40
0.09
  9
$DIMTSZ
 40
0.0
  9
$DIMTOL
 70
     0
  9
$DIMLIM
 70
     0
  9
$DIMTIH
 70
     0
  9
$DIMTOH
 70
     1
  9
$DIMSE1
 70
     0
  9
$DIMSE2
 70
     0
  9
$DIMTAD
 70
     1
  9
$DIMZIN
 70
     0
  9
$DIMBLK
  1
Open30
  9
$DIMASO
 70
     1
  9
$DIMSHO
 70
     1
  9
$DIMPOST
  1

  9
$DIMAPOST
  1

  9
$DIMALT
 70
     0
  9
$DIMALTD
 70
     2
  9
$DIMALTF
 40
25.4
  9
$DIMLFAC
 40
1.0
  9
$DIMTOFL
 70
     0
  9
$DIMTVP
 40
0.0
  9
$DIMTIX
 70
     0
  9
$DIMSOXD
 70
     0
  9
$DIMSAH
 70
     0
  9
$DIMBLK1
  1

  9
$DIMBLK2
  1

  9
$DIMSTYLE
  2
STANDARD
  9
$DIMCLRD
 70
     0
  9
$DIMCLRE
 70
     0
  9
$DIMCLRT
 70
     0
  9
$DIMTFAC
 40
1.0
  9
$DIMGAP
 40
1.0
  9
$DIMJUST
 70
     0
  9
$DIMSD1
 70
     0
  9
$DIMSD2
 70
     0
  9
$DIMTOLJ
 70
     1
  9
$DIMTZIN
 70
     0
  9
$DIMALTZ
 70
     0
  9
$DIMALTTZ
 70
     0
  9
$DIMUPT
 70
     0
  9
$DIMDEC
 70
     1
  9
$DIMTDEC
 70
     1
  9
$DIMALTU
 70
     2
  9
$DIMALTTD
 70
     2
  9
$DIMTXSTY
  7
STANDARD
  9
$DIMAUNIT
 70
     0
  9
$DIMADEC
 70
     0
  9
$DIMALTRND
 40
0.0
  9
$DIMAZIN
 70
     0
  9
$DIMDSEP
 70
    46
  9
$DIMATFIT
 70
     3
  9
$DIMFRAC
 70
     0
  9
$DIMLDRBLK
  1
Open30
  9
$DIMLUNIT
 70
     2
  9
$DIMLWD
 70
    -2
  9
$DIMLWE
 70
    -2
  9
$DIMTMOVE
 70
     0
  9
$LUNITS
 70
     2
  9
$LUPREC
 70
     4
  9
$SKETCHINC
 40
0.1
  9
$FILLETRAD
 40
0.0
  9
$AUNITS
 70
     0
  9
$AUPREC
 70
     0
  9
$MENU
  1
acad
  9
$ELEVATION
 40
0.0
  9
$PELEVATION
 40
0.0
  9
$THICKNESS
 40
0.0
  9
$LIMCHECK
 70
     0
  9
$CHAMFERA
 40
0.0
  9
$CHAMFERB
 40
0.0
  9
$CHAMFERC
 40
0.0
  9
$CHAMFERD
 40
0.0
  9
$SKPOLY
 70
     0
  9
$TDCREATE
 40
2426945.499536991
  9
$TDUCREATE
 40
2426945.124536991
  9
$TDUPDATE
 40
2456231.649980104
  9
$TDUUPDATE
 40
2456231.274980104
  9
$TDINDWG
 40
1.7103492824
  9
$TDUSRTIMER
 40
1.7103474306
  9
$USRTIMER
 70
     1
  9
$ANGBASE
 50
0.0
  9
$ANGDIR
 70
     0
  9
$PDMODE
 70
     0
  9
$PDSIZE
 40
0.0
  9
$PLINEWID
 40
0.0
  9
$SPLFRAME
 70
     0
  9
$SPLINETYPE
 70
     6
  9
$SPLINESEGS
 70
     8
  9
$HANDSEED
  5
15230
  9
$SURFTAB1
 70
     6
  9
$SURFTAB2
 70
     6
  9
$SURFTYPE
 70
     6
  9
$SURFU
 70
     6
  9
$SURFV
 70
     6
  9
$UCSBASE
  2

  9
$UCSNAME
  2

  9
$UCSORG
 10
0.0
 20
0.0
 30
0.0
  9
$UCSXDIR
 10
1.0
 20
0.0
 30
0.0
  9
$UCSYDIR
 10
0.0
 20
1.0
 30
0.0
  9
$UCSORTHOREF
  2

  9
$UCSORTHOVIEW
 70
     0
  9
$UCSORGTOP
 10
0.0
 20
0.0
 30
0.0
  9
$UCSORGBOTTOM
 10
0.0
 20
0.0
 30
0.0
  9
$UCSORGLEFT
 10
0.0
 20
0.0
 30
0.0
  9
$UCSORGRIGHT
 10
0.0
 20
0.0
 30
0.0
  9
$UCSORGFRONT
 10
0.0
 20
0.0
 30
0.0
  9
$UCSORGBACK
 10
0.0
 20
0.0
 30
0.0
  9
$PUCSBASE
  2

  9
$PUCSNAME
  2

  9
$PUCSORG
 10
0.0
 20
0.0
 30
0.0
  9
$PUCSXDIR
 10
1.0
 20
0.0
 30
0.0
  9
$PUCSYDIR
 10
0.0
 20
1.0
 30
0.0
  9
$PUCSORTHOREF
  2

  9
$PUCSORTHOVIEW
 70
     0
  9
$PUCSORGTOP
 10
0.0
 20
0.0
 30
0.0
  9
$PUCSORGBOTTOM
 10
0.0
 20
0.0
 30
0.0
  9
$PUCSORGLEFT
 10
0.0
 20
0.0
 30
0.0
  9
$PUCSORGRIGHT
 10
0.0
 20
0.0
 30
0.0
  9
$PUCSORGFRONT
 10
0.0
 20
0.0
 30
0.0
  9
$PUCSORGBACK
 10
0.0
 20
0.0
 30
0.0
  9
$USERI1
 70
     0
  9
$USERI2
 70
     0
  9
$USERI3
 70
     0
  9
$USERI4
 70
     0
  9
$USERI5
 70
     0
  9
$USERR1
 40
0.0
  9
$USERR2
 40
0.0
  9
$USERR3
 40
0.0
  9
$USERR4
 40
0.0
  9
$USERR5
 40
0.0
  9
$WORLDVIEW
 70
     1
  9
$SHADEDGE
 70
     3
  9
$SHADEDIF
 70
    70
  9
$TILEMODE
 70
     1
  9
$MAXACTVP
 70
    16
  9
$PINSBASE
 10
0.0
 20
0.0
 30
0.0
  9
$PLIMCHECK
 70
     0
  9
$PEXTMIN
 10
1.000000000000000E+20
 20
1.000000000000000E+20
 30
1.000000000000000E+20
  9
$PEXTMAX
 10
-1.000000000000000E+20
 20
-1.000000000000000E+20
 30
-1.000000000000000E+20
  9
$PLIMMIN
 10
0.0
 20
0.0
  9
$PLIMMAX
 10
12.0
 20
9.0
  9
$UNITMODE
 70
     0
  9
$VISRETAIN
 70
     0
  9
$PLINEGEN
 70
     1
  9
$PSLTSCALE
 70
     0
  9
$TREEDEPTH
 70
  3020
  9
$CMLSTYLE
  2
Standard
  9
$CMLJUST
 70
     0
  9
$CMLSCALE
 40
1.0
  9
$PROXYGRAPHICS
 70
     1
  9
$MEASUREMENT
 70
     0
  9
$CELWEIGHT
370
    -1
  9
$ENDCAPS
280
     0
  9
$JOINSTYLE
280
     0
  9
$LWDISPLAY
290
     0
  9
$INSUNITS
 70
     0
  9
$HYPERLINKBASE
  1

  9
$STYLESHEET
  1

  9
$XEDIT
290
     1
  9
$CEPSNTYPE
380
     0
  9
$PSTYLEMODE
290
     1
  9
$FINGERPRINTGUID
  2
{8637CE02-3222-11D7-99D2-0040267E6A47}
  9
$VERSIONGUID
  2
{9ABE54A8-395B-4B51-84C0-14CD7F0D20B1}
  9
$EXTNAMES
290
     1
  9
$PSVPSCALE
 40
0.0
  9
$OLESTARTUP
290
     0
  0
ENDSEC
  0
SECTION
  2
CLASSES
  0
CLASS
  1
ACDBDICTIONARYWDFLT
  2
AcDbDictionaryWithDefault
  3
ObjectDBX Classes
 90
        0
280
     0
281
     0
  0
CLASS
  1
ACDBPLACEHOLDER
  2
AcDbPlaceHolder
  3
ObjectDBX Classes
 90
        0
280
     0
281
     0
  0
CLASS
  1
LAYOUT
  2
AcDbLayout
  3
ObjectDBX Classes
 90
        0
280
     0
281
     0
  0
CLASS
  1
DICTIONARYVAR
  2
AcDbDictionaryVar
  3
ObjectDBX Classes
 90
        0
280
     0
281
     0
  0
CLASS
  1
TABLESTYLE
  2
AcDbTableStyle
  3
ObjectDBX Classes
 90
     2047
280
     0
281
     0
  0
CLASS
  1
SORTENTSTABLE
  2
AcDbSortentsTable
  3
ObjectDBX Classes
 90
        0
280
     0
281
     0
  0
ENDSEC
  0
SECTION
  2
TABLES
  0
TABLE
  2
VPORT
  5
1EF1
330
0
100
AcDbSymbolTable
 70
     7
  0
VPORT
  5
1522A
330
1EF1
100
AcDbSymbolTableRecord
100
AcDbViewportTableRecord
  2
*Active
 70
     0
 10
0.0
 20
0.0
 11
1.0
 21
1.0
 12
4805.798591670202
 22
1246.365588629444
 13
0.0
 23
0.0
 14
1000.0
 24
1000.0
 15
1000.0
 25
1000.0
 16
0.0
 26
0.0
 36
1.0
 17
0.0
 27
0.0
 37
0.0
 40
7367.268839661808
 41
1.384180790960451
 42
50.0
 43
0.0
 44
0.0
 50
0.0
 51
0.0
 71
     0
 72
   100
 73
     1
 74
     1
 75
     0
 76
     0
 77
     0
 78
     0
281
     0
 65
     1
110
0.0
120
0.0
130
0.0
111
1.0
121
0.0
131
0.0
112
0.0
122
1.0
132
0.0
 79
     0
146
0.0
  0
ENDTAB
  0
TABLE
  2
LTYPE
  5
1EEE
330
0
100
AcDbSymbolTable
 70
     8
  0
LTYPE
  5
1EFC
330
1EEE
100
AcDbSymbolTableRecord
100
AcDbLinetypeTableRecord
  2
ByBlock
 70
     0
  3

 72
    65
 73
     0
 40
0.0
  0
LTYPE
  5
1EFD
330
1EEE
100
AcDbSymbolTableRecord
100
AcDbLinetypeTableRecord
  2
ByLayer
 70
     0
  3

 72
    65
 73
     0
 40
0.0
  0
LTYPE
  5
1EFE
330
1EEE
100
AcDbSymbolTableRecord
100
AcDbLinetypeTableRecord
  2
CONTINUOUS
 70
     0
  3
Solid line
 72
    65
 73
     0
 40
0.0
  0
LTYPE
  5
1F0C
330
1EEE
100
AcDbSymbolTableRecord
100
AcDbLinetypeTableRecord
  2
HIDDEN
 70
     0
  3
__ __ __ __ __ __ __ __ __ __ __ __ __ __ __ __
 72
    65
 73
     5
 40
8.0
 49
1.0
 74
     0
 49
-2.0
 74
     0
 49
2.0
 74
     0
 49
-2.0
 74
     0
 49
1.0
 74
     0
  0
LTYPE
  5
1F0D
330
1EEE
100
AcDbSymbolTableRecord
100
AcDbLinetypeTableRecord
  2
DOT
 70
     0
  3
. . . . . . . . . . . . . . . . . . . . . . . .
 72
    65
 73
     3
 40
1.6
 49
0.4
 74
     0
 49
-0.8
 74
     0
 49
0.4
 74
     0
  0
LTYPE
  5
1F0E
330
1EEE
100
AcDbSymbolTableRecord
100
AcDbLinetypeTableRecord
  2
CENTER
 70
     0
  3
____ _ ____ _ ____ _ ____ _ ____ _ ____ _ ____ 
 72
    65
 73
     5
 40
12.0
 49
5.0
 74
     0
 49
-0.8
 74
     0
 49
0.4
 74
     0
 49
-0.8
 74
     0
 49
5.0
 74
     0
  0
LTYPE
  5
1F0F
330
1EEE
100
AcDbSymbolTableRecord
100
AcDbLinetypeTableRecord
  2
DIVIDE
 70
     0
  3
____ . . ____ . . ____ . . ____ . . ____ . . __
 72
    65
 73
     7
 40
13.2
 49
5.0
 74
     0
 49
-0.8
 74
     0
 49
0.4
 74
     0
 49
-0.8
 74
     0
 49
0.4
 74
     0
 49
-0.8
 74
     0
 49
5.0
 74
     0
  0
LTYPE
  5
BC93
330
1EEE
100
AcDbSymbolTableRecord
100
AcDbLinetypeTableRecord
  2
DASH_CENTER
 70
     0
  3
Dash_Center
 72
    65
 73
     4
 40
36.0
 49
24.0
 74
     0
 49
-3.0
 74
     0
 49
6.0
 74
     0
 49
-3.0
 74
     0
  0
LTYPE
  5
CA49
330
1EEE
100
AcDbSymbolTableRecord
100
AcDbLinetypeTableRecord
  2
STYLE_01
 70
     0
  3

 72
    65
 73
     2
 40
0.125
 49
0.0625
 74
     0
 49
-0.0625
 74
     0
  0
LTYPE
  5
CA4A
330
1EEE
100
AcDbSymbolTableRecord
100
AcDbLinetypeTableRecord
  2
STYLE_07
 70
     0
  3

 72
    65
 73
     2
 40
0.125
 49
0.03125
 74
     0
 49
-0.09375
 74
     0
  0
ENDTAB
  0
TABLE
  2
LAYER
  5
1EEB
102
{ACAD_XDICTIONARY
360
9A3A
102
}
330
0
100
AcDbSymbolTable
 70
    13
  0
LAYER
  5
1EF9
330
1EEB
100
AcDbSymbolTableRecord
100
AcDbLayerTableRecord
  2
0
 70
     0
 62
     7
  6
CONTINUOUS
370
    -3
390
1EF8
  0
LAYER
  5
4075
330
1EEB
100
AcDbSymbolTableRecord
100
AcDbLayerTableRecord
  2
記号
 70
     0
 62
     4
  6
CONTINUOUS
370
    -3
390
1EF8
  0
LAYER
  5
42A3
330
1EEB
100
AcDbSymbolTableRecord
100
AcDbLayerTableRecord
  2
Defpoints
 70
     4
 62
     7
  6
CONTINUOUS
290
     0
370
    -3
390
1EF8
  0
LAYER
  5
58FC
330
1EEB
100
AcDbSymbolTableRecord
100
AcDbLayerTableRecord
  2
リスト
 70
     0
 62
     8
  6
CONTINUOUS
370
    13
390
1EF8
  0
LAYER
  5
8CB6
330
1EEB
100
AcDbSymbolTableRecord
100
AcDbLayerTableRecord
  2
器具
 70
     0
 62
     4
  6
CONTINUOUS
370
    -3
390
1EF8
  0
LAYER
  5
8CB7
330
1EEB
100
AcDbSymbolTableRecord
100
AcDbLayerTableRecord
  2
レイヤー_1
 70
     0
 62
   160
  6
CONTINUOUS
370
    -3
390
1EF8
  0
LAYER
  5
9466
330
1EEB
100
AcDbSymbolTableRecord
100
AcDbLayerTableRecord
  2
画層1
 70
     4
 62
   160
  6
CONTINUOUS
370
    -3
390
1EF8
1001
AcAecLayerStandard
1000

1000

  0
LAYER
  5
9F35
330
1EEB
100
AcDbSymbolTableRecord
100
AcDbLayerTableRecord
  2
下書き
 70
     0
 62
     6
  6
CONTINUOUS
370
    -3
390
1EF8
1001
AcAecLayerStandard
1000

1000

  0
LAYER
  5
A81A
330
1EEB
100
AcDbSymbolTableRecord
100
AcDbLayerTableRecord
  2
007
 70
     0
 62
     1
  6
CONTINUOUS
370
    -3
390
1EF8
  0
LAYER
  5
BC94
330
1EEB
100
AcDbSymbolTableRecord
100
AcDbLayerTableRecord
  2
図面
 70
     0
 62
     5
  6
CONTINUOUS
370
    -3
390
1EF8
  0
LAYER
  5
CA4B
330
1EEB
100
AcDbSymbolTableRecord
100
AcDbLayerTableRecord
  2
1
 70
     0
 62
     8
  6
CONTINUOUS
370
    -3
390
1EF8
1001
AcAecLayerStandard
1000

1000

  0
LAYER
  5
1246F
330
1EEB
100
AcDbSymbolTableRecord
100
AcDbLayerTableRecord
  2
寸法・文字
 70
     0
 62
     4
  6
CONTINUOUS
370
    13
390
1EF8
1001
AcAecLayerStandard
1000

1000

  0
LAYER
  5
13854
330
1EEB
100
AcDbSymbolTableRecord
100
AcDbLayerTableRecord
  2
製品
 70
     0
 62
     1
  6
CONTINUOUS
370
    -3
390
1EF8
1001
AcAecLayerStandard
1000

1000

  0
ENDTAB
  0
TABLE
  2
STYLE
  5
1EEC
330
0
100
AcDbSymbolTable
 70
    12
  0
STYLE
  5
1EFA
330
1EEC
100
AcDbSymbolTableRecord
100
AcDbTextStyleTableRecord
  2
STANDARD
 70
     0
 40
280.0
 41
1.0
 50
0.0
 71
     0
 42
280.0
  3
MS Gothic.ttf
  4

1001
ACAD
1000
MS Gothic
1071
    32817
  0
STYLE
  5
1F2D
330
1EEC
100
AcDbSymbolTableRecord
100
AcDbTextStyleTableRecord
  2
ＤＨＰ平成ゴシックW5
 70
     0
 40
1000.0
 41
1.0
 50
0.0
 71
     0
 42
1000.0
  3
txt
  4
extfont
  0
STYLE
  5
1F2E
330
1EEC
100
AcDbSymbolTableRecord
100
AcDbTextStyleTableRecord
  2
TATEDRACAD
 70
     4
 40
1000.0
 41
1.0
 50
0.0
 71
     0
 42
1000.0
  3
txt
  4
extfont
  0
STYLE
  5
1F2F
330
1EEC
100
AcDbSymbolTableRecord
100
AcDbTextStyleTableRecord
  2
ＤＨＰ平成ゴシックW51
 70
     0
 40
1000.0
 41
1.0
 50
0.0
 71
     0
 42
1000.0
  3
txt
  4
extfont
  0
STYLE
  5
1F30
330
1EEC
100
AcDbSymbolTableRecord
100
AcDbTextStyleTableRecord
  2
ＪＳＰゴシック
 70
     0
 40
1000.0
 41
1.0
 50
0.0
 71
     0
 42
1000.0
  3
txt
  4
extfont
  0
STYLE
  5
1F31
330
1EEC
100
AcDbSymbolTableRecord
100
AcDbTextStyleTableRecord
  2
ＭＳ_ゴシック
 70
     0
 40
1000.0
 41
1.0
 50
0.0
 71
     0
 42
1000.0
  3
txt
  4
extfont
  0
STYLE
  5
A258
330
1EEC
100
AcDbSymbolTableRecord
100
AcDbTextStyleTableRecord
  2
スタイル1
 70
     0
 40
300.0
 41
1.0
 50
0.0
 71
     0
 42
300.0
  3
MS Gothic.ttf
  4

1001
ACAD
1000
MS Gothic
1071
    32817
  0
STYLE
  5
A547
330
1EEC
100
AcDbSymbolTableRecord
100
AcDbTextStyleTableRecord
  2
WMF-ＭＳ Ｐゴシック0
 70
     0
 40
0.0
 41
1.0
 50
0.0
 71
     0
 42
280.0
  3
MS PGothic.ttf
  4

1001
ACAD
1000
MS PGothic
1071
    32816
  0
STYLE
  5
A58D
330
1EEC
100
AcDbSymbolTableRecord
100
AcDbTextStyleTableRecord
  2
WMF-System0
 70
     0
 40
0.0
 41
1.0
 50
0.0
 71
     0
 42
280.0
  3

  4

  0
STYLE
  5
A81B
330
1EEC
100
AcDbSymbolTableRecord
100
AcDbTextStyleTableRecord
  2
ＭＳ ゴシック
 70
     0
 40
450.0
 41
0.85
 50
0.0
 71
     0
 42
450.0
  3
MS Gothic.ttf
  4

1001
ACAD
1000
MS Gothic
1071
    32817
  0
STYLE
  5
CA4C
330
1EEC
100
AcDbSymbolTableRecord
100
AcDbTextStyleTableRecord
  2
_______
 70
     0
 40
0.0
 41
1.0
 50
0.0
 71
     0
 42
0.0
  3
MS Gothic.ttf
  4
ＭＳ ゴシック
1001
ACAD
1000
ＭＳ ゴシック
1071
        0
  0
STYLE
  5
14676
330
1EEC
100
AcDbSymbolTableRecord
100
AcDbTextStyleTableRecord
  2
ヒラギノ角ゴ Pro W3
 70
     0
 40
0.0
 41
1.0
 50
0.0
 71
     0
 42
0.0
  3
MS Gothic.ttf
  4

1001
ACAD
1000
MS Gothic
1071
    32817
  0
ENDTAB
  0
TABLE
  2
VIEW
  5
1EEF
330
0
100
AcDbSymbolTable
 70
     0
  0
ENDTAB
  0
TABLE
  2
UCS
  5
1EF0
330
0
100
AcDbSymbolTable
 70
     0
  0
ENDTAB
  0
TABLE
  2
APPID
  5
1EF2
330
0
100
AcDbSymbolTable
 70
     3
  0
APPID
  5
1EFB
330
1EF2
100
AcDbSymbolTableRecord
100
AcDbRegAppTableRecord
  2
ACAD
 70
     0
  0
APPID
  5
9467
330
1EF2
100
AcDbSymbolTableRecord
100
AcDbRegAppTableRecord
  2
AcAecLayerStandard
 70
     0
  0
APPID
  5
9D2E
330
1EF2
100
AcDbSymbolTableRecord
100
AcDbRegAppTableRecord
  2
ACAD_PSEXT
 70
     0
  0
ENDTAB
  0
TABLE
  2
DIMSTYLE
  5
1EF3
330
0
100
AcDbSymbolTable
 70
     1
100
AcDbDimStyleTable
 71
     1
340
1F32
  0
DIMSTYLE
105
1F32
330
1EF3
100
AcDbSymbolTableRecord
100
AcDbDimStyleTableRecord
  2
STANDARD
 70
     0
279
     2
340
1EFA
  0
ENDTAB
  0
TABLE
  2
BLOCK_RECORD
  5
1EEA
330
0
100
AcDbSymbolTable
 70
     3
  0
BLOCK_RECORD
  5
1F07
102
{ACAD_XDICTIONARY
360
980C
102
}
330
1EEA
100
AcDbSymbolTableRecord
100
AcDbBlockTableRecord
  2
*Model_Space
340
1F0A
  0
BLOCK_RECORD
  5
1F03
330
1EEA
100
AcDbSymbolTableRecord
100
AcDbBlockTableRecord
  2
*Paper_Space
340
1F06
  0
BLOCK_RECORD
  5
429C
330
1EEA
100
AcDbSymbolTableRecord
100
AcDbBlockTableRecord
  2
_Open30
340
0
  0
BLOCK_RECORD
  5
A543
330
1EEA
100
AcDbSymbolTableRecord
100
AcDbBlockTableRecord
  2
WMF0
340
0
  0
BLOCK_RECORD
  5
1384E
330
1EEA
100
AcDbSymbolTableRecord
100
AcDbBlockTableRecord
  2
_Open
340
0
  0
ENDTAB
  0
ENDSEC
  0
SECTION
  2
BLOCKS
  0
BLOCK
  5
1F08
330
1F07
100
AcDbEntity
  8
0
100
AcDbBlockBegin
  2
*Model_Space
 70
     0
 10
0.0
 20
0.0
 30
0.0
  3
*Model_Space
  1

  0
ENDBLK
  5
1F09
330
1F07
100
AcDbEntity
  8
0
100
AcDbBlockEnd
  0
BLOCK
  5
1F04
330
1F03
100
AcDbEntity
 67
     1
  8
0
100
AcDbBlockBegin
  2
*Paper_Space
 70
     0
 10
0.0
 20
0.0
 30
0.0
  3
*Paper_Space
  1

  0
ENDBLK
  5
1F05
330
1F03
100
AcDbEntity
 67
     1
  8
0
100
AcDbBlockEnd
  0
BLOCK
  5
42A0
330
429C
100
AcDbEntity
  8
0
100
AcDbBlockBegin
  2
_Open30
 70
     0
 10
0.0
 20
0.0
 30
0.0
  3
_Open30
  1

  0
LINE
  5
429D
330
429C
100
AcDbEntity
  8
記号
  6
DOT
 62
     0
370
    -2
100
AcDbLine
 10
-1.0
 20
0.26794919
 30
0.0
 11
0.0
 21
0.0
 31
0.0
  0
LINE
  5
429E
330
429C
100
AcDbEntity
  8
記号
  6
DOT
 62
     0
370
    -2
100
AcDbLine
 10
0.0
 20
0.0
 30
0.0
 11
-1.0
 21
-0.26794919
 31
0.0
  0
LINE
  5
429F
330
429C
100
AcDbEntity
  8
記号
  6
DOT
 62
     0
370
    -2
100
AcDbLine
 10
0.0
 20
0.0
 30
0.0
 11
-1.0
 21
0.0
 31
0.0
  0
ENDBLK
  5
42A1
330
429C
100
AcDbEntity
  8
0
100
AcDbBlockEnd
  0
BLOCK
  5
A546
330
A543
100
AcDbEntity
  8
0
 62
     7
370
     0
100
AcDbBlockBegin
  2
WMF0
 70
     0
 10
0.0
 20
0.0
 30
0.0
  3
WMF0
  1

  0
TEXT
  5
A548
330
A543
100
AcDbEntity
  8
0
 62
     7
370
     0
100
AcDbText
 10
4302.31530976598
 20
-1290.694592929794
 30
0.0
 40
894.8815844313239
  1
LEDﾀﾞｳﾝﾗｲﾄ
  7
WMF-ＭＳ Ｐゴシック0
100
AcDbText
  0
TEXT
  5
A54A
330
A543
100
AcDbEntity
  8
0
 62
     7
370
     0
100
AcDbText
 10
23920.87312229885
 20
-1290.694592929794
 30
0.0
 40
894.8815844313239
  1
LEDﾀﾞｳﾝﾗｲﾄ
  7
WMF-ＭＳ Ｐゴシック0
100
AcDbText
  0
TEXT
  5
A54B
330
A543
100
AcDbEntity
  8
0
 62
     7
370
     0
100
AcDbText
 10
43539.43093483171
 20
-1290.694592929794
 30
0.0
 40
894.8815844313239
  1
LEDﾀﾞｳﾝﾗｲﾄ
  7
WMF-ＭＳ Ｐゴシック0
100
AcDbText
  0
TEXT
  5
A54C
330
A543
100
AcDbEntity
  8
0
 62
     7
370
     0
100
AcDbText
 10
63157.98874736458
 20
-1290.694592929794
 30
0.0
 40
894.8815844313239
  1
LEDﾀﾞｳﾝﾗｲﾄ
  7
WMF-ＭＳ Ｐゴシック0
100
AcDbText
  0
TEXT
  5
A54D
330
A543
100
AcDbEntity
  8
0
 62
     7
370
     0
100
AcDbText
 10
1290.694592929794
 20
-2753.481798250227
 30
0.0
 40
894.8815844313239
  1
D1
  7
WMF-ＭＳ Ｐゴシック0
100
AcDbText
  0
TEXT
  5
A54E
330
A543
100
AcDbEntity
  8
0
 62
     7
370
     0
100
AcDbText
 10
4302.31530976598
 20
-2753.481798250227
 30
0.0
 40
894.8815844313239
  1
BML-26181WW-110
  7
WMF-ＭＳ Ｐゴシック0
100
AcDbText
  0
TEXT
  5
A54F
330
A543
100
AcDbEntity
  8
0
 62
     7
370
     0
100
AcDbText
 10
20909.25240546266
 20
-2753.481798250227
 30
0.0
 40
894.8815844313239
  1
D2
  7
WMF-ＭＳ Ｐゴシック0
100
AcDbText
  0
TEXT
  5
A550
330
A543
100
AcDbEntity
  8
0
 62
     7
370
     0
100
AcDbText
 10
23920.87312229885
 20
-2753.481798250227
 30
0.0
 40
894.8815844313239
  1
BML-26187WW-110
  7
WMF-ＭＳ Ｐゴシック0
100
AcDbText
  0
TEXT
  5
A551
330
A543
100
AcDbEntity
  8
0
 62
     7
370
     0
100
AcDbText
 10
40527.81021799553
 20
-2753.481798250227
 30
0.0
 40
894.8815844313239
  1
D3
  7
WMF-ＭＳ Ｐゴシック0
100
AcDbText
  0
TEXT
  5
A552
330
A543
100
AcDbEntity
  8
0
 62
     7
370
     0
100
AcDbText
 10
43539.43093483171
 20
-2753.481798250227
 30
0.0
 40
894.8815844313239
  1
BML-26199WW-110
  7
WMF-ＭＳ Ｐゴシック0
100
AcDbText
  0
TEXT
  5
A553
330
A543
100
AcDbEntity
  8
0
 62
     7
370
     0
100
AcDbText
 10
60146.36803052839
 20
-2753.481798250227
 30
0.0
 40
894.8815844313239
  1
D4
  7
WMF-ＭＳ Ｐゴシック0
100
AcDbText
  0
TEXT
  5
A554
330
A543
100
AcDbEntity
  8
0
 62
     7
370
     0
100
AcDbText
 10
63157.98874736458
 20
-2753.481798250227
 30
0.0
 40
894.8815844313239
  1
BML-26213WL-110
  7
WMF-ＭＳ Ｐゴシック0
100
AcDbText
  0
TEXT
  5
A555
330
A543
100
AcDbEntity
  8
0
 62
     7
370
     0
100
AcDbText
 10
9637.186293875796
 20
-4216.26900357066
 30
0.0
 40
894.8815844313239
  1
LED76W  (4500K)
  7
WMF-ＭＳ Ｐゴシック0
100
AcDbText
  0
TEXT
  5
A556
330
A543
100
AcDbEntity
  8
0
 62
     7
370
     0
100
AcDbText
 10
29255.74410640866
 20
-4216.26900357066
 30
0.0
 40
894.8815844313239
  1
LED54W  (4500K)
  7
WMF-ＭＳ Ｐゴシック0
100
AcDbText
  0
TEXT
  5
A557
330
A543
100
AcDbEntity
  8
0
 62
     7
370
     0
100
AcDbText
 10
48874.30191894153
 20
-4216.26900357066
 30
0.0
 40
894.8815844313239
  1
LED32W  (4500K)
  7
WMF-ＭＳ Ｐゴシック0
100
AcDbText
  0
TEXT
  5
A558
330
A543
100
AcDbEntity
  8
0
 62
     7
370
     0
100
AcDbText
 10
68492.8597314744
 20
-4216.26900357066
 30
0.0
 40
894.8815844313239
  1
LED17W  (2900K)
  7
WMF-ＭＳ Ｐゴシック0
100
AcDbText
  0
TEXT
  5
A559
330
A543
100
AcDbEntity
  8
0
 62
     7
370
     0
100
AcDbText
 10
4302.31530976598
 20
-20823.20609926735
 30
0.0
 40
894.8815844313239
  1
 
  7
WMF-ＭＳ Ｐゴシック0
100
AcDbText
  0
TEXT
  5
A55A
330
A543
100
AcDbEntity
  8
0
 62
     7
370
     0
100
AcDbText
 10
23920.87312229885
 20
-20823.20609926735
 30
0.0
 40
894.8815844313239
  1
 
  7
WMF-ＭＳ Ｐゴシック0
100
AcDbText
  0
TEXT
  5
A55B
330
A543
100
AcDbEntity
  8
0
 62
     7
370
     0
100
AcDbText
 10
43539.43093483171
 20
-20823.20609926735
 30
0.0
 40
894.8815844313239
  1
 
  7
WMF-ＭＳ Ｐゴシック0
100
AcDbText
  0
TEXT
  5
A55C
330
A543
100
AcDbEntity
  8
0
 62
     7
370
     0
100
AcDbText
 10
63157.98874736458
 20
-20823.20609926735
 30
0.0
 40
894.8815844313239
  1
 
  7
WMF-ＭＳ Ｐゴシック0
100
AcDbText
  0
TEXT
  5
A55D
330
A543
100
AcDbEntity
  8
0
 62
     7
370
     0
100
AcDbText
 10
4302.31530976598
 20
-24006.91942849417
 30
0.0
 40
894.8815844313239
  1
LED直管型ﾗｲﾄ
  7
WMF-ＭＳ Ｐゴシック0
100
AcDbText
  0
TEXT
  5
A55E
330
A543
100
AcDbEntity
  8
0
 62
     7
370
     0
100
AcDbText
 10
23920.87312229885
 20
-24006.91942849417
 30
0.0
 40
894.8815844313239
  1
LED軒下用ﾀﾞｳﾝﾗｲﾄ
  7
WMF-ＭＳ Ｐゴシック0
100
AcDbText
  0
TEXT
  5
A55F
330
A543
100
AcDbEntity
  8
0
 62
     7
370
     0
100
AcDbText
 10
43539.43093483171
 20
-24006.91942849417
 30
0.0
 40
894.8815844313239
  1
LEDｱｳﾄﾄﾞｱｽﾎﾟｯﾄﾗｲﾄ
  7
WMF-ＭＳ Ｐゴシック0
100
AcDbText
  0
TEXT
  5
A560
330
A543
100
AcDbEntity
  8
0
 62
     7
370
     0
100
AcDbText
 10
63157.98874736458
 20
-24006.91942849417
 30
0.0
 40
894.8815844313239
  1
LEDﾀﾞｳﾝﾗｲﾄ
  7
WMF-ＭＳ Ｐゴシック0
100
AcDbText
  0
TEXT
  5
A561
330
A543
100
AcDbEntity
  8
0
 62
     7
370
     0
100
AcDbText
 10
1376.740899125113
 20
-25469.7066338146
 30
0.0
 40
894.8815844313239
  1
F1
  7
WMF-ＭＳ Ｐゴシック0
100
AcDbText
  0
TEXT
  5
A562
330
A543
100
AcDbEntity
  8
0
 62
     7
370
     0
100
AcDbText
 10
4302.31530976598
 20
-25469.7066338146
 30
0.0
 40
894.8815844313239
  1
TBJKL-22006W
  7
WMF-ＭＳ Ｐゴシック0
100
AcDbText
  0
TEXT
  5
A563
330
A543
100
AcDbEntity
  8
0
 62
     7
370
     0
100
AcDbText
 10
20479.02087448607
 20
-25469.7066338146
 30
0.0
 40
894.8815844313239
  1
OD1
  7
WMF-ＭＳ Ｐゴシック0
100
AcDbText
  0
TEXT
  5
A564
330
A543
100
AcDbEntity
  8
0
 62
     7
370
     0
100
AcDbText
 10
23920.87312229885
 20
-25469.7066338146
 30
0.0
 40
894.8815844313239
  1
BML-26187WSW-110
  7
WMF-ＭＳ Ｐゴシック0
100
AcDbText
  0
TEXT
  5
A565
330
A543
100
AcDbEntity
  8
0
 62
     7
370
     0
100
AcDbText
 10
40097.57868701893
 20
-25469.7066338146
 30
0.0
 40
894.8815844313239
  1
OS1
  7
WMF-ＭＳ Ｐゴシック0
100
AcDbText
  0
TEXT
  5
A566
330
A543
100
AcDbEntity
  8
0
 62
     7
370
     0
100
AcDbText
 10
43539.43093483171
 20
-25469.7066338146
 30
0.0
 40
894.8815844313239
  1
BGSL-20045GW-20
  7
WMF-ＭＳ Ｐゴシック0
100
AcDbText
  0
TEXT
  5
A567
330
A543
100
AcDbEntity
  8
0
 62
     7
370
     0
100
AcDbText
 10
60576.59956150499
 20
-25469.7066338146
 30
0.0
 40
894.8815844313239
  1
0
  7
WMF-ＭＳ Ｐゴシック0
100
AcDbText
  0
TEXT
  5
A568
330
A543
100
AcDbEntity
  8
0
 62
     7
370
     0
100
AcDbText
 10
63157.98874736458
 20
-25469.7066338146
 30
0.0
 40
894.8815844313239
  1
BML-26160WW-120
  7
WMF-ＭＳ Ｐゴシック0
100
AcDbText
  0
TEXT
  5
A569
330
A543
100
AcDbEntity
  8
0
 62
     7
370
     0
100
AcDbText
 10
9637.186293875796
 20
-26932.49383913503
 30
0.0
 40
894.8815844313239
  1
LED38W  (4000K)
  7
WMF-ＭＳ Ｐゴシック0
100
AcDbText
  0
TEXT
  5
A56A
330
A543
100
AcDbEntity
  8
0
 62
     7
370
     0
100
AcDbText
 10
29255.74410640866
 20
-26932.49383913503
 30
0.0
 40
894.8815844313239
  1
LED54W  (4500K)
  7
WMF-ＭＳ Ｐゴシック0
100
AcDbText
  0
TEXT
  5
A56B
330
A543
100
AcDbEntity
  8
0
 62
     7
370
     0
100
AcDbText
 10
48874.30191894153
 20
-26932.49383913503
 30
0.0
 40
894.8815844313239
  1
LED68W  (4500K)
  7
WMF-ＭＳ Ｐゴシック0
100
AcDbText
  0
TEXT
  5
A56C
330
A543
100
AcDbEntity
  8
0
 62
     7
370
     0
100
AcDbText
 10
77613.76818817828
 20
-26932.49383913503
 30
0.0
 40
894.8815844313239
  1
0
  7
WMF-ＭＳ Ｐゴシック0
100
AcDbText
  0
TEXT
  5
A56D
330
A543
100
AcDbEntity
  8
0
 62
     7
370
     0
100
AcDbText
 10
4302.31530976598
 20
-46723.14426405853
 30
0.0
 40
894.8815844313239
  1
LEDﾀﾞｳﾝﾗｲﾄ
  7
WMF-ＭＳ Ｐゴシック0
100
AcDbText
  0
TEXT
  5
A56E
330
A543
100
AcDbEntity
  8
0
 62
     7
370
     0
100
AcDbText
 10
23920.87312229885
 20
-46723.14426405853
 30
0.0
 40
894.8815844313239
  1
LEDﾀﾞｳﾝﾗｲﾄ
  7
WMF-ＭＳ Ｐゴシック0
100
AcDbText
  0
TEXT
  5
A56F
330
A543
100
AcDbEntity
  8
0
 62
     7
370
     0
100
AcDbText
 10
43539.43093483171
 20
-46723.14426405853
 30
0.0
 40
894.8815844313239
  1
LEDﾀﾞｳﾝﾗｲﾄ
  7
WMF-ＭＳ Ｐゴシック0
100
AcDbText
  0
TEXT
  5
A570
330
A543
100
AcDbEntity
  8
0
 62
     7
370
     0
100
AcDbText
 10
63157.98874736458
 20
-46723.14426405853
 30
0.0
 40
894.8815844313239
  1
LEDﾀﾞｳﾝﾗｲﾄ
  7
WMF-ＭＳ Ｐゴシック0
100
AcDbText
  0
TEXT
  5
A571
330
A543
100
AcDbEntity
  8
0
 62
     7
370
     0
100
AcDbText
 10
1720.926123906392
 20
-48185.93146937897
 30
0.0
 40
894.8815844313239
  1
0
  7
WMF-ＭＳ Ｐゴシック0
100
AcDbText
  0
TEXT
  5
A572
330
A543
100
AcDbEntity
  8
0
 62
     7
370
     0
100
AcDbText
 10
4302.31530976598
 20
-48185.93146937897
 30
0.0
 40
894.8815844313239
  1
BML-26160WW-124
  7
WMF-ＭＳ Ｐゴシック0
100
AcDbText
  0
TEXT
  5
A573
330
A543
100
AcDbEntity
  8
0
 62
     7
370
     0
100
AcDbText
 10
21339.48393643926
 20
-48185.93146937897
 30
0.0
 40
894.8815844313239
  1
0
  7
WMF-ＭＳ Ｐゴシック0
100
AcDbText
  0
TEXT
  5
A574
330
A543
100
AcDbEntity
  8
0
 62
     7
370
     0
100
AcDbText
 10
23920.87312229885
 20
-48185.93146937897
 30
0.0
 40
894.8815844313239
  1
BML-26160WW-125
  7
WMF-ＭＳ Ｐゴシック0
100
AcDbText
  0
TEXT
  5
A575
330
A543
100
AcDbEntity
  8
0
 62
     7
370
     0
100
AcDbText
 10
40958.04174897213
 20
-48185.93146937897
 30
0.0
 40
894.8815844313239
  1
0
  7
WMF-ＭＳ Ｐゴシック0
100
AcDbText
  0
TEXT
  5
A576
330
A543
100
AcDbEntity
  8
0
 62
     7
370
     0
100
AcDbText
 10
43539.43093483171
 20
-48185.93146937897
 30
0.0
 40
894.8815844313239
  1
BML-26160WW-126
  7
WMF-ＭＳ Ｐゴシック0
100
AcDbText
  0
TEXT
  5
A577
330
A543
100
AcDbEntity
  8
0
 62
     7
370
     0
100
AcDbText
 10
60576.59956150499
 20
-48185.93146937897
 30
0.0
 40
894.8815844313239
  1
0
  7
WMF-ＭＳ Ｐゴシック0
100
AcDbText
  0
TEXT
  5
A578
330
A543
100
AcDbEntity
  8
0
 62
     7
370
     0
100
AcDbText
 10
63157.98874736458
 20
-48185.93146937897
 30
0.0
 40
894.8815844313239
  1
BML-26160WW-127
  7
WMF-ＭＳ Ｐゴシック0
100
AcDbText
  0
TEXT
  5
A579
330
A543
100
AcDbEntity
  8
0
 62
     7
370
     0
100
AcDbText
 10
18758.09475057967
 20
-49648.7186746994
 30
0.0
 40
894.8815844313239
  1
0
  7
WMF-ＭＳ Ｐゴシック0
100
AcDbText
  0
TEXT
  5
A57A
330
A543
100
AcDbEntity
  8
0
 62
     7
370
     0
100
AcDbText
 10
38376.65256311254
 20
-49648.7186746994
 30
0.0
 40
894.8815844313239
  1
0
  7
WMF-ＭＳ Ｐゴシック0
100
AcDbText
  0
TEXT
  5
A57B
330
A543
100
AcDbEntity
  8
0
 62
     7
370
     0
100
AcDbText
 10
57995.21037564541
 20
-49648.7186746994
 30
0.0
 40
894.8815844313239
  1
0
  7
WMF-ＭＳ Ｐゴシック0
100
AcDbText
  0
TEXT
  5
A57C
330
A543
100
AcDbEntity
  8
0
 62
     7
370
     0
100
AcDbText
 10
77613.76818817828
 20
-49648.7186746994
 30
0.0
 40
894.8815844313239
  1
0
  7
WMF-ＭＳ Ｐゴシック0
100
AcDbText
  0
TEXT
  5
A57D
330
A543
100
AcDbEntity
  8
0
 62
     7
370
     0
100
AcDbText
 10
4302.31530976598
 20
-69439.36909962291
 30
0.0
 40
894.8815844313239
  1
LEDﾀﾞｳﾝﾗｲﾄ
  7
WMF-ＭＳ Ｐゴシック0
100
AcDbText
  0
TEXT
  5
A57E
330
A543
100
AcDbEntity
  8
0
 62
     7
370
     0
100
AcDbText
 10
23920.87312229885
 20
-69439.36909962291
 30
0.0
 40
894.8815844313239
  1
LEDﾀﾞｳﾝﾗｲﾄ
  7
WMF-ＭＳ Ｐゴシック0
100
AcDbText
  0
TEXT
  5
A57F
330
A543
100
AcDbEntity
  8
0
 62
     7
370
     0
100
AcDbText
 10
43539.43093483171
 20
-69439.36909962291
 30
0.0
 40
894.8815844313239
  1
LEDﾀﾞｳﾝﾗｲﾄ
  7
WMF-ＭＳ Ｐゴシック0
100
AcDbText
  0
TEXT
  5
A580
330
A543
100
AcDbEntity
  8
0
 62
     7
370
     0
100
AcDbText
 10
63157.98874736458
 20
-69439.36909962291
 30
0.0
 40
894.8815844313239
  1
LEDﾀﾞｳﾝﾗｲﾄ
  7
WMF-ＭＳ Ｐゴシック0
100
AcDbText
  0
TEXT
  5
A581
330
A543
100
AcDbEntity
  8
0
 62
     7
370
     0
100
AcDbText
 10
1720.926123906392
 20
-70902.15630494334
 30
0.0
 40
894.8815844313239
  1
0
  7
WMF-ＭＳ Ｐゴシック0
100
AcDbText
  0
TEXT
  5
A582
330
A543
100
AcDbEntity
  8
0
 62
     7
370
     0
100
AcDbText
 10
18758.09475057967
 20
-70902.15630494334
 30
0.0
 40
894.8815844313239
  1
0
  7
WMF-ＭＳ Ｐゴシック0
100
AcDbText
  0
TEXT
  5
A583
330
A543
100
AcDbEntity
  8
0
 62
     7
370
     0
100
AcDbText
 10
21339.48393643926
 20
-70902.15630494334
 30
0.0
 40
894.8815844313239
  1
0
  7
WMF-ＭＳ Ｐゴシック0
100
AcDbText
  0
TEXT
  5
A584
330
A543
100
AcDbEntity
  8
0
 62
     7
370
     0
100
AcDbText
 10
38376.65256311254
 20
-70902.15630494334
 30
0.0
 40
894.8815844313239
  1
0
  7
WMF-ＭＳ Ｐゴシック0
100
AcDbText
  0
TEXT
  5
A585
330
A543
100
AcDbEntity
  8
0
 62
     7
370
     0
100
AcDbText
 10
40958.04174897213
 20
-70902.15630494334
 30
0.0
 40
894.8815844313239
  1
0
  7
WMF-ＭＳ Ｐゴシック0
100
AcDbText
  0
TEXT
  5
A586
330
A543
100
AcDbEntity
  8
0
 62
     7
370
     0
100
AcDbText
 10
57995.21037564541
 20
-70902.15630494334
 30
0.0
 40
894.8815844313239
  1
0
  7
WMF-ＭＳ Ｐゴシック0
100
AcDbText
  0
TEXT
  5
A587
330
A543
100
AcDbEntity
  8
0
 62
     7
370
     0
100
AcDbText
 10
60576.59956150499
 20
-70902.15630494334
 30
0.0
 40
894.8815844313239
  1
0
  7
WMF-ＭＳ Ｐゴシック0
100
AcDbText
  0
TEXT
  5
A588
330
A543
100
AcDbEntity
  8
0
 62
     7
370
     0
100
AcDbText
 10
77613.76818817828
 20
-70902.15630494334
 30
0.0
 40
894.8815844313239
  1
0
  7
WMF-ＭＳ Ｐゴシック0
100
AcDbText
  0
TEXT
  5
A589
330
A543
100
AcDbEntity
  8
0
 62
     7
370
     0
100
AcDbText
 10
18758.09475057967
 20
-72364.94351026378
 30
0.0
 40
894.8815844313239
  1
0
  7
WMF-ＭＳ Ｐゴシック0
100
AcDbText
  0
TEXT
  5
A58A
330
A543
100
AcDbEntity
  8
0
 62
     7
370
     0
100
AcDbText
 10
38376.65256311254
 20
-72364.94351026378
 30
0.0
 40
894.8815844313239
  1
0
  7
WMF-ＭＳ Ｐゴシック0
100
AcDbText
  0
TEXT
  5
A58B
330
A543
100
AcDbEntity
  8
0
 62
     7
370
     0
100
AcDbText
 10
57995.21037564541
 20
-72364.94351026378
 30
0.0
 40
894.8815844313239
  1
0
  7
WMF-ＭＳ Ｐゴシック0
100
AcDbText
  0
TEXT
  5
A58C
330
A543
100
AcDbEntity
  8
0
 62
     7
370
     0
100
AcDbText
 10
77613.76818817828
 20
-72364.94351026378
 30
0.0
 40
894.8815844313239
  1
0
  7
WMF-ＭＳ Ｐゴシック0
100
AcDbText
  0
POLYLINE
  5
A58E
330
A543
100
AcDbEntity
  8
0
 62
     7
370
     0
100
AcDb2dPolyline
 66
     1
 10
0.0
 20
0.0
 30
0.0
  0
VERTEX
  5
A58F
330
A58E
100
AcDbEntity
  8
0
 62
     7
370
     0
100
AcDbVertex
100
AcDb2dVertex
 10
4130.22269737534
 20
-1462.787205320433
 30
0.0
  0
VERTEX
  5
A590
330
A58E
100
AcDbEntity
  8
0
 62
     7
370
     0
100
AcDbVertex
100
AcDb2dVertex
 10
19704.60411872819
 20
-1462.787205320433
 30
0.0
  0
SEQEND
  5
A591
330
A58E
100
AcDbEntity
  8
0
 62
     7
370
     0
  0
POLYLINE
  5
A592
330
A543
100
AcDbEntity
  8
0
 62
     7
370
     0
100
AcDb2dPolyline
 66
     1
 10
0.0
 20
0.0
 30
0.0
  0
VERTEX
  5
A593
330
A592
100
AcDbEntity
  8
0
 62
     7
370
     0
100
AcDbVertex
100
AcDb2dVertex
 10
23748.78050990821
 20
-1462.787205320433
 30
0.0
  0
VERTEX
  5
A594
330
A592
100
AcDbEntity
  8
0
 62
     7
370
     0
100
AcDbVertex
100
AcDb2dVertex
 10
39323.16193126106
 20
-1462.787205320433
 30
0.0
  0
SEQEND
  5
A595
330
A592
100
AcDbEntity
  8
0
 62
     7
370
     0
  0
POLYLINE
  5
A596
330
A543
100
AcDbEntity
  8
0
 62
     7
370
     0
100
AcDb2dPolyline
 66
     1
 10
0.0
 20
0.0
 30
0.0
  0
VERTEX
  5
A597
330
A596
100
AcDbEntity
  8
0
 62
     7
370
     0
100
AcDbVertex
100
AcDb2dVertex
 10
43367.33832244107
 20
-1462.787205320433
 30
0.0
  0
VERTEX
  5
A598
330
A596
100
AcDbEntity
  8
0
 62
     7
370
     0
100
AcDbVertex
100
AcDb2dVertex
 10
58941.71974379392
 20
-1462.787205320433
 30
0.0
  0
SEQEND
  5
A599
330
A596
100
AcDbEntity
  8
0
 62
     7
370
     0
  0
POLYLINE
  5
A59A
330
A543
100
AcDbEntity
  8
0
 62
     7
370
     0
100
AcDb2dPolyline
 66
     1
 10
0.0
 20
0.0
 30
0.0
  0
VERTEX
  5
A59B
330
A59A
100
AcDbEntity
  8
0
 62
     7
370
     0
100
AcDbVertex
100
AcDb2dVertex
 10
4044.176391180021
 20
-86.04630619531958
 30
0.0
  0
VERTEX
  5
A59C
330
A59A
100
AcDbEntity
  8
0
 62
     7
370
     0
100
AcDbVertex
100
AcDb2dVertex
 10
4044.176391180021
 20
-4474.407922156618
 30
0.0
  0
SEQEND
  5
A59D
330
A59A
100
AcDbEntity
  8
0
 62
     7
370
     0
  0
POLYLINE
  5
A59E
330
A543
100
AcDbEntity
  8
0
 62
     7
370
     0
100
AcDb2dPolyline
 66
     1
 10
0.0
 20
0.0
 30
0.0
  0
VERTEX
  5
A59F
330
A59E
100
AcDbEntity
  8
0
 62
     7
370
     0
100
AcDbVertex
100
AcDb2dVertex
 10
23662.73420371289
 20
-86.04630619531958
 30
0.0
  0
VERTEX
  5
A5A0
330
A59E
100
AcDbEntity
  8
0
 62
     7
370
     0
100
AcDbVertex
100
AcDb2dVertex
 10
23662.73420371289
 20
-4474.407922156618
 30
0.0
  0
SEQEND
  5
A5A1
330
A59E
100
AcDbEntity
  8
0
 62
     7
370
     0
  0
POLYLINE
  5
A5A2
330
A543
100
AcDbEntity
  8
0
 62
     7
370
     0
100
AcDb2dPolyline
 66
     1
 10
0.0
 20
0.0
 30
0.0
  0
VERTEX
  5
A5A3
330
A5A2
100
AcDbEntity
  8
0
 62
     7
370
     0
100
AcDbVertex
100
AcDb2dVertex
 10
43281.29201624575
 20
-86.04630619531958
 30
0.0
  0
VERTEX
  5
A5A4
330
A5A2
100
AcDbEntity
  8
0
 62
     7
370
     0
100
AcDbVertex
100
AcDb2dVertex
 10
43281.29201624575
 20
-4474.407922156618
 30
0.0
  0
SEQEND
  5
A5A5
330
A5A2
100
AcDbEntity
  8
0
 62
     7
370
     0
  0
POLYLINE
  5
A5A6
330
A543
100
AcDbEntity
  8
0
 62
     7
370
     0
100
AcDb2dPolyline
 66
     1
 10
0.0
 20
0.0
 30
0.0
  0
VERTEX
  5
A5A7
330
A5A6
100
AcDbEntity
  8
0
 62
     7
370
     0
100
AcDbVertex
100
AcDb2dVertex
 10
62899.84982877862
 20
-86.04630619531958
 30
0.0
  0
VERTEX
  5
A5A8
330
A5A6
100
AcDbEntity
  8
0
 62
     7
370
     0
100
AcDbVertex
100
AcDb2dVertex
 10
62899.84982877862
 20
-4474.407922156618
 30
0.0
  0
SEQEND
  5
A5A9
330
A5A6
100
AcDbEntity
  8
0
 62
     7
370
     0
  0
POLYLINE
  5
A5AA
330
A543
100
AcDbEntity
  8
0
 62
     7
370
     0
100
AcDb2dPolyline
 66
     1
 10
0.0
 20
0.0
 30
0.0
  0
VERTEX
  5
A5AB
330
A5AA
100
AcDbEntity
  8
0
 62
     7
370
     0
100
AcDbVertex
100
AcDb2dVertex
 10
4130.22269737534
 20
-24179.0120408848
 30
0.0
  0
VERTEX
  5
A5AC
330
A5AA
100
AcDbEntity
  8
0
 62
     7
370
     0
100
AcDbVertex
100
AcDb2dVertex
 10
19704.60411872819
 20
-24179.0120408848
 30
0.0
  0
SEQEND
  5
A5AD
330
A5AA
100
AcDbEntity
  8
0
 62
     7
370
     0
  0
POLYLINE
  5
A5AE
330
A543
100
AcDbEntity
  8
0
 62
     7
370
     0
100
AcDb2dPolyline
 66
     1
 10
0.0
 20
0.0
 30
0.0
  0
VERTEX
  5
A5AF
330
A5AE
100
AcDbEntity
  8
0
 62
     7
370
     0
100
AcDbVertex
100
AcDb2dVertex
 10
23748.78050990821
 20
-24179.0120408848
 30
0.0
  0
VERTEX
  5
A5B0
330
A5AE
100
AcDbEntity
  8
0
 62
     7
370
     0
100
AcDbVertex
100
AcDb2dVertex
 10
39323.16193126106
 20
-24179.0120408848
 30
0.0
  0
SEQEND
  5
A5B1
330
A5AE
100
AcDbEntity
  8
0
 62
     7
370
     0
  0
POLYLINE
  5
A5B2
330
A543
100
AcDbEntity
  8
0
 62
     7
370
     0
100
AcDb2dPolyline
 66
     1
 10
0.0
 20
0.0
 30
0.0
  0
VERTEX
  5
A5B3
330
A5B2
100
AcDbEntity
  8
0
 62
     7
370
     0
100
AcDbVertex
100
AcDb2dVertex
 10
43367.33832244107
 20
-24179.0120408848
 30
0.0
  0
VERTEX
  5
A5B4
330
A5B2
100
AcDbEntity
  8
0
 62
     7
370
     0
100
AcDbVertex
100
AcDb2dVertex
 10
58941.71974379392
 20
-24179.0120408848
 30
0.0
  0
SEQEND
  5
A5B5
330
A5B2
100
AcDbEntity
  8
0
 62
     7
370
     0
  0
POLYLINE
  5
A5B6
330
A543
100
AcDbEntity
  8
0
 62
     7
370
     0
100
AcDb2dPolyline
 66
     1
 10
0.0
 20
0.0
 30
0.0
  0
VERTEX
  5
A5B7
330
A5B6
100
AcDbEntity
  8
0
 62
     7
370
     0
100
AcDbVertex
100
AcDb2dVertex
 10
4044.176391180021
 20
-22802.27114175969
 30
0.0
  0
VERTEX
  5
A5B8
330
A5B6
100
AcDbEntity
  8
0
 62
     7
370
     0
100
AcDbVertex
100
AcDb2dVertex
 10
4044.176391180021
 20
-27190.63275772099
 30
0.0
  0
SEQEND
  5
A5B9
330
A5B6
100
AcDbEntity
  8
0
 62
     7
370
     0
  0
POLYLINE
  5
A5BA
330
A543
100
AcDbEntity
  8
0
 62
     7
370
     0
100
AcDb2dPolyline
 66
     1
 10
0.0
 20
0.0
 30
0.0
  0
VERTEX
  5
A5BB
330
A5BA
100
AcDbEntity
  8
0
 62
     7
370
     0
100
AcDbVertex
100
AcDb2dVertex
 10
23662.73420371289
 20
-22802.27114175969
 30
0.0
  0
VERTEX
  5
A5BC
330
A5BA
100
AcDbEntity
  8
0
 62
     7
370
     0
100
AcDbVertex
100
AcDb2dVertex
 10
23662.73420371289
 20
-27190.63275772099
 30
0.0
  0
SEQEND
  5
A5BD
330
A5BA
100
AcDbEntity
  8
0
 62
     7
370
     0
  0
POLYLINE
  5
A5BE
330
A543
100
AcDbEntity
  8
0
 62
     7
370
     0
100
AcDb2dPolyline
 66
     1
 10
0.0
 20
0.0
 30
0.0
  0
VERTEX
  5
A5BF
330
A5BE
100
AcDbEntity
  8
0
 62
     7
370
     0
100
AcDbVertex
100
AcDb2dVertex
 10
43281.29201624575
 20
-22802.27114175969
 30
0.0
  0
VERTEX
  5
A5C0
330
A5BE
100
AcDbEntity
  8
0
 62
     7
370
     0
100
AcDbVertex
100
AcDb2dVertex
 10
43281.29201624575
 20
-27190.63275772099
 30
0.0
  0
SEQEND
  5
A5C1
330
A5BE
100
AcDbEntity
  8
0
 62
     7
370
     0
  0
POLYLINE
  5
A5C2
330
A543
100
AcDbEntity
  8
0
 62
     7
370
     0
100
AcDb2dPolyline
 66
     1
 10
0.0
 20
0.0
 30
0.0
  0
VERTEX
  5
A5C3
330
A5C2
100
AcDbEntity
  8
0
 62
     7
370
     0
100
AcDbVertex
100
AcDb2dVertex
 10
62899.84982877862
 20
-22802.27114175969
 30
0.0
  0
VERTEX
  5
A5C4
330
A5C2
100
AcDbEntity
  8
0
 62
     7
370
     0
100
AcDbVertex
100
AcDb2dVertex
 10
62899.84982877862
 20
-27190.63275772099
 30
0.0
  0
SEQEND
  5
A5C5
330
A5C2
100
AcDbEntity
  8
0
 62
     7
370
     0
  0
POLYLINE
  5
A5C6
330
A543
100
AcDbEntity
  8
0
 62
     7
370
     0
100
AcDb2dPolyline
 66
     1
 10
0.0
 20
0.0
 30
0.0
  0
VERTEX
  5
A5C7
330
A5C6
100
AcDbEntity
  8
0
 62
     7
370
     0
100
AcDbVertex
100
AcDb2dVertex
 10
4130.22269737534
 20
-46895.23687644918
 30
0.0
  0
VERTEX
  5
A5C8
330
A5C6
100
AcDbEntity
  8
0
 62
     7
370
     0
100
AcDbVertex
100
AcDb2dVertex
 10
19704.60411872819
 20
-46895.23687644918
 30
0.0
  0
SEQEND
  5
A5C9
330
A5C6
100
AcDbEntity
  8
0
 62
     7
370
     0
  0
POLYLINE
  5
A5CA
330
A543
100
AcDbEntity
  8
0
 62
     7
370
     0
100
AcDb2dPolyline
 66
     1
 10
0.0
 20
0.0
 30
0.0
  0
VERTEX
  5
A5CB
330
A5CA
100
AcDbEntity
  8
0
 62
     7
370
     0
100
AcDbVertex
100
AcDb2dVertex
 10
23748.78050990821
 20
-46895.23687644918
 30
0.0
  0
VERTEX
  5
A5CC
330
A5CA
100
AcDbEntity
  8
0
 62
     7
370
     0
100
AcDbVertex
100
AcDb2dVertex
 10
39323.16193126106
 20
-46895.23687644918
 30
0.0
  0
SEQEND
  5
A5CD
330
A5CA
100
AcDbEntity
  8
0
 62
     7
370
     0
  0
POLYLINE
  5
A5CE
330
A543
100
AcDbEntity
  8
0
 62
     7
370
     0
100
AcDb2dPolyline
 66
     1
 10
0.0
 20
0.0
 30
0.0
  0
VERTEX
  5
A5CF
330
A5CE
100
AcDbEntity
  8
0
 62
     7
370
     0
100
AcDbVertex
100
AcDb2dVertex
 10
43367.33832244107
 20
-46895.23687644918
 30
0.0
  0
VERTEX
  5
A5D0
330
A5CE
100
AcDbEntity
  8
0
 62
     7
370
     0
100
AcDbVertex
100
AcDb2dVertex
 10
58941.71974379392
 20
-46895.23687644918
 30
0.0
  0
SEQEND
  5
A5D1
330
A5CE
100
AcDbEntity
  8
0
 62
     7
370
     0
  0
POLYLINE
  5
A5D2
330
A543
100
AcDbEntity
  8
0
 62
     7
370
     0
100
AcDb2dPolyline
 66
     1
 10
0.0
 20
0.0
 30
0.0
  0
VERTEX
  5
A5D3
330
A5D2
100
AcDbEntity
  8
0
 62
     7
370
     0
100
AcDbVertex
100
AcDb2dVertex
 10
4044.176391180021
 20
-45518.49597732406
 30
0.0
  0
VERTEX
  5
A5D4
330
A5D2
100
AcDbEntity
  8
0
 62
     7
370
     0
100
AcDbVertex
100
AcDb2dVertex
 10
4044.176391180021
 20
-49906.85759328536
 30
0.0
  0
SEQEND
  5
A5D5
330
A5D2
100
AcDbEntity
  8
0
 62
     7
370
     0
  0
POLYLINE
  5
A5D6
330
A543
100
AcDbEntity
  8
0
 62
     7
370
     0
100
AcDb2dPolyline
 66
     1
 10
0.0
 20
0.0
 30
0.0
  0
VERTEX
  5
A5D7
330
A5D6
100
AcDbEntity
  8
0
 62
     7
370
     0
100
AcDbVertex
100
AcDb2dVertex
 10
23662.73420371289
 20
-45518.49597732406
 30
0.0
  0
VERTEX
  5
A5D8
330
A5D6
100
AcDbEntity
  8
0
 62
     7
370
     0
100
AcDbVertex
100
AcDb2dVertex
 10
23662.73420371289
 20
-49906.85759328536
 30
0.0
  0
SEQEND
  5
A5D9
330
A5D6
100
AcDbEntity
  8
0
 62
     7
370
     0
  0
POLYLINE
  5
A5DA
330
A543
100
AcDbEntity
  8
0
 62
     7
370
     0
100
AcDb2dPolyline
 66
     1
 10
0.0
 20
0.0
 30
0.0
  0
VERTEX
  5
A5DB
330
A5DA
100
AcDbEntity
  8
0
 62
     7
370
     0
100
AcDbVertex
100
AcDb2dVertex
 10
43281.29201624575
 20
-45518.49597732406
 30
0.0
  0
VERTEX
  5
A5DC
330
A5DA
100
AcDbEntity
  8
0
 62
     7
370
     0
100
AcDbVertex
100
AcDb2dVertex
 10
43281.29201624575
 20
-49906.85759328536
 30
0.0
  0
SEQEND
  5
A5DD
330
A5DA
100
AcDbEntity
  8
0
 62
     7
370
     0
  0
POLYLINE
  5
A5DE
330
A543
100
AcDbEntity
  8
0
 62
     7
370
     0
100
AcDb2dPolyline
 66
     1
 10
0.0
 20
0.0
 30
0.0
  0
VERTEX
  5
A5DF
330
A5DE
100
AcDbEntity
  8
0
 62
     7
370
     0
100
AcDbVertex
100
AcDb2dVertex
 10
62899.84982877862
 20
-45518.49597732406
 30
0.0
  0
VERTEX
  5
A5E0
330
A5DE
100
AcDbEntity
  8
0
 62
     7
370
     0
100
AcDbVertex
100
AcDb2dVertex
 10
62899.84982877862
 20
-49906.85759328536
 30
0.0
  0
SEQEND
  5
A5E1
330
A5DE
100
AcDbEntity
  8
0
 62
     7
370
     0
  0
POLYLINE
  5
A5E2
330
A543
100
AcDbEntity
  8
0
 62
     7
370
     0
100
AcDb2dPolyline
 66
     1
 10
0.0
 20
0.0
 30
0.0
  0
VERTEX
  5
A5E3
330
A5E2
100
AcDbEntity
  8
0
 62
     7
370
     0
100
AcDbVertex
100
AcDb2dVertex
 10
4130.22269737534
 20
-69611.46171201355
 30
0.0
  0
VERTEX
  5
A5E4
330
A5E2
100
AcDbEntity
  8
0
 62
     7
370
     0
100
AcDbVertex
100
AcDb2dVertex
 10
19704.60411872819
 20
-69611.46171201355
 30
0.0
  0
SEQEND
  5
A5E5
330
A5E2
100
AcDbEntity
  8
0
 62
     7
370
     0
  0
POLYLINE
  5
A5E6
330
A543
100
AcDbEntity
  8
0
 62
     7
370
     0
100
AcDb2dPolyline
 66
     1
 10
0.0
 20
0.0
 30
0.0
  0
VERTEX
  5
A5E7
330
A5E6
100
AcDbEntity
  8
0
 62
     7
370
     0
100
AcDbVertex
100
AcDb2dVertex
 10
23748.78050990821
 20
-69611.46171201355
 30
0.0
  0
VERTEX
  5
A5E8
330
A5E6
100
AcDbEntity
  8
0
 62
     7
370
     0
100
AcDbVertex
100
AcDb2dVertex
 10
39323.16193126106
 20
-69611.46171201355
 30
0.0
  0
SEQEND
  5
A5E9
330
A5E6
100
AcDbEntity
  8
0
 62
     7
370
     0
  0
POLYLINE
  5
A5EA
330
A543
100
AcDbEntity
  8
0
 62
     7
370
     0
100
AcDb2dPolyline
 66
     1
 10
0.0
 20
0.0
 30
0.0
  0
VERTEX
  5
A5EB
330
A5EA
100
AcDbEntity
  8
0
 62
     7
370
     0
100
AcDbVertex
100
AcDb2dVertex
 10
43367.33832244107
 20
-69611.46171201355
 30
0.0
  0
VERTEX
  5
A5EC
330
A5EA
100
AcDbEntity
  8
0
 62
     7
370
     0
100
AcDbVertex
100
AcDb2dVertex
 10
58941.71974379392
 20
-69611.46171201355
 30
0.0
  0
SEQEND
  5
A5ED
330
A5EA
100
AcDbEntity
  8
0
 62
     7
370
     0
  0
POLYLINE
  5
A5EE
330
A543
100
AcDbEntity
  8
0
 62
     7
370
     0
100
AcDb2dPolyline
 66
     1
 10
0.0
 20
0.0
 30
0.0
  0
VERTEX
  5
A5EF
330
A5EE
100
AcDbEntity
  8
0
 62
     7
370
     0
100
AcDbVertex
100
AcDb2dVertex
 10
0.0
 20
0.0
 30
0.0
  0
VERTEX
  5
A5F0
330
A5EE
100
AcDbEntity
  8
0
 62
     7
370
     0
100
AcDbVertex
100
AcDb2dVertex
 10
0.0
 20
-90950.94564845281
 30
0.0
  0
SEQEND
  5
A5F1
330
A5EE
100
AcDbEntity
  8
0
 62
     7
370
     0
  0
POLYLINE
  5
A5F2
330
A543
100
AcDbEntity
  8
0
 62
     7
370
     0
100
AcDb2dPolyline
 66
     1
 10
0.0
 20
0.0
 30
0.0
  0
VERTEX
  5
A5F3
330
A5F2
100
AcDbEntity
  8
0
 62
     7
370
     0
100
AcDbVertex
100
AcDb2dVertex
 10
4044.176391180021
 20
-68234.72081288843
 30
0.0
  0
VERTEX
  5
A5F4
330
A5F2
100
AcDbEntity
  8
0
 62
     7
370
     0
100
AcDbVertex
100
AcDb2dVertex
 10
4044.176391180021
 20
-72623.08242884974
 30
0.0
  0
SEQEND
  5
A5F5
330
A5F2
100
AcDbEntity
  8
0
 62
     7
370
     0
  0
POLYLINE
  5
A5F6
330
A543
100
AcDbEntity
  8
0
 62
     7
370
     0
100
AcDb2dPolyline
 66
     1
 10
0.0
 20
0.0
 30
0.0
  0
VERTEX
  5
A5F7
330
A5F6
100
AcDbEntity
  8
0
 62
     7
370
     0
100
AcDbVertex
100
AcDb2dVertex
 10
19618.55781253287
 20
-86.04630619531958
 30
0.0
  0
VERTEX
  5
A5F8
330
A5F6
100
AcDbEntity
  8
0
 62
     7
370
     0
100
AcDbVertex
100
AcDb2dVertex
 10
19618.55781253287
 20
-90950.94564845281
 30
0.0
  0
SEQEND
  5
A5F9
330
A5F6
100
AcDbEntity
  8
0
 62
     7
370
     0
  0
POLYLINE
  5
A5FA
330
A543
100
AcDbEntity
  8
0
 62
     7
370
     0
100
AcDb2dPolyline
 66
     1
 10
0.0
 20
0.0
 30
0.0
  0
VERTEX
  5
A5FB
330
A5FA
100
AcDbEntity
  8
0
 62
     7
370
     0
100
AcDbVertex
100
AcDb2dVertex
 10
23662.73420371289
 20
-68234.72081288843
 30
0.0
  0
VERTEX
  5
A5FC
330
A5FA
100
AcDbEntity
  8
0
 62
     7
370
     0
100
AcDbVertex
100
AcDb2dVertex
 10
23662.73420371289
 20
-72623.08242884974
 30
0.0
  0
SEQEND
  5
A5FD
330
A5FA
100
AcDbEntity
  8
0
 62
     7
370
     0
  0
POLYLINE
  5
A5FE
330
A543
100
AcDbEntity
  8
0
 62
     7
370
     0
100
AcDb2dPolyline
 66
     1
 10
0.0
 20
0.0
 30
0.0
  0
VERTEX
  5
A5FF
330
A5FE
100
AcDbEntity
  8
0
 62
     7
370
     0
100
AcDbVertex
100
AcDb2dVertex
 10
39237.11562506574
 20
-86.04630619531958
 30
0.0
  0
VERTEX
  5
A600
330
A5FE
100
AcDbEntity
  8
0
 62
     7
370
     0
100
AcDbVertex
100
AcDb2dVertex
 10
39237.11562506574
 20
-90950.94564845281
 30
0.0
  0
SEQEND
  5
A601
330
A5FE
100
AcDbEntity
  8
0
 62
     7
370
     0
  0
POLYLINE
  5
A602
330
A543
100
AcDbEntity
  8
0
 62
     7
370
     0
100
AcDb2dPolyline
 66
     1
 10
0.0
 20
0.0
 30
0.0
  0
VERTEX
  5
A603
330
A602
100
AcDbEntity
  8
0
 62
     7
370
     0
100
AcDbVertex
100
AcDb2dVertex
 10
43281.29201624575
 20
-68234.72081288843
 30
0.0
  0
VERTEX
  5
A604
330
A602
100
AcDbEntity
  8
0
 62
     7
370
     0
100
AcDbVertex
100
AcDb2dVertex
 10
43281.29201624575
 20
-72623.08242884974
 30
0.0
  0
SEQEND
  5
A605
330
A602
100
AcDbEntity
  8
0
 62
     7
370
     0
  0
POLYLINE
  5
A606
330
A543
100
AcDbEntity
  8
0
 62
     7
370
     0
100
AcDb2dPolyline
 66
     1
 10
0.0
 20
0.0
 30
0.0
  0
VERTEX
  5
A607
330
A606
100
AcDbEntity
  8
0
 62
     7
370
     0
100
AcDbVertex
100
AcDb2dVertex
 10
58855.6734375986
 20
-86.04630619531958
 30
0.0
  0
VERTEX
  5
A608
330
A606
100
AcDbEntity
  8
0
 62
     7
370
     0
100
AcDbVertex
100
AcDb2dVertex
 10
58855.6734375986
 20
-90950.94564845281
 30
0.0
  0
SEQEND
  5
A609
330
A606
100
AcDbEntity
  8
0
 62
     7
370
     0
  0
POLYLINE
  5
A60A
330
A543
100
AcDbEntity
  8
0
 62
     7
370
     0
100
AcDb2dPolyline
 66
     1
 10
0.0
 20
0.0
 30
0.0
  0
VERTEX
  5
A60B
330
A60A
100
AcDbEntity
  8
0
 62
     7
370
     0
100
AcDbVertex
100
AcDb2dVertex
 10
62899.84982877862
 20
-68234.72081288843
 30
0.0
  0
VERTEX
  5
A60C
330
A60A
100
AcDbEntity
  8
0
 62
     7
370
     0
100
AcDbVertex
100
AcDb2dVertex
 10
62899.84982877862
 20
-72623.08242884974
 30
0.0
  0
SEQEND
  5
A60D
330
A60A
100
AcDbEntity
  8
0
 62
     7
370
     0
  0
POLYLINE
  5
A60E
330
A543
100
AcDbEntity
  8
0
 62
     7
370
     0
100
AcDb2dPolyline
 66
     1
 10
0.0
 20
0.0
 30
0.0
  0
VERTEX
  5
A60F
330
A60E
100
AcDbEntity
  8
0
 62
     7
370
     0
100
AcDbVertex
100
AcDb2dVertex
 10
78474.23125013147
 20
-86.04630619531958
 30
0.0
  0
VERTEX
  5
A610
330
A60E
100
AcDbEntity
  8
0
 62
     7
370
     0
100
AcDbVertex
100
AcDb2dVertex
 10
78474.23125013147
 20
-90950.94564845281
 30
0.0
  0
SEQEND
  5
A611
330
A60E
100
AcDbEntity
  8
0
 62
     7
370
     0
  0
POLYLINE
  5
A612
330
A543
100
AcDbEntity
  8
0
 62
     7
370
     0
100
AcDb2dPolyline
 66
     1
 10
0.0
 20
0.0
 30
0.0
  0
VERTEX
  5
A613
330
A612
100
AcDbEntity
  8
0
 62
     7
370
     0
100
AcDbVertex
100
AcDb2dVertex
 10
86.04630619531958
 20
0.0
 30
0.0
  0
VERTEX
  5
A614
330
A612
100
AcDbEntity
  8
0
 62
     7
370
     0
100
AcDbVertex
100
AcDb2dVertex
 10
78560.2775563268
 20
0.0
 30
0.0
  0
SEQEND
  5
A615
330
A612
100
AcDbEntity
  8
0
 62
     7
370
     0
  0
POLYLINE
  5
A616
330
A543
100
AcDbEntity
  8
0
 62
     7
370
     0
100
AcDb2dPolyline
 66
     1
 10
0.0
 20
0.0
 30
0.0
  0
VERTEX
  5
A617
330
A616
100
AcDbEntity
  8
0
 62
     7
370
     0
100
AcDbVertex
100
AcDb2dVertex
 10
62985.89613497393
 20
-1462.787205320433
 30
0.0
  0
VERTEX
  5
A618
330
A616
100
AcDbEntity
  8
0
 62
     7
370
     0
100
AcDbVertex
100
AcDb2dVertex
 10
78560.2775563268
 20
-1462.787205320433
 30
0.0
  0
SEQEND
  5
A619
330
A616
100
AcDbEntity
  8
0
 62
     7
370
     0
  0
POLYLINE
  5
A61A
330
A543
100
AcDbEntity
  8
0
 62
     7
370
     0
100
AcDb2dPolyline
 66
     1
 10
0.0
 20
0.0
 30
0.0
  0
VERTEX
  5
A61B
330
A61A
100
AcDbEntity
  8
0
 62
     7
370
     0
100
AcDbVertex
100
AcDb2dVertex
 10
86.04630619531958
 20
-4388.361615961299
 30
0.0
  0
VERTEX
  5
A61C
330
A61A
100
AcDbEntity
  8
0
 62
     7
370
     0
100
AcDbVertex
100
AcDb2dVertex
 10
78560.2775563268
 20
-4388.361615961299
 30
0.0
  0
SEQEND
  5
A61D
330
A61A
100
AcDbEntity
  8
0
 62
     7
370
     0
  0
POLYLINE
  5
A61E
330
A543
100
AcDbEntity
  8
0
 62
     7
370
     0
100
AcDb2dPolyline
 66
     1
 10
0.0
 20
0.0
 30
0.0
  0
VERTEX
  5
A61F
330
A61E
100
AcDbEntity
  8
0
 62
     7
370
     0
100
AcDbVertex
100
AcDb2dVertex
 10
86.04630619531958
 20
-22716.22483556437
 30
0.0
  0
VERTEX
  5
A620
330
A61E
100
AcDbEntity
  8
0
 62
     7
370
     0
100
AcDbVertex
100
AcDb2dVertex
 10
78560.2775563268
 20
-22716.22483556437
 30
0.0
  0
SEQEND
  5
A621
330
A61E
100
AcDbEntity
  8
0
 62
     7
370
     0
  0
POLYLINE
  5
A622
330
A543
100
AcDbEntity
  8
0
 62
     7
370
     0
100
AcDb2dPolyline
 66
     1
 10
0.0
 20
0.0
 30
0.0
  0
VERTEX
  5
A623
330
A622
100
AcDbEntity
  8
0
 62
     7
370
     0
100
AcDbVertex
100
AcDb2dVertex
 10
62985.89613497393
 20
-24179.0120408848
 30
0.0
  0
VERTEX
  5
A624
330
A622
100
AcDbEntity
  8
0
 62
     7
370
     0
100
AcDbVertex
100
AcDb2dVertex
 10
78560.2775563268
 20
-24179.0120408848
 30
0.0
  0
SEQEND
  5
A625
330
A622
100
AcDbEntity
  8
0
 62
     7
370
     0
  0
POLYLINE
  5
A626
330
A543
100
AcDbEntity
  8
0
 62
     7
370
     0
100
AcDb2dPolyline
 66
     1
 10
0.0
 20
0.0
 30
0.0
  0
VERTEX
  5
A627
330
A626
100
AcDbEntity
  8
0
 62
     7
370
     0
100
AcDbVertex
100
AcDb2dVertex
 10
86.04630619531958
 20
-27104.58645152567
 30
0.0
  0
VERTEX
  5
A628
330
A626
100
AcDbEntity
  8
0
 62
     7
370
     0
100
AcDbVertex
100
AcDb2dVertex
 10
78560.2775563268
 20
-27104.58645152567
 30
0.0
  0
SEQEND
  5
A629
330
A626
100
AcDbEntity
  8
0
 62
     7
370
     0
  0
POLYLINE
  5
A62A
330
A543
100
AcDbEntity
  8
0
 62
     7
370
     0
100
AcDb2dPolyline
 66
     1
 10
0.0
 20
0.0
 30
0.0
  0
VERTEX
  5
A62B
330
A62A
100
AcDbEntity
  8
0
 62
     7
370
     0
100
AcDbVertex
100
AcDb2dVertex
 10
86.04630619531958
 20
-45432.44967112874
 30
0.0
  0
VERTEX
  5
A62C
330
A62A
100
AcDbEntity
  8
0
 62
     7
370
     0
100
AcDbVertex
100
AcDb2dVertex
 10
78560.2775563268
 20
-45432.44967112874
 30
0.0
  0
SEQEND
  5
A62D
330
A62A
100
AcDbEntity
  8
0
 62
     7
370
     0
  0
POLYLINE
  5
A62E
330
A543
100
AcDbEntity
  8
0
 62
     7
370
     0
100
AcDb2dPolyline
 66
     1
 10
0.0
 20
0.0
 30
0.0
  0
VERTEX
  5
A62F
330
A62E
100
AcDbEntity
  8
0
 62
     7
370
     0
100
AcDbVertex
100
AcDb2dVertex
 10
62985.89613497393
 20
-46895.23687644918
 30
0.0
  0
VERTEX
  5
A630
330
A62E
100
AcDbEntity
  8
0
 62
     7
370
     0
100
AcDbVertex
100
AcDb2dVertex
 10
78560.2775563268
 20
-46895.23687644918
 30
0.0
  0
SEQEND
  5
A631
330
A62E
100
AcDbEntity
  8
0
 62
     7
370
     0
  0
POLYLINE
  5
A632
330
A543
100
AcDbEntity
  8
0
 62
     7
370
     0
100
AcDb2dPolyline
 66
     1
 10
0.0
 20
0.0
 30
0.0
  0
VERTEX
  5
A633
330
A632
100
AcDbEntity
  8
0
 62
     7
370
     0
100
AcDbVertex
100
AcDb2dVertex
 10
86.04630619531958
 20
-49820.81128709004
 30
0.0
  0
VERTEX
  5
A634
330
A632
100
AcDbEntity
  8
0
 62
     7
370
     0
100
AcDbVertex
100
AcDb2dVertex
 10
78560.2775563268
 20
-49820.81128709004
 30
0.0
  0
SEQEND
  5
A635
330
A632
100
AcDbEntity
  8
0
 62
     7
370
     0
  0
POLYLINE
  5
A636
330
A543
100
AcDbEntity
  8
0
 62
     7
370
     0
100
AcDb2dPolyline
 66
     1
 10
0.0
 20
0.0
 30
0.0
  0
VERTEX
  5
A637
330
A636
100
AcDbEntity
  8
0
 62
     7
370
     0
100
AcDbVertex
100
AcDb2dVertex
 10
86.04630619531958
 20
-68148.67450669312
 30
0.0
  0
VERTEX
  5
A638
330
A636
100
AcDbEntity
  8
0
 62
     7
370
     0
100
AcDbVertex
100
AcDb2dVertex
 10
78560.2775563268
 20
-68148.67450669312
 30
0.0
  0
SEQEND
  5
A639
330
A636
100
AcDbEntity
  8
0
 62
     7
370
     0
  0
POLYLINE
  5
A63A
330
A543
100
AcDbEntity
  8
0
 62
     7
370
     0
100
AcDb2dPolyline
 66
     1
 10
0.0
 20
0.0
 30
0.0
  0
VERTEX
  5
A63B
330
A63A
100
AcDbEntity
  8
0
 62
     7
370
     0
100
AcDbVertex
100
AcDb2dVertex
 10
62985.89613497393
 20
-69611.46171201355
 30
0.0
  0
VERTEX
  5
A63C
330
A63A
100
AcDbEntity
  8
0
 62
     7
370
     0
100
AcDbVertex
100
AcDb2dVertex
 10
78560.2775563268
 20
-69611.46171201355
 30
0.0
  0
SEQEND
  5
A63D
330
A63A
100
AcDbEntity
  8
0
 62
     7
370
     0
  0
POLYLINE
  5
A63E
330
A543
100
AcDbEntity
  8
0
 62
     7
370
     0
100
AcDb2dPolyline
 66
     1
 10
0.0
 20
0.0
 30
0.0
  0
VERTEX
  5
A63F
330
A63E
100
AcDbEntity
  8
0
 62
     7
370
     0
100
AcDbVertex
100
AcDb2dVertex
 10
86.04630619531958
 20
-72537.03612265442
 30
0.0
  0
VERTEX
  5
A640
330
A63E
100
AcDbEntity
  8
0
 62
     7
370
     0
100
AcDbVertex
100
AcDb2dVertex
 10
78560.2775563268
 20
-72537.03612265442
 30
0.0
  0
SEQEND
  5
A641
330
A63E
100
AcDbEntity
  8
0
 62
     7
370
     0
  0
POLYLINE
  5
A642
330
A543
100
AcDbEntity
  8
0
 62
     7
370
     0
100
AcDb2dPolyline
 66
     1
 10
0.0
 20
0.0
 30
0.0
  0
VERTEX
  5
A643
330
A642
100
AcDbEntity
  8
0
 62
     7
370
     0
100
AcDbVertex
100
AcDb2dVertex
 10
86.04630619531958
 20
-90864.89934225749
 30
0.0
  0
VERTEX
  5
A644
330
A642
100
AcDbEntity
  8
0
 62
     7
370
     0
100
AcDbVertex
100
AcDb2dVertex
 10
78560.2775563268
 20
-90864.89934225749
 30
0.0
  0
SEQEND
  5
A645
330
A642
100
AcDbEntity
  8
0
 62
     7
370
     0
  0
ENDBLK
  5
A646
330
A543
100
AcDbEntity
  8
0
 62
     7
370
     0
100
AcDbBlockEnd
  0
BLOCK
  5
1384F
330
1384E
100
AcDbEntity
  8
0
 62
     7
100
AcDbBlockBegin
  2
_Open
 70
     0
 10
0.0
 20
0.0
 30
0.0
  3
_Open
  1

  0
LINE
  5
13850
330
1384E
100
AcDbEntity
  8
0
  6
ByBlock
 62
     0
370
    -2
100
AcDbLine
 10
-1.0
 20
0.1666666666666666
 30
0.0
 11
0.0
 21
0.0
 31
0.0
  0
LINE
  5
13851
330
1384E
100
AcDbEntity
  8
0
  6
ByBlock
 62
     0
370
    -2
100
AcDbLine
 10
-1.0
 20
-0.1666666666666666
 30
0.0
 11
0.0
 21
0.0
 31
0.0
  0
LINE
  5
13852
330
1384E
100
AcDbEntity
  8
0
  6
ByBlock
 62
     0
370
    -2
100
AcDbLine
 10
0.0
 20
0.0
 30
0.0
 11
-1.0
 21
0.0
 31
0.0
  0
ENDBLK
  5
13853
330
1384E
100
AcDbEntity
  8
0
 62
     7
100
AcDbBlockEnd
  0
ENDSEC
  0
SECTION
  2
ENTITIES
  0
TEXT
  5
FE9B
330
1F07
100
AcDbEntity
  8
0
 62
     7
100
AcDbText
 10
2907.195566956281
 20
4514.456361403456
 30
0.0
 40
299.9999947731441
  1
LEDｽﾎﾟｯﾄﾗｲﾄ
  7
WMF-ＭＳ Ｐゴシック0
100
AcDbText
  0
TEXT
  5
FE9D
330
1F07
100
AcDbEntity
  8
0
 62
     7
100
AcDbText
 10
2907.195566956281
 20
4024.071754562727
 30
0.0
 40
299.9999947731441
  1
BSSL-34050WL-60
  7
WMF-ＭＳ Ｐゴシック0
100
AcDbText
  0
TEXT
  5
FE9F
330
1F07
100
AcDbEntity
  8
0
 62
     7
100
AcDbText
 10
4695.657074257739
 20
3533.687147722027
 30
0.0
 40
299.9999947731441
  1
LED24W  (2900K)
  7
WMF-ＭＳ Ｐゴシック0
100
AcDbText
  0
TEXT
  5
FEA0
330
1F07
100
AcDbEntity
  8
0
 62
     7
100
AcDbText
 10
2907.195566956281
 20
-2033.620447587295
 30
0.0
 40
299.9999947731441
  1
 
  7
WMF-ＭＳ Ｐゴシック0
100
AcDbText
  0
TEXT
  5
FFC6
330
1F07
100
AcDbEntity
  8
0
 62
     7
100
AcDbText
 10
2907.195566956281
 20
-2033.620447587295
 30
0.0
 40
299.9999947731441
  1
 
  7
WMF-ＭＳ Ｐゴシック0
100
AcDbText
  0
ELLIPSE
  5
101FE
330
1F07
100
AcDbEntity
  8
器具
100
AcDbEllipse
 10
4737.998402546447
 20
1440.650621549326
 30
0.0
 11
-354.3573088115604
 21
0.0000000000000868
 31
0.0
210
0.0
220
0.0
230
1.0
 40
0.2435234442045412
 41
3.141592653589792
 42
6.283185307179585
  0
ELLIPSE
  5
101FF
330
1F07
100
AcDbEntity
  8
器具
100
AcDbEllipse
 10
4737.998402546447
 20
1205.842384127013
 30
0.0
 11
-354.3573088115604
 21
0.0000000000000868
 31
0.0
210
0.0
220
0.0
230
1.0
 40
0.2435234442045412
 41
1.656233069673538
 42
1.829968355446544
  0
ELLIPSE
  5
10200
330
1F07
100
AcDbEntity
  8
器具
100
AcDbEllipse
 10
4737.998402546447
 20
1205.842384127013
 30
0.0
 11
-354.3573088115604
 21
0.0000000000000868
 31
0.0
210
0.0
220
0.0
230
1.0
 40
0.2435234442045412
 41
2.288502555488349
 42
7.638739474061027
  0
ELLIPSE
  5
10201
330
1F07
100
AcDbEntity
  8
器具
100
AcDbEllipse
 10
4490.494311385741
 20
1210.590971257365
 30
0.0
 11
-21.03579333430583
 21
0.0000000000000052
 31
0.0
210
0.0
220
0.0
230
1.0
 40
0.4210529777947262
 41
3.141592653589792
 42
6.283185307179585
  0
ELLIPSE
  5
10202
330
1F07
100
AcDbEntity
  8
器具
100
AcDbEllipse
 10
4490.494311385741
 20
1171.874825514869
 30
0.0
 11
-21.03579333430583
 21
0.0000000000000052
 31
0.0
210
0.0
220
0.0
230
1.0
 40
0.4210529777947262
 41
0.0
 42
6.283185307179585
  0
ELLIPSE
  5
10203
330
1F07
100
AcDbEntity
  8
器具
100
AcDbEllipse
 10
4999.78099755001
 20
1210.590971257365
 30
0.0
 11
-21.03579333430583
 21
0.0000000000000052
 31
0.0
210
0.0
220
0.0
230
1.0
 40
0.4210529777947262
 41
3.141592653589792
 42
6.283185307179585
  0
ELLIPSE
  5
10204
330
1F07
100
AcDbEntity
  8
器具
100
AcDbEllipse
 10
4999.78099755001
 20
1171.874825514869
 30
0.0
 11
-21.03579333430583
 21
0.0000000000000052
 31
0.0
210
0.0
220
0.0
230
1.0
 40
0.4210529777947262
 41
0.0
 42
6.283185307179585
  0
SPLINE
  5
10205
330
1F07
100
AcDbEntity
  8
器具
100
AcDbSpline
210
0.0
220
0.0
230
1.0
 70
     8
 71
     3
 72
    14
 73
    10
 74
     8
 42
0.0000000001
 43
0.0000000001
 44
0.0000000001
 40
0.0
 40
0.0
 40
0.0
 40
0.0
 40
76.72485999750759
 40
233.0702907247705
 40
392.2367336945725
 40
532.0407014221818
 40
654.8455249807166
 40
781.3182237272134
 40
878.3969667965903
 40
878.3969667965903
 40
878.3969667965903
 40
878.3969667965903
 10
5426.877126687678
 20
830.0527576923766
 30
0.0
 10
5449.09890007115
 20
817.1738220388558
 30
0.0
 10
5516.602903116239
 20
778.0509448242319
 30
0.0
 10
5600.402220329971
 20
672.9331343540594
 30
0.0
 10
5667.288394160117
 20
536.6905859285395
 30
0.0
 10
5719.646016163219
 20
406.6627835890466
 30
0.0
 10
5764.921655454173
 20
283.2010764903714
 30
0.0
 10
5759.420536699683
 20
166.243912813325
 30
0.0
 10
5757.380054918802
 20
91.93123066256474
 30
0.0
 10
5756.493961745189
 20
59.660440017198
 30
0.0
 11
5426.877126687678
 21
830.0527576923766
 31
0.0
 11
5491.623287424165
 21
788.8867667347634
 31
0.0
 11
5594.628606030102
 21
671.2695994156062
 31
0.0
 11
5668.203767715717
 21
530.1290589936752
 31
0.0
 11
5721.17786568297
 21
400.7501799718721
 31
0.0
 11
5756.493961745189
 21
283.1330126527813
 31
0.0
 11
5759.437023558858
 21
156.6945615574636
 31
0.0
 11
5756.493961745189
 21
59.660440017198
 31
0.0
  0
ELLIPSE
  5
10206
330
1F07
100
AcDbEntity
  8
器具
100
AcDbEllipse
 10
4318.121690854522
 20
-91.85610331858272
 30
0.0
 11
-197.8486060511212
 21
400.7662621658758
 31
0.0
210
0.0
220
0.0
230
1.0
 40
0.4670842690539582
 41
0.0
 42
6.283185307179585
  0
SPLINE
  5
10207
330
1F07
100
AcDbEntity
  8
器具
100
AcDbSpline
210
0.0
220
0.0
230
1.0
 70
    11
 71
     3
 72
    50
 73
    46
 74
     0
 42
0.0000000001
 43
0.0000000001
 40
0.0
 40
0.0
 40
0.0
 40
0.0
 40
0.1841482620718263
 40
0.1841482620718263
 40
0.3682965241436527
 40
0.3682965241436527
 40
0.5524447862154791
 40
0.5524447862154791
 40
0.9148607255635107
 40
0.9148607255635107
 40
1.277276664911541
 40
1.277276664911541
 40
1.639692604259574
 40
1.639692604259574
 40
2.002108543607604
 40
2.002108543607604
 40
2.364524482955636
 40
2.364524482955636
 40
2.655262638164161
 40
2.655262638164161
 40
2.88294187111483
 40
2.88294187111483
 40
3.110621104065498
 40
3.110621104065498
 40
3.338300337016169
 40
3.338300337016169
 40
3.565979569966837
 40
3.565979569966837
 40
3.793658802917506
 40
3.793658802917506
 40
4.021338035868176
 40
4.021338035868176
 40
4.496436337282527
 40
4.496436337282527
 40
4.971534638696877
 40
4.971534638696877
 40
5.446632940111228
 40
5.446632940111228
 40
5.737757196984412
 40
5.737757196984412
 40
5.97921845972004
 40
5.97921845972004
 40
6.179508464501366
 40
6.179508464501366
 40
6.283185307179585
 40
6.283185307179585
 40
6.283185307179585
 40
6.283185307179585
 10
4143.997731457351
 20
238.9071484898194
 30
0.0
 10
4140.994129762043
 20
237.4243430162792
 30
0.0
 10
4138.139112747476
 20
235.4125585909712
 30
0.0
 10
4131.298663005603
 20
227.811472183225
 30
0.0
 10
4127.402286014023
 20
222.1139325612621
 30
0.0
 10
4119.997893557157
 20
205.6091959447496
 30
0.0
 10
4116.550569888028
 20
194.8460539290589
 30
0.0
 10
4109.102995390414
 20
156.0828207905858
 30
0.0
 10
4108.008299944578
 20
121.5515257593675
 30
0.0
 10
4117.008463958595
 20
42.58560569811498
 30
0.0
 10
4126.963449953989
 20
-1.804492788668703
 30
0.0
 10
4156.914100268037
 20
-92.69272959253049
 30
0.0
 10
4176.877562271466
 20
-139.1839130090386
 30
0.0
 10
4223.835019702987
 20
-227.0516560809967
 30
0.0
 10
4250.824831415211
 20
-268.4090241617965
 30
0.0
 10
4307.309037711761
 20
-339.659127398209
 30
0.0
 10
4336.834398448624
 20
-369.5047038546589
 30
0.0
 10
4386.559912101886
 20
-408.8052180446895
 30
0.0
 10
4407.428891252155
 20
-421.0620705698326
 30
0.0
 10
4438.174833730914
 20
-433.6502237269014
 30
0.0
 10
4449.332074926301
 20
-435.9877996352746
 30
0.0
 10
4465.552790905536
 20
-436.9102168557303
 30
0.0
 10
4470.496455108961
 20
-435.7782226426457
 30
0.0
 10
4478.274421415728
 20
-432.5597277859622
 30
0.0
 10
4481.620477404856
 20
-430.3793833777425
 30
0.0
 10
4490.214229290996
 20
-420.3598586725513
 30
0.0
 10
4495.21428221085
 20
-412.2558660428564
 30
0.0
 10
4503.839690635995
 20
-388.1337650975981
 30
0.0
 10
4507.365937231361
 20
-372.244487769662
 30
0.0
 10
4510.814515850358
 20
-334.2297064680944
 30
0.0
 10
4510.760606655775
 20
-312.1451880778081
 30
0.0
 10
4504.031449435948
 20
-237.5045616000856
 30
0.0
 10
4490.035841926027
 20
-177.9737957947817
 30
0.0
 10
4445.387340176442
 20
-58.07129803073356
 30
0.0
 10
4414.832518052961
 20
2.262358538166175
 30
0.0
 10
4345.238326152634
 20
108.0753707941237
 30
0.0
 10
4306.153802840178
 20
153.44211556628
 30
0.0
 10
4246.619222329223
 20
204.950752587755
 30
0.0
 10
4224.85896118434
 20
219.4713938499138
 30
0.0
 10
4190.736025808125
 20
236.2174194131233
 30
0.0
 10
4177.507184802255
 20
240.0744305756618
 30
0.0
 10
4159.522387455848
 20
242.4774326123542
 30
0.0
 10
4153.794812804142
 20
241.9489367751195
 30
0.0
 10
4147.471651347401
 20
240.4056439643645
 30
0.0
 10
4145.688781571045
 20
239.7419790113881
 30
0.0
 10
4143.997731457351
 20
238.9071484898194
 30
0.0
  0
ELLIPSE
  5
10208
330
1F07
100
AcDbEntity
  8
器具
100
AcDbEllipse
 10
4441.68909743107
 20
-62.60302796273838
 30
0.0
 11
-134.9890103958261
 21
261.6894587967857
 31
0.0
210
0.0
220
0.0
230
0.9999999999999998
 40
0.4145643792838689
 41
0.2774662319391766
 42
2.654973977078644
  0
SPLINE
  5
10209
330
1F07
100
AcDbEntity
  8
器具
100
AcDbSpline
210
0.0
220
0.0
230
1.0
 70
     8
 71
     3
 72
    12
 73
     8
 74
     6
 42
0.0000000001
 43
0.0000000001
 44
0.0000000001
 40
0.0
 40
0.0
 40
0.0
 40
0.0
 40
34.18816623334056
 40
59.78138657558945
 40
122.4281628607464
 40
164.6225402286716
 40
191.3283123929781
 40
191.3283123929781
 40
191.3283123929781
 40
191.3283123929781
 10
4860.301057296115
 20
4.049748407601171
 30
0.0
 10
4864.595752286514
 20
-6.905456504806004
 30
0.0
 10
4872.105450808891
 20
-26.06171470869674
 30
0.0
 10
4908.864487193587
 20
-47.68151388660617
 30
0.0
 10
4958.019488361031
 20
-42.97129485516068
 30
0.0
 10
4989.99648563304
 20
-9.771423868604079
 30
0.0
 10
4998.230950564548
 20
11.74620863257451
 30
0.0
 10
5001.422638040537
 20
20.08646616456915
 30
0.0
 11
4860.301057296115
 21
4.049748407601171
 31
0.0
 11
4876.599474050698
 21
-26.00340985725399
 31
0.0
 11
4898.307818308481
 21
-39.55924686839102
 31
0.0
 11
4960.719492556069
 21
-34.13693218411174
 31
0.0
 11
4990.568465914854
 21
-4.314050517622355
 31
0.0
 11
5001.422638040537
 21
20.08646616456915
 31
0.0
  0
SPLINE
  5
1020A
330
1F07
100
AcDbEntity
  8
器具
100
AcDbSpline
210
0.0
220
0.0
230
1.0
 70
     8
 71
     3
 72
    10
 73
     6
 74
     4
 42
0.0000000001
 43
0.0000000001
 44
0.0000000001
 40
0.0
 40
0.0
 40
0.0
 40
0.0
 40
68.39998465099757
 40
147.1734021611439
 40
193.8731047772895
 40
193.8731047772895
 40
193.8731047772895
 40
193.8731047772895
 10
4497.854733435029
 20
930.9866923778027
 30
0.0
 10
4499.299197215032
 20
953.5366227851859
 30
0.0
 10
4502.407189854011
 20
1002.056370172339
 30
0.0
 10
4527.57693446416
 20
1067.833542930005
 30
0.0
 10
4565.49689550563
 20
1087.526907407404
 30
0.0
 10
4579.610284110858
 20
1094.856559078457
 30
0.0
 11
4497.854733435029
 21
930.9866923778027
 31
0.0
 11
4505.643888823565
 21
998.9417286782119
 31
0.0
 11
4540.266447018693
 21
1069.698564180182
 31
0.0
 11
4579.610284110858
 21
1094.856559078457
 31
0.0
  0
SPLINE
  5
1020B
330
1F07
100
AcDbEntity
  8
器具
100
AcDbSpline
210
0.0
220
0.0
230
1.0
 70
     8
 71
     3
 72
    16
 73
    12
 74
    10
 42
0.0000000001
 43
0.0000000001
 44
0.0000000001
 40
0.0
 40
0.0
 40
0.0
 40
0.0
 40
36.0768277156084
 40
62.51439467979222
 40
78.91171509883566
 40
110.5891732947752
 40
127.8848228476574
 40
145.2715250174642
 40
158.5002202794194
 40
179.9660713395089
 40
198.9309455238379
 40
198.9309455238379
 40
198.9309455238379
 40
198.9309455238379
 10
4860.301057296115
 20
1037.005524664146
 30
0.0
 10
4859.394557200061
 20
1049.102843974626
 30
0.0
 10
4857.823762083906
 20
1070.0652356767
 30
0.0
 10
4846.772299891606
 20
1094.330824160227
 30
0.0
 10
4834.724017096682
 20
1115.877317426678
 30
0.0
 10
4820.384492449911
 20
1133.541477057587
 30
0.0
 10
4800.23543718848
 20
1142.758419991887
 30
0.0
 10
4785.55476593451
 20
1150.105434254326
 30
0.0
 10
4767.892377868234
 20
1148.743037821244
 30
0.0
 10
4750.153257841406
 20
1147.46797144565
 30
0.0
 10
4736.905018265049
 20
1144.835135573296
 30
0.0
 10
4730.69065542069
 20
1143.600149043489
 30
0.0
 11
4860.301057296115
 21
1037.005524664146
 31
0.0
 11
4855.188913801601
 21
1072.718316306822
 31
0.0
 11
4845.01296599833
 21
1097.119034191565
 31
0.0
 11
4836.872244644768
 21
1111.352824016079
 31
0.0
 11
4815.502920295258
 21
1134.736864184555
 31
0.0
 11
4800.239090836289
 21
1142.870436813091
 31
0.0
 11
4783.957648142435
 21
1148.97060370821
 31
0.0
 11
4770.728952880481
 21
1148.97060370821
 31
0.0
 11
4749.359628537763
 21
1146.93719797652
 31
0.0
 11
4730.69065542069
 21
1143.600149043489
 31
0.0
  0
SPLINE
  5
1020C
330
1F07
100
AcDbEntity
  8
器具
100
AcDbSpline
210
0.0
220
0.0
230
1.0
 70
     8
 71
     3
 72
    10
 73
     6
 74
     0
 42
0.0000000001
 43
0.0000000001
 40
0.0
 40
0.0
 40
0.0
 40
0.0
 40
1.06081720395244
 40
2.078288825837889
 40
2.247377269442537
 40
2.247377269442537
 40
2.247377269442537
 40
2.247377269442537
 10
4648.671730094159
 20
918.2315418825135
 30
0.0
 10
4651.170463865419
 20
943.8128037689917
 30
0.0
 10
4656.06583172965
 20
993.9300629254733
 30
0.0
 10
4681.23338942047
 20
1042.569963749606
 30
0.0
 10
4694.871984096567
 20
1067.631496194845
 30
0.0
 10
4696.820124078064
 20
1071.194723940599
 30
0.0
  0
SPLINE
  5
1020D
330
1F07
100
AcDbEntity
  8
器具
100
AcDbSpline
210
0.0
220
0.0
230
1.0
 70
     8
 71
     3
 72
     9
 73
     5
 74
     0
 42
0.0000000001
 43
0.0000000001
 40
0.4462156537809375
 40
0.4462156537809375
 40
0.4462156537809375
 40
0.4462156537809375
 40
1.568438069784484
 40
2.828636861485773
 40
2.828636861485773
 40
2.828636861485773
 40
2.828636861485773
 10
4760.540681375412
 20
1092.519437728948
 30
0.0
 10
4775.177998590448
 20
1069.885122260776
 30
0.0
 10
4806.601066038495
 20
1022.09055411698
 30
0.0
 10
4840.626817772871
 20
976.2132605339004
 30
0.0
 10
4860.301057296115
 20
953.1462983784033
 30
0.0
  0
SPLINE
  5
1020E
330
1F07
100
AcDbEntity
  8
器具
100
AcDbSpline
210
0.0
220
0.0
230
1.0
 70
     8
 71
     3
 72
    10
 73
     6
 74
     0
 42
0.0000000001
 43
0.0000000001
 40
5.305113224059454
 40
5.305113224059454
 40
5.305113224059454
 40
5.305113224059454
 40
6.341922754838545
 40
8.494350323237545
 40
10.56460931671737
 40
10.56460931671737
 40
10.56460931671737
 40
10.56460931671737
 10
5001.422638040537
 20
846.9391552438947
 30
0.0
 10
5024.999069482551
 20
838.9427053793495
 30
0.0
 10
5101.42695285077
 20
823.461834118485
 30
0.0
 10
5227.033385322818
 20
816.6493220231181
 30
0.0
 10
5328.352373245934
 20
812.5041698733832
 30
0.0
 10
5378.050091929442
 20
810.5390557633166
 30
0.0
  0
SPLINE
  5
1020F
330
1F07
100
AcDbEntity
  8
器具
100
AcDbSpline
210
0.0
220
0.0
230
1.0
 70
     8
 71
     3
 72
    12
 73
     8
 74
     0
 42
0.0000000001
 43
0.0000000001
 40
5.578187415436206
 40
5.578187415436206
 40
5.578187415436206
 40
5.578187415436206
 40
6.362737129508937
 40
6.362737129508937
 40
7.189053495471414
 40
7.189053495471414
 40
8.34927002200434
 40
8.34927002200434
 40
8.34927002200434
 40
8.34927002200434
 10
5001.422638040537
 20
771.7013847602649
 30
0.0
 10
5023.415317751205
 20
765.7269998911512
 30
0.0
 10
5044.845023098876
 20
761.771006306716
 30
0.0
 10
5086.843247990327
 20
755.36524319852
 30
0.0
 10
5108.082176364883
 20
752.9438133375416
 30
0.0
 10
5158.362623751123
 20
748.4147620960767
 30
0.0
 10
5187.088665156791
 20
746.822887216797
 30
0.0
 10
5215.192880414051
 20
745.4532462726509
 30
0.0
  0
SPLINE
  5
10210
330
1F07
100
AcDbEntity
  8
器具
100
AcDbSpline
210
0.0
220
0.0
230
1.0
 70
     8
 71
     3
 72
    17
 73
    13
 74
     0
 42
0.0000000001
 43
0.0000000001
 40
0.15479415983808
 40
0.15479415983808
 40
0.15479415983808
 40
0.15479415983808
 40
1.265673283078192
 40
2.424093857943673
 40
3.377435307140531
 40
4.137811893382518
 40
4.621666885924051
 40
5.457888715883177
 40
6.467825570616147
 40
7.986239746257592
 40
9.666864584278133
 40
10.61122419236408
 40
10.61122419236408
 40
10.61122419236408
 40
10.61122419236408
 10
5450.37650545786
 20
816.2721376162476
 30
0.0
 10
5476.584388223753
 20
821.6191021498628
 30
0.0
 10
5530.159864675503
 20
832.0484793965704
 30
0.0
 10
5607.146614731977
 20
835.1563285877265
 30
0.0
 10
5677.170296398586
 20
842.8793835842585
 30
0.0
 10
5727.140721129811
 20
825.4626841288793
 30
0.0
 10
5776.152918745062
 20
808.9257163155544
 30
0.0
 10
5800.046997865269
 20
751.3207889765803
 30
0.0
 10
5801.412406058709
 20
671.4907053524512
 30
0.0
 10
5788.612695808669
 20
570.5254241237392
 30
0.0
 10
5761.783256281296
 20
473.8666275953768
 30
0.0
 10
5733.30011263863
 20
417.8313475587929
 30
0.0
 10
5722.210097039078
 20
398.053939772204
 30
0.0
  0
SPLINE
  5
10211
330
1F07
100
AcDbEntity
  8
器具
100
AcDbSpline
210
0.0
220
0.0
230
1.0
 70
     8
 71
     3
 72
    28
 73
    24
 74
     0
 42
0.0000000001
 43
0.0000000001
 40
1.105829620498617
 40
1.105829620498617
 40
1.105829620498617
 40
1.105829620498617
 40
1.188561950583685
 40
1.188561950583685
 40
1.709002689454293
 40
1.709002689454293
 40
2.2294434283249
 40
2.2294434283249
 40
2.587765772831618
 40
2.587765772831618
 40
2.946088117338335
 40
2.946088117338335
 40
3.258770417938533
 40
3.258770417938533
 40
3.50124680459217
 40
3.50124680459217
 40
4.01640553371354
 40
4.01640553371354
 40
4.143774357835241
 40
4.143774357835241
 40
4.271143181956942
 40
4.271143181956942
 40
4.322835499116938
 40
4.322835499116938
 40
4.322835499116938
 40
4.322835499116938
 10
5527.732951060364
 20
757.0532453475357
 30
0.0
 10
5529.464420495339
 20
757.2941233305702
 30
0.0
 10
5531.187731284756
 20
757.5253182466491
 30
0.0
 10
5543.692389713299
 20
759.1366112543444
 30
0.0
 10
5554.584280772179
 20
760.1404126864555
 30
0.0
 10
5578.006987009009
 20
761.915525662928
 30
0.0
 10
5590.329403136901
 20
762.667113934427
 30
0.0
 10
5612.171257271718
 20
764.1838068604632
 30
0.0
 10
5621.710122816598
 20
764.9546106962743
 30
0.0
 10
5638.50602374819
 20
766.3292609659454
 30
0.0
 10
5646.000309600604
 20
766.8753603072732
 30
0.0
 10
5658.123079178713
 20
767.2579229332949
 30
0.0
 10
5662.983110972084
 20
767.1776645677361
 30
0.0
 10
5670.121011649815
 20
766.6201233719545
 30
0.0
 10
5672.511294080816
 20
766.2895922939746
 30
0.0
 10
5682.277388267635
 20
764.3479053799877
 30
0.0
 10
5691.184072311343
 20
761.6713512065728
 30
0.0
 10
5705.047280860811
 20
756.9832742560992
 30
0.0
 10
5707.982875253631
 20
755.9769972493301
 30
0.0
 10
5713.906806793874
 20
753.9534540704464
 30
0.0
 10
5716.399294000463
 20
753.096325138387
 30
0.0
 10
5719.173587805712
 20
752.0827180408757
 30
0.0
 10
5719.888725912428
 20
751.8134150182734
 30
0.0
 10
5720.5142559069
 20
751.569953017952
 30
0.0
  0
SPLINE
  5
10212
330
1F07
100
AcDbEntity
  8
器具
100
AcDbSpline
210
0.0
220
0.0
230
1.0
 70
     8
 71
     3
 72
    22
 73
    18
 74
     0
 42
0.0000000001
 43
0.0000000001
 40
5.101636591376331
 40
5.101636591376331
 40
5.101636591376331
 40
5.101636591376331
 40
5.410032553439755
 40
5.410032553439755
 40
5.803693816473455
 40
5.803693816473455
 40
6.197355079507152
 40
6.197355079507152
 40
6.794208933450335
 40
6.794208933450335
 40
7.391062787393515
 40
7.391062787393515
 40
8.584770495279876
 40
8.584770495279876
 40
9.488223202419039
 40
9.488223202419039
 40
9.646236723743516
 40
9.646236723743516
 40
9.646236723743516
 40
9.646236723743516
 10
5720.5142559069
 20
751.569953017952
 30
0.0
 10
5721.522451635912
 20
749.3564841026929
 30
0.0
 10
5722.831590161397
 20
745.7100704870896
 30
0.0
 10
5725.413515033496
 20
735.7838448511902
 30
0.0
 10
5726.500933580368
 20
729.6754228563129
 30
0.0
 10
5727.871944983916
 20
716.9072232186387
 30
0.0
 10
5728.190186248149
 20
710.0650425666373
 30
0.0
 10
5728.23279045154
 20
691.3140049519086
 30
0.0
 10
5727.608788019753
 20
678.3316341744352
 30
0.0
 10
5725.649739618503
 20
652.918141492434
 30
0.0
 10
5724.250658700391
 20
640.1216225639813
 30
0.0
 10
5718.881469693721
 20
601.6188640360184
 30
0.0
 10
5713.781152491483
 20
575.5879257038758
 30
0.0
 10
5702.443815914008
 20
532.1383745390339
 30
0.0
 10
5696.716858659393
 20
514.0676621460007
 30
0.0
 10
5688.83941535075
 20
493.8410544861037
 30
0.0
 10
5687.633779437698
 20
490.8531288782111
 30
0.0
 10
5686.392794863877
 20
487.879021233872
 30
0.0
  0
SPLINE
  5
10213
330
1F07
100
AcDbEntity
  8
器具
100
AcDbSpline
210
0.0
220
0.0
230
1.0
 70
     8
 71
     3
 72
    13
 73
     9
 74
     7
 42
0.0000000001
 43
0.0000000001
 44
0.0000000001
 40
0.0
 40
0.0
 40
0.0
 40
0.0
 40
41.7276803371492
 40
72.64212706393656
 40
118.2576750714011
 40
143.7026050477269
 40
174.2371683187556
 40
310.1381897931322
 40
310.1381897931322
 40
310.1381897931322
 40
310.1381897931322
 10
5001.422638040537
 20
1048.609090969965
 30
0.0
 10
5000.167829838953
 20
1062.645603498518
 30
0.0
 10
4997.983382103445
 20
1087.081232759363
 30
0.0
 10
4980.293379175162
 20
1122.362642849573
 30
0.0
 10
4965.970988909237
 20
1154.755384673995
 30
0.0
 10
4934.683585847142
 20
1171.806307016753
 30
0.0
 10
4869.610942766803
 20
1170.823380330079
 30
0.0
 10
4815.528622823222
 20
1158.62149345409
 30
0.0
 10
4771.368339820764
 20
1148.658186070647
 30
0.0
 11
5001.422638040537
 21
1048.609090969965
 31
0.0
 11
4994.793438108068
 21
1089.80682166687
 31
0.0
 11
4982.606617926581
 21
1118.217813030908
 31
0.0
 11
4958.232977550269
 21
1156.775612174888
 31
0.0
 11
4935.890504617206
 21
1168.951751330443
 31
0.0
 11
4905.423454150127
 21
1170.981133006939
 31
0.0
 11
4771.368339820764
 21
1148.658186070647
 31
0.0
  0
SPLINE
  5
10214
330
1F07
100
AcDbEntity
  8
器具
100
AcDbSpline
210
0.0
220
0.0
230
1.0
 70
     8
 71
     3
 72
    12
 73
     8
 74
     0
 42
0.0000000001
 43
0.0000000001
 40
0.0
 40
0.0
 40
0.0
 40
0.0
 40
1.034395596864759
 40
2.855188131990584
 40
3.488015640016413
 40
3.924210182739716
 40
4.146497342425345
 40
4.146497342425345
 40
4.146497342425345
 40
4.146497342425345
 10
4860.301057296115
 20
849.5232147298263
 30
0.0
 10
4842.992234523276
 20
867.3094063034339
 30
0.0
 10
4795.215595197834
 20
916.4037018002826
 30
0.0
 10
4743.174905651303
 20
982.9960411242465
 30
0.0
 10
4709.142162200556
 20
1043.110444819575
 30
0.0
 10
4695.267258628287
 20
1071.455416652841
 30
0.0
 10
4693.526141095912
 20
1087.167835589611
 30
0.0
 10
4693.139637401931
 20
1092.519437728948
 30
0.0
  0
LINE
  5
10215
330
1F07
100
AcDbEntity
  8
器具
100
AcDbLine
 10
5756.493961739416
 20
59.66044001695468
 30
0.0
 11
4490.929949226713
 21
-501.0482192742824
 31
0.0
  0
LINE
  5
10216
330
1F07
100
AcDbEntity
  8
器具
100
AcDbLine
 10
4383.641093729806
 20
1440.650621549503
 30
0.0
 11
4383.641093729806
 21
1205.842384126814
 31
0.0
  0
LINE
  5
10217
330
1F07
100
AcDbEntity
  8
器具
100
AcDbLine
 10
5092.355711354704
 20
1440.650621549503
 30
0.0
 11
5092.355711354704
 21
1205.842384126814
 31
0.0
  0
LINE
  5
10218
330
1F07
100
AcDbEntity
  8
器具
100
AcDbLine
 10
4469.458518045394
 20
1210.590971257365
 30
0.0
 11
4469.458518045394
 21
1171.874825514847
 31
0.0
  0
LINE
  5
10219
330
1F07
100
AcDbEntity
  8
器具
100
AcDbLine
 10
4511.530104717879
 20
1210.590971257365
 30
0.0
 11
4511.530104717879
 21
1171.874825514847
 31
0.0
  0
LINE
  5
1021A
330
1F07
100
AcDbEntity
  8
器具
100
AcDbLine
 10
4978.745204211233
 20
1210.590971257365
 30
0.0
 11
4978.745204211233
 21
1171.874825514847
 31
0.0
  0
LINE
  5
1021B
330
1F07
100
AcDbEntity
  8
器具
100
AcDbLine
 10
5020.816790883873
 20
1210.590971257365
 30
0.0
 11
5020.816790883873
 21
1171.874825514847
 31
0.0
  0
LINE
  5
1021C
330
1F07
100
AcDbEntity
  8
器具
100
AcDbLine
 10
4113.174549774952
 20
305.032128563748
 30
0.0
 11
5426.877126681816
 21
830.0527576919785
 31
0.0
  0
LINE
  5
1021D
330
1F07
100
AcDbEntity
  8
器具
100
AcDbLine
 10
4201.978451294643
 20
340.5225668601587
 30
0.0
 11
4201.978451294643
 21
832.3337937620816
 31
0.0
  0
LINE
  5
1021E
330
1F07
100
AcDbEntity
  8
器具
100
AcDbLine
 10
4355.441094761078
 20
401.8538415618497
 30
0.0
 11
4355.441094761078
 21
884.7881668485049
 31
0.0
  0
LINE
  5
1021F
330
1F07
100
AcDbEntity
  8
器具
100
AcDbLine
 10
4201.978451294643
 20
832.3337937620816
 30
0.0
 11
4355.441094761078
 21
884.7881668485049
 31
0.0
  0
LINE
  5
10220
330
1F07
100
AcDbEntity
  8
器具
100
AcDbLine
 10
4355.441094761078
 20
884.7881668485049
 30
0.0
 11
4497.854733430825
 21
884.7881668485049
 31
0.0
  0
LINE
  5
10221
330
1F07
100
AcDbEntity
  8
器具
100
AcDbLine
 10
4648.671730095043
 20
884.7881668485049
 30
0.0
 11
4775.444143258925
 21
884.7881668485049
 31
0.0
  0
LINE
  5
10222
330
1F07
100
AcDbEntity
  8
器具
100
AcDbLine
 10
4775.444143258925
 20
884.7881668485049
 30
0.0
 11
4775.444143258925
 21
569.7078662343602
 31
0.0
  0
LINE
  5
10223
330
1F07
100
AcDbEntity
  8
器具
100
AcDbLine
 10
4860.301057292043
 20
1037.005524664146
 30
0.0
 11
4860.301057292043
 21
4.049748407379979
 31
0.0
  0
LINE
  5
10224
330
1F07
100
AcDbEntity
  8
器具
100
AcDbLine
 10
5001.422638041422
 20
20.08646616414887
 30
0.0
 11
5001.422638041422
 21
1048.609090970407
 31
0.0
  0
LINE
  5
10225
330
1F07
100
AcDbEntity
  8
器具
100
AcDbLine
 10
4497.854733430825
 20
458.7693865906516
 30
0.0
 11
4497.854733430825
 21
930.9866923777805
 31
0.0
  0
LINE
  5
10226
330
1F07
100
AcDbEntity
  8
器具
100
AcDbLine
 10
4579.610284104995
 20
1094.8565590787
 30
0.0
 11
4730.69065541987
 21
1143.600149043909
 31
0.0
  0
LINE
  5
10227
330
1F07
100
AcDbEntity
  8
器具
100
AcDbLine
 10
4687.735310725017
 20
1092.420697458896
 30
0.0
 11
4759.003753272402
 21
1092.420697458896
 31
0.0
  0
LINE
  5
10228
330
1F07
100
AcDbEntity
  8
器具
100
AcDbLine
 10
4687.735310725017
 20
1126.425693363255
 30
0.0
 11
4759.003753272402
 21
1126.425693363255
 31
0.0
  0
LINE
  5
10229
330
1F07
100
AcDbEntity
  8
器具
100
AcDbLine
 10
4648.671730095043
 20
519.0433297668642
 30
0.0
 11
4648.671730095043
 21
918.2315418824915
 31
0.0
  0
CIRCLE
  5
1022A
330
1F07
100
AcDbEntity
  8
器具
100
AcDbCircle
 10
4938.413458500417
 20
43.08148073143558
 30
0.0
 40
50.94039608748476
  0
LINE
  5
1022B
330
1F07
100
AcDbEntity
  8
器具
100
AcDbLine
 10
4679.979642203419
 20
1126.166983298171
 30
0.0
 11
4768.236718352612
 21
1126.166983298171
 31
0.0
  0
LINE
  5
1022C
330
1F07
100
AcDbEntity
  8
器具
100
AcDbLine
 10
4768.236718352612
 20
1126.166983298171
 30
0.0
 11
4768.236718352612
 21
1092.519437728948
 31
0.0
  0
LINE
  5
1022D
330
1F07
100
AcDbEntity
  8
器具
100
AcDbLine
 10
4768.236718352612
 20
1092.519437728948
 30
0.0
 11
4679.979642203419
 21
1092.519437728948
 31
0.0
  0
LINE
  5
1022E
330
1F07
100
AcDbEntity
  8
器具
100
AcDbLine
 10
4679.979642203419
 20
1092.519437728948
 30
0.0
 11
4679.979642203419
 21
1126.166983298171
 31
0.0
  0
MTEXT
  5
10238
330
1F07
100
AcDbEntity
  8
記号
 62
     2
100
AcDbMText
 10
6581.379259674149
 20
2841.055639234394
 30
0.0
 40
300.0001909587983
 41
2900.001845935049
 71
     5
 72
     5
  1
Re:ray
  7
スタイル1
 73
     1
 44
1.0
1001
ACAD
1000
MTEXTBEGIN
1070
    73
1070
     1
1070
    44
1040
1.0
1070
    74
1070
     0
1000
MTEXTEND
  0
MTEXT
  5
10239
330
1F07
100
AcDbEntity
  8
記号
 62
     2
100
AcDbMText
 10
1749.985198196126
 20
-2232.503494078133
 30
0.0
 40
250.0
 41
6533.332686219465
 71
     4
 72
     5
  1
幅:161　長さ:190　高さ:230(mm)
  7
スタイル1
 73
     1
 44
1.0
1001
ACAD
1000
MTEXTBEGIN
1070
    73
1070
     1
1070
    44
1040
1.0
1070
    74
1070
     0
1000
MTEXTEND
  0
ENDSEC
  0
SECTION
  2
OBJECTS
  0
DICTIONARY
  5
1EF5
330
0
100
AcDbDictionary
281
     1
  3
ACAD_COLOR
350
8C47
  3
ACAD_GROUP
350
1EF6
  3
ACAD_LAYOUT
350
1F02
  3
ACAD_MATERIAL
350
8C46
  3
ACAD_MLINESTYLE
350
1EFF
  3
ACAD_PLOTSETTINGS
350
1F01
  3
ACAD_PLOTSTYLENAME
350
1EF7
  3
ACAD_TABLESTYLE
350
8C48
  3
ACDBHEADERROUNDTRIPXREC
350
1522B
  3
AcDbVariableDictionary
350
4454
  0
DICTIONARY
  5
9A3A
330
1EEB
100
AcDbDictionary
280
     1
281
     1
  3
ACAD_LAYERFILTERS
360
A52F
  3
ACAD_LAYERSTATES
360
9A3B
  0
DICTIONARY
  5
980C
330
1F07
100
AcDbDictionary
280
     1
281
     1
  3
ACAD_SORTENTS
360
980D
  0
DICTIONARY
  5
8C47
102
{ACAD_REACTORS
330
1EF5
102
}
330
1EF5
100
AcDbDictionary
281
     1
  0
DICTIONARY
  5
1EF6
102
{ACAD_REACTORS
330
1EF5
102
}
330
1EF5
100
AcDbDictionary
281
     1
  0
DICTIONARY
  5
1F02
102
{ACAD_REACTORS
330
1EF5
102
}
330
1EF5
100
AcDbDictionary
281
     1
  3
Model
350
1F0A
  3
ﾚｲｱｳﾄ1
350
1F06
  0
DICTIONARY
  5
8C46
102
{ACAD_REACTORS
330
1EF5
102
}
330
1EF5
100
AcDbDictionary
281
     1
  0
DICTIONARY
  5
1EFF
102
{ACAD_REACTORS
330
1EF5
102
}
330
1EF5
100
AcDbDictionary
281
     1
  3
Standard
350
1F00
  0
DICTIONARY
  5
1F01
102
{ACAD_REACTORS
330
1EF5
102
}
330
1EF5
100
AcDbDictionary
281
     1
  0
ACDBDICTIONARYWDFLT
  5
1EF7
102
{ACAD_REACTORS
330
1EF5
102
}
330
1EF5
100
AcDbDictionary
281
     1
  3
Normal
350
1EF8
100
AcDbDictionaryWithDefault
340
1EF8
  0
DICTIONARY
  5
8C48
102
{ACAD_REACTORS
330
1EF5
102
}
330
1EF5
100
AcDbDictionary
281
     1
  3
Standard
350
8C49
  0
DICTIONARY
  5
1522B
102
{ACAD_REACTORS
330
1EF5
102
}
330
1EF5
100
AcDbDictionary
281
     1
  0
DICTIONARY
  5
4454
102
{ACAD_REACTORS
330
1EF5
102
}
330
1EF5
100
AcDbDictionary
281
     1
  3
CTABLESTYLE
350
8CAE
  3
DIMASSOC
350
8CAF
  3
PROJECTNAME
350
8CB0
  3
SORTENTS
350
4455
  0
DICTIONARY
  5
A52F
102
{ACAD_REACTORS
330
9A3A
102
}
330
9A3A
100
AcDbDictionary
280
     1
281
     1
  0
DICTIONARY
  5
9A3B
102
{ACAD_REACTORS
330
9A3A
102
}
330
9A3A
100
AcDbDictionary
281
     1
  0
SORTENTSTABLE
  5
980D
102
{ACAD_REACTORS
330
980C
102
}
330
980C
100
AcDbSortentsTable
330
1F07
331
10228
  5
10239
331
10217
  5
1021F
331
101FE
  5
10206
331
1020E
  5
10216
331
10227
  5
10238
331
10216
  5
1021E
331
1020D
  5
10215
331
10226
  5
1022E
331
10215
  5
1021D
331
1020C
  5
10214
331
10225
  5
1022D
331
10214
  5
1021C
331
10224
  5
1022C
331
1020B
  5
10213
331
10213
  5
1021B
331
FFC6
  5
FFD1
331
1020A
  5
10212
331
10223
  5
1022B
331
10212
  5
1021A
331
10209
  5
10211
331
10222
  5
1022A
331
FEA0
  5
FEA8
331
10211
  5
10219
331
10208
  5
10210
331
10221
  5
10229
331
FE9F
  5
FEA7
331
10210
  5
10218
331
10207
  5
1020F
331
10220
  5
10228
331
10239
  5
102A3
331
10238
  5
102A2
331
10206
  5
1020E
331
1021F
  5
10227
331
FE9D
  5
FEA5
331
10205
  5
1020D
331
1021E
  5
10226
331
10204
  5
1020C
331
1021D
  5
10225
331
1022E
  5
102A1
331
FE9B
  5
FEA3
331
1021C
  5
10224
331
1022D
  5
102A0
331
10203
  5
1020B
331
1022C
  5
1029F
331
1021B
  5
10223
331
10202
  5
1020A
331
1021A
  5
10222
331
10201
  5
10209
331
1022B
  5
10299
331
10219
  5
10221
331
10200
  5
10208
331
1022A
  5
10298
331
10229
  5
1028C
331
10218
  5
10220
331
101FF
  5
10207
331
1020F
  5
10217
  0
LAYOUT
  5
1F0A
102
{ACAD_XDICTIONARY
360
1522E
102
}
102
{ACAD_REACTORS
330
1F02
102
}
330
1F02
100
AcDbPlotSettings
  1

  2
HP DesignJet 430 (D / A1)
  4
User270
  6

 40
4.995333194732666
 41
16.93330574035644
 42
4.995330810546875
 43
16.933349609375
 44
419.9466552734374
 45
593.8519897460937
 46
0.0
 47
0.0
 48
59336.11708285688
 49
-20537.1530523113
140
115469.3951683314
141
19749.53857783539
142
1.0
143
100.0
 70
 11936
 72
     1
 73
     1
 74
     4
  7

 75
     0
147
0.01
148
-59336.11708285688
149
20537.1530523113
100
AcDbLayout
  1
Model
 70
     1
 71
     0
 10
0.0
 20
0.0
 11
12.0
 21
9.0
 12
0.0
 22
0.0
 32
0.0
 14
0.0
 24
0.0
 34
0.0
 15
0.0
 25
0.0
 35
0.0
146
0.0
 13
0.0
 23
0.0
 33
0.0
 16
1.0
 26
0.0
 36
0.0
 17
0.0
 27
1.0
 37
0.0
 76
     0
330
1F07
  0
LAYOUT
  5
1F06
102
{ACAD_XDICTIONARY
360
1522C
102
}
102
{ACAD_REACTORS
330
1F02
102
}
330
1F02
100
AcDbPlotSettings
  1

  2
HP DesignJet 430 (D / A1)
  4

  6

 40
0.0
 41
0.0
 42
0.0
 43
0.0
 44
0.0
 45
0.0
 46
0.0
 47
0.0
 48
0.0
 49
0.0
140
0.0
141
0.0
142
1.0
143
1.0
 70
   688
 72
     0
 73
     0
 74
     5
  7

 75
    16
147
1.0
148
0.0
149
0.0
100
AcDbLayout
  1
ﾚｲｱｳﾄ1
 70
     0
 71
     1
 10
0.0
 20
0.0
 11
12.0
 21
9.0
 12
0.0
 22
0.0
 32
0.0
 14
1.000000000000000E+20
 24
1.000000000000000E+20
 34
1.000000000000000E+20
 15
-1.000000000000000E+20
 25
-1.000000000000000E+20
 35
-1.000000000000000E+20
146
0.0
 13
0.0
 23
0.0
 33
0.0
 16
1.0
 26
0.0
 36
0.0
 17
0.0
 27
1.0
 37
0.0
 76
     0
330
1F03
  0
MLINESTYLE
  5
1F00
102
{ACAD_REACTORS
330
1EFF
102
}
330
1EFF
100
AcDbMlineStyle
  2
STANDARD
 70
     0
  3

 62
   256
 51
90.0
 52
90.0
 71
     2
 49
0.5
 62
   256
  6
BYLAYER
 49
-0.5
 62
   256
  6
BYLAYER
  0
ACDBPLACEHOLDER
  5
1EF8
102
{ACAD_REACTORS
330
1EF7
102
}
330
1EF7
  0
TABLESTYLE
  5
8C49
102
{ACAD_REACTORS
330
8C48
102
}
330
8C48
100
AcDbTableStyle
  3
Standard
 70
     0
 71
     0
 40
0.06
 41
0.06
280
     0
281
     0
  7
STANDARD
140
0.18
170
     2
 62
     0
 63
     7
283
     0
274
    -2
284
     1
 64
     0
275
    -2
285
     1
 65
     0
276
    -2
286
     1
 66
     0
277
    -2
287
     1
 67
     0
278
    -2
288
     1
 68
     0
279
    -2
289
     1
 69
     0
  7
STANDARD
140
0.25
170
     5
 62
     0
 63
     7
283
     0
274
    -2
284
     1
 64
     0
275
    -2
285
     1
 65
     0
276
    -2
286
     1
 66
     0
277
    -2
287
     1
 67
     0
278
    -2
288
     1
 68
     0
279
    -2
289
     1
 69
     0
  7
STANDARD
140
0.18
170
     5
 62
     0
 63
     7
283
     0
274
    -2
284
     1
 64
     0
275
    -2
285
     1
 65
     0
276
    -2
286
     1
 66
     0
277
    -2
287
     1
 67
     0
278
    -2
288
     1
 68
     0
279
    -2
289
     1
 69
     0
  0
DICTIONARYVAR
  5
8CAE
102
{ACAD_REACTORS
330
4454
102
}
330
4454
100
DictionaryVariables
280
     0
  1
STANDARD
  0
DICTIONARYVAR
  5
8CAF
102
{ACAD_REACTORS
330
4454
102
}
330
4454
100
DictionaryVariables
280
     0
  1
1
  0
DICTIONARYVAR
  5
8CB0
102
{ACAD_REACTORS
330
4454
102
}
330
4454
100
DictionaryVariables
280
     0
  1

  0
DICTIONARYVAR
  5
4455
102
{ACAD_REACTORS
330
4454
102
}
330
4454
100
DictionaryVariables
280
     0
  1
96
  0
DICTIONARY
  5
1522E
330
1F0A
100
AcDbDictionary
280
     1
281
     1
  3
ACAD_XREC_ROUNDTRIP
360
1522F
  0
DICTIONARY
  5
1522C
330
1F06
100
AcDbDictionary
280
     1
281
     1
  3
ACAD_XREC_ROUNDTRIP
360
1522D
  0
XRECORD
  5
1522F
102
{ACAD_REACTORS
330
1522E
102
}
330
1522E
100
AcDbXrecord
280
     1
102
SHADEPLOT
 70
     0
102
SHADEPLOTRESLEVEL
 70
     2
102
SHADEPLOTCUSTOMDPI
 70
   300
  0
XRECORD
  5
1522D
102
{ACAD_REACTORS
330
1522C
102
}
330
1522C
100
AcDbXrecord
280
     1
102
SHADEPLOT
 70
     0
102
SHADEPLOTRESLEVEL
 70
     2
102
SHADEPLOTCUSTOMDPI
 70
   300
  0
ENDSEC
  0
EOF
