  0
SECTION
  2
HEADER
  9
$ACADVER
  1
AC1015
  9
$ACADMAINTVER
 70
    20
  9
$DWGCODEPAGE
  3
ANSI_932
  9
$INSBASE
 10
0.0
 20
0.0
 30
0.0
  9
$EXTMIN
 10
8297.143411974365
 20
-25242.03178561153
 30
-0.0015258207003583
  9
$EXTMAX
 10
14651.39057791693
 20
-17920.16944870911
 30
0.0000000349246037
  9
$LIMMIN
 10
0.0
 20
0.0
  9
$LIMMAX
 10
59400.0
 20
42000.0
  9
$ORTHOMODE
 70
     1
  9
$REGENMODE
 70
     1
  9
$FILLMODE
 70
     1
  9
$QTEXTMODE
 70
     0
  9
$MIRRTEXT
 70
     1
  9
$LTSCALE
 40
100.0
  9
$ATTMODE
 70
     1
  9
$TEXTSIZE
 40
300.0
  9
$TRACEWID
 40
0.05
  9
$TEXTSTYLE
  7
スタイル1
  9
$CLAYER
  8
下書き
  9
$CELTYPE
  6
ByLayer
  9
$CECOLOR
 62
   256
  9
$CELTSCALE
 40
1.0
  9
$DISPSILH
 70
     0
  9
$DIMSCALE
 40
100.0
  9
$DIMASZ
 40
2.0
  9
$DIMEXO
 40
2.0
  9
$DIMDLI
 40
0.38
  9
$DIMRND
 40
0.0
  9
$DIMDLE
 40
0.0
  9
$DIMEXE
 40
0.18
  9
$DIMTP
 40
0.0
  9
$DIMTM
 40
0.0
  9
$DIMTXT
 40
2.0
  9
$DIMCEN
 40
0.09
  9
$DIMTSZ
 40
0.0
  9
$DIMTOL
 70
     0
  9
$DIMLIM
 70
     0
  9
$DIMTIH
 70
     0
  9
$DIMTOH
 70
     1
  9
$DIMSE1
 70
     0
  9
$DIMSE2
 70
     0
  9
$DIMTAD
 70
     1
  9
$DIMZIN
 70
     0
  9
$DIMBLK
  1
Open30
  9
$DIMASO
 70
     1
  9
$DIMSHO
 70
     1
  9
$DIMPOST
  1

  9
$DIMAPOST
  1

  9
$DIMALT
 70
     0
  9
$DIMALTD
 70
     2
  9
$DIMALTF
 40
25.4
  9
$DIMLFAC
 40
1.0
  9
$DIMTOFL
 70
     0
  9
$DIMTVP
 40
0.0
  9
$DIMTIX
 70
     0
  9
$DIMSOXD
 70
     0
  9
$DIMSAH
 70
     0
  9
$DIMBLK1
  1

  9
$DIMBLK2
  1

  9
$DIMSTYLE
  2
STANDARD
  9
$DIMCLRD
 70
     0
  9
$DIMCLRE
 70
     0
  9
$DIMCLRT
 70
     0
  9
$DIMTFAC
 40
1.0
  9
$DIMGAP
 40
1.0
  9
$DIMJUST
 70
     0
  9
$DIMSD1
 70
     0
  9
$DIMSD2
 70
     0
  9
$DIMTOLJ
 70
     1
  9
$DIMTZIN
 70
     0
  9
$DIMALTZ
 70
     0
  9
$DIMALTTZ
 70
     0
  9
$DIMUPT
 70
     0
  9
$DIMDEC
 70
     1
  9
$DIMTDEC
 70
     1
  9
$DIMALTU
 70
     2
  9
$DIMALTTD
 70
     2
  9
$DIMTXSTY
  7
STANDARD
  9
$DIMAUNIT
 70
     0
  9
$DIMADEC
 70
     0
  9
$DIMALTRND
 40
0.0
  9
$DIMAZIN
 70
     0
  9
$DIMDSEP
 70
    46
  9
$DIMATFIT
 70
     3
  9
$DIMFRAC
 70
     0
  9
$DIMLDRBLK
  1
Open30
  9
$DIMLUNIT
 70
     2
  9
$DIMLWD
 70
    -2
  9
$DIMLWE
 70
    -2
  9
$DIMTMOVE
 70
     0
  9
$LUNITS
 70
     2
  9
$LUPREC
 70
     4
  9
$SKETCHINC
 40
0.1
  9
$FILLETRAD
 40
0.0
  9
$AUNITS
 70
     0
  9
$AUPREC
 70
     0
  9
$MENU
  1
acad
  9
$ELEVATION
 40
0.0
  9
$PELEVATION
 40
0.0
  9
$THICKNESS
 40
0.0
  9
$LIMCHECK
 70
     0
  9
$CHAMFERA
 40
0.0
  9
$CHAMFERB
 40
0.0
  9
$CHAMFERC
 40
0.0
  9
$CHAMFERD
 40
0.0
  9
$SKPOLY
 70
     0
  9
$TDCREATE
 40
2426945.499536991
  9
$TDUCREATE
 40
2426945.124536991
  9
$TDUPDATE
 40
2456231.686403171
  9
$TDUUPDATE
 40
2456231.311403171
  9
$TDINDWG
 40
1.7090155440
  9
$TDUSRTIMER
 40
1.7090136921
  9
$USRTIMER
 70
     1
  9
$ANGBASE
 50
0.0
  9
$ANGDIR
 70
     0
  9
$PDMODE
 70
     0
  9
$PDSIZE
 40
0.0
  9
$PLINEWID
 40
0.0
  9
$SPLFRAME
 70
     0
  9
$SPLINETYPE
 70
     6
  9
$SPLINESEGS
 70
     8
  9
$HANDSEED
  5
15221
  9
$SURFTAB1
 70
     6
  9
$SURFTAB2
 70
     6
  9
$SURFTYPE
 70
     6
  9
$SURFU
 70
     6
  9
$SURFV
 70
     6
  9
$UCSBASE
  2

  9
$UCSNAME
  2

  9
$UCSORG
 10
0.0
 20
0.0
 30
0.0
  9
$UCSXDIR
 10
1.0
 20
0.0
 30
0.0
  9
$UCSYDIR
 10
0.0
 20
1.0
 30
0.0
  9
$UCSORTHOREF
  2

  9
$UCSORTHOVIEW
 70
     0
  9
$UCSORGTOP
 10
0.0
 20
0.0
 30
0.0
  9
$UCSORGBOTTOM
 10
0.0
 20
0.0
 30
0.0
  9
$UCSORGLEFT
 10
0.0
 20
0.0
 30
0.0
  9
$UCSORGRIGHT
 10
0.0
 20
0.0
 30
0.0
  9
$UCSORGFRONT
 10
0.0
 20
0.0
 30
0.0
  9
$UCSORGBACK
 10
0.0
 20
0.0
 30
0.0
  9
$PUCSBASE
  2

  9
$PUCSNAME
  2

  9
$PUCSORG
 10
0.0
 20
0.0
 30
0.0
  9
$PUCSXDIR
 10
1.0
 20
0.0
 30
0.0
  9
$PUCSYDIR
 10
0.0
 20
1.0
 30
0.0
  9
$PUCSORTHOREF
  2

  9
$PUCSORTHOVIEW
 70
     0
  9
$PUCSORGTOP
 10
0.0
 20
0.0
 30
0.0
  9
$PUCSORGBOTTOM
 10
0.0
 20
0.0
 30
0.0
  9
$PUCSORGLEFT
 10
0.0
 20
0.0
 30
0.0
  9
$PUCSORGRIGHT
 10
0.0
 20
0.0
 30
0.0
  9
$PUCSORGFRONT
 10
0.0
 20
0.0
 30
0.0
  9
$PUCSORGBACK
 10
0.0
 20
0.0
 30
0.0
  9
$USERI1
 70
     0
  9
$USERI2
 70
     0
  9
$USERI3
 70
     0
  9
$USERI4
 70
     0
  9
$USERI5
 70
     0
  9
$USERR1
 40
0.0
  9
$USERR2
 40
0.0
  9
$USERR3
 40
0.0
  9
$USERR4
 40
0.0
  9
$USERR5
 40
0.0
  9
$WORLDVIEW
 70
     1
  9
$SHADEDGE
 70
     3
  9
$SHADEDIF
 70
    70
  9
$TILEMODE
 70
     1
  9
$MAXACTVP
 70
    16
  9
$PINSBASE
 10
0.0
 20
0.0
 30
0.0
  9
$PLIMCHECK
 70
     0
  9
$PEXTMIN
 10
1.000000000000000E+20
 20
1.000000000000000E+20
 30
1.000000000000000E+20
  9
$PEXTMAX
 10
-1.000000000000000E+20
 20
-1.000000000000000E+20
 30
-1.000000000000000E+20
  9
$PLIMMIN
 10
0.0
 20
0.0
  9
$PLIMMAX
 10
12.0
 20
9.0
  9
$UNITMODE
 70
     0
  9
$VISRETAIN
 70
     0
  9
$PLINEGEN
 70
     1
  9
$PSLTSCALE
 70
     0
  9
$TREEDEPTH
 70
  3020
  9
$CMLSTYLE
  2
Standard
  9
$CMLJUST
 70
     0
  9
$CMLSCALE
 40
1.0
  9
$PROXYGRAPHICS
 70
     1
  9
$MEASUREMENT
 70
     0
  9
$CELWEIGHT
370
    -1
  9
$ENDCAPS
280
     0
  9
$JOINSTYLE
280
     0
  9
$LWDISPLAY
290
     0
  9
$INSUNITS
 70
     0
  9
$HYPERLINKBASE
  1

  9
$STYLESHEET
  1

  9
$XEDIT
290
     1
  9
$CEPSNTYPE
380
     0
  9
$PSTYLEMODE
290
     1
  9
$FINGERPRINTGUID
  2
{8637CE02-3222-11D7-99D2-0040267E6A47}
  9
$VERSIONGUID
  2
{02A4A13A-B43A-4726-97CC-A376B6577230}
  9
$EXTNAMES
290
     1
  9
$PSVPSCALE
 40
0.0
  9
$OLESTARTUP
290
     0
  0
ENDSEC
  0
SECTION
  2
CLASSES
  0
CLASS
  1
ACDBDICTIONARYWDFLT
  2
AcDbDictionaryWithDefault
  3
ObjectDBX Classes
 90
        0
280
     0
281
     0
  0
CLASS
  1
ACDBPLACEHOLDER
  2
AcDbPlaceHolder
  3
ObjectDBX Classes
 90
        0
280
     0
281
     0
  0
CLASS
  1
LAYOUT
  2
AcDbLayout
  3
ObjectDBX Classes
 90
        0
280
     0
281
     0
  0
CLASS
  1
DICTIONARYVAR
  2
AcDbDictionaryVar
  3
ObjectDBX Classes
 90
        0
280
     0
281
     0
  0
CLASS
  1
TABLESTYLE
  2
AcDbTableStyle
  3
ObjectDBX Classes
 90
     2047
280
     0
281
     0
  0
CLASS
  1
SORTENTSTABLE
  2
AcDbSortentsTable
  3
ObjectDBX Classes
 90
        0
280
     0
281
     0
  0
ENDSEC
  0
SECTION
  2
TABLES
  0
TABLE
  2
VPORT
  5
1EF1
330
0
100
AcDbSymbolTable
 70
     3
  0
VPORT
  5
1521B
330
1EF1
100
AcDbSymbolTableRecord
100
AcDbViewportTableRecord
  2
*Active
 70
     0
 10
0.0
 20
0.0
 11
1.0
 21
1.0
 12
11474.26699494564
 22
-21581.10061716032
 13
0.0
 23
0.0
 14
1000.0
 24
1000.0
 15
1000.0
 25
1000.0
 16
0.0
 26
0.0
 36
1.0
 17
0.0
 27
0.0
 37
0.0
 40
7383.824500543335
 41
1.384180790960451
 42
50.0
 43
0.0
 44
0.0
 50
0.0
 51
0.0
 71
     0
 72
   100
 73
     1
 74
     1
 75
     0
 76
     0
 77
     0
 78
     0
281
     0
 65
     1
110
0.0
120
0.0
130
0.0
111
1.0
121
0.0
131
0.0
112
0.0
122
1.0
132
0.0
 79
     0
146
0.0
  0
ENDTAB
  0
TABLE
  2
LTYPE
  5
1EEE
330
0
100
AcDbSymbolTable
 70
     8
  0
LTYPE
  5
1EFC
330
1EEE
100
AcDbSymbolTableRecord
100
AcDbLinetypeTableRecord
  2
ByBlock
 70
     0
  3

 72
    65
 73
     0
 40
0.0
  0
LTYPE
  5
1EFD
330
1EEE
100
AcDbSymbolTableRecord
100
AcDbLinetypeTableRecord
  2
ByLayer
 70
     0
  3

 72
    65
 73
     0
 40
0.0
  0
LTYPE
  5
1EFE
330
1EEE
100
AcDbSymbolTableRecord
100
AcDbLinetypeTableRecord
  2
CONTINUOUS
 70
     0
  3
Solid line
 72
    65
 73
     0
 40
0.0
  0
LTYPE
  5
1F0C
330
1EEE
100
AcDbSymbolTableRecord
100
AcDbLinetypeTableRecord
  2
HIDDEN
 70
     0
  3
__ __ __ __ __ __ __ __ __ __ __ __ __ __ __ __
 72
    65
 73
     5
 40
8.0
 49
1.0
 74
     0
 49
-2.0
 74
     0
 49
2.0
 74
     0
 49
-2.0
 74
     0
 49
1.0
 74
     0
  0
LTYPE
  5
1F0D
330
1EEE
100
AcDbSymbolTableRecord
100
AcDbLinetypeTableRecord
  2
DOT
 70
     0
  3
. . . . . . . . . . . . . . . . . . . . . . . .
 72
    65
 73
     3
 40
1.6
 49
0.4
 74
     0
 49
-0.8
 74
     0
 49
0.4
 74
     0
  0
LTYPE
  5
1F0E
330
1EEE
100
AcDbSymbolTableRecord
100
AcDbLinetypeTableRecord
  2
CENTER
 70
     0
  3
____ _ ____ _ ____ _ ____ _ ____ _ ____ _ ____ 
 72
    65
 73
     5
 40
12.0
 49
5.0
 74
     0
 49
-0.8
 74
     0
 49
0.4
 74
     0
 49
-0.8
 74
     0
 49
5.0
 74
     0
  0
LTYPE
  5
1F0F
330
1EEE
100
AcDbSymbolTableRecord
100
AcDbLinetypeTableRecord
  2
DIVIDE
 70
     0
  3
____ . . ____ . . ____ . . ____ . . ____ . . __
 72
    65
 73
     7
 40
13.2
 49
5.0
 74
     0
 49
-0.8
 74
     0
 49
0.4
 74
     0
 49
-0.8
 74
     0
 49
0.4
 74
     0
 49
-0.8
 74
     0
 49
5.0
 74
     0
  0
LTYPE
  5
BC93
330
1EEE
100
AcDbSymbolTableRecord
100
AcDbLinetypeTableRecord
  2
DASH_CENTER
 70
     0
  3
Dash_Center
 72
    65
 73
     4
 40
36.0
 49
24.0
 74
     0
 49
-3.0
 74
     0
 49
6.0
 74
     0
 49
-3.0
 74
     0
  0
LTYPE
  5
CA49
330
1EEE
100
AcDbSymbolTableRecord
100
AcDbLinetypeTableRecord
  2
STYLE_01
 70
     0
  3

 72
    65
 73
     2
 40
0.125
 49
0.0625
 74
     0
 49
-0.0625
 74
     0
  0
LTYPE
  5
CA4A
330
1EEE
100
AcDbSymbolTableRecord
100
AcDbLinetypeTableRecord
  2
STYLE_07
 70
     0
  3

 72
    65
 73
     2
 40
0.125
 49
0.03125
 74
     0
 49
-0.09375
 74
     0
  0
ENDTAB
  0
TABLE
  2
LAYER
  5
1EEB
102
{ACAD_XDICTIONARY
360
9A3A
102
}
330
0
100
AcDbSymbolTable
 70
    13
  0
LAYER
  5
1EF9
330
1EEB
100
AcDbSymbolTableRecord
100
AcDbLayerTableRecord
  2
0
 70
     0
 62
     7
  6
CONTINUOUS
370
    -3
390
1EF8
  0
LAYER
  5
4075
330
1EEB
100
AcDbSymbolTableRecord
100
AcDbLayerTableRecord
  2
記号
 70
     0
 62
     4
  6
CONTINUOUS
370
    -3
390
1EF8
  0
LAYER
  5
42A3
330
1EEB
100
AcDbSymbolTableRecord
100
AcDbLayerTableRecord
  2
Defpoints
 70
     4
 62
     7
  6
CONTINUOUS
290
     0
370
    -3
390
1EF8
  0
LAYER
  5
58FC
330
1EEB
100
AcDbSymbolTableRecord
100
AcDbLayerTableRecord
  2
リスト
 70
     0
 62
     8
  6
CONTINUOUS
370
    13
390
1EF8
  0
LAYER
  5
8CB6
330
1EEB
100
AcDbSymbolTableRecord
100
AcDbLayerTableRecord
  2
器具
 70
     0
 62
     4
  6
CONTINUOUS
370
    -3
390
1EF8
  0
LAYER
  5
8CB7
330
1EEB
100
AcDbSymbolTableRecord
100
AcDbLayerTableRecord
  2
レイヤー_1
 70
     0
 62
   160
  6
CONTINUOUS
370
    -3
390
1EF8
  0
LAYER
  5
9466
330
1EEB
100
AcDbSymbolTableRecord
100
AcDbLayerTableRecord
  2
画層1
 70
     4
 62
   160
  6
CONTINUOUS
370
    -3
390
1EF8
1001
AcAecLayerStandard
1000

1000

  0
LAYER
  5
9F35
330
1EEB
100
AcDbSymbolTableRecord
100
AcDbLayerTableRecord
  2
下書き
 70
     0
 62
     6
  6
CONTINUOUS
370
    -3
390
1EF8
1001
AcAecLayerStandard
1000

1000

  0
LAYER
  5
A81A
330
1EEB
100
AcDbSymbolTableRecord
100
AcDbLayerTableRecord
  2
007
 70
     0
 62
     1
  6
CONTINUOUS
370
    -3
390
1EF8
  0
LAYER
  5
BC94
330
1EEB
100
AcDbSymbolTableRecord
100
AcDbLayerTableRecord
  2
図面
 70
     0
 62
     5
  6
CONTINUOUS
370
    -3
390
1EF8
  0
LAYER
  5
CA4B
330
1EEB
100
AcDbSymbolTableRecord
100
AcDbLayerTableRecord
  2
1
 70
     0
 62
     8
  6
CONTINUOUS
370
    -3
390
1EF8
1001
AcAecLayerStandard
1000

1000

  0
LAYER
  5
1246F
330
1EEB
100
AcDbSymbolTableRecord
100
AcDbLayerTableRecord
  2
寸法・文字
 70
     0
 62
     4
  6
CONTINUOUS
370
    13
390
1EF8
1001
AcAecLayerStandard
1000

1000

  0
LAYER
  5
13854
330
1EEB
100
AcDbSymbolTableRecord
100
AcDbLayerTableRecord
  2
製品
 70
     0
 62
     1
  6
CONTINUOUS
370
    -3
390
1EF8
1001
AcAecLayerStandard
1000

1000

  0
ENDTAB
  0
TABLE
  2
STYLE
  5
1EEC
330
0
100
AcDbSymbolTable
 70
    12
  0
STYLE
  5
1EFA
330
1EEC
100
AcDbSymbolTableRecord
100
AcDbTextStyleTableRecord
  2
STANDARD
 70
     0
 40
280.0
 41
1.0
 50
0.0
 71
     0
 42
280.0
  3
MS Gothic.ttf
  4

1001
ACAD
1000
MS Gothic
1071
    32817
  0
STYLE
  5
1F2D
330
1EEC
100
AcDbSymbolTableRecord
100
AcDbTextStyleTableRecord
  2
ＤＨＰ平成ゴシックW5
 70
     0
 40
1000.0
 41
1.0
 50
0.0
 71
     0
 42
1000.0
  3
txt
  4
extfont
  0
STYLE
  5
1F2E
330
1EEC
100
AcDbSymbolTableRecord
100
AcDbTextStyleTableRecord
  2
TATEDRACAD
 70
     4
 40
1000.0
 41
1.0
 50
0.0
 71
     0
 42
1000.0
  3
txt
  4
extfont
  0
STYLE
  5
1F2F
330
1EEC
100
AcDbSymbolTableRecord
100
AcDbTextStyleTableRecord
  2
ＤＨＰ平成ゴシックW51
 70
     0
 40
1000.0
 41
1.0
 50
0.0
 71
     0
 42
1000.0
  3
txt
  4
extfont
  0
STYLE
  5
1F30
330
1EEC
100
AcDbSymbolTableRecord
100
AcDbTextStyleTableRecord
  2
ＪＳＰゴシック
 70
     0
 40
1000.0
 41
1.0
 50
0.0
 71
     0
 42
1000.0
  3
txt
  4
extfont
  0
STYLE
  5
1F31
330
1EEC
100
AcDbSymbolTableRecord
100
AcDbTextStyleTableRecord
  2
ＭＳ_ゴシック
 70
     0
 40
1000.0
 41
1.0
 50
0.0
 71
     0
 42
1000.0
  3
txt
  4
extfont
  0
STYLE
  5
A258
330
1EEC
100
AcDbSymbolTableRecord
100
AcDbTextStyleTableRecord
  2
スタイル1
 70
     0
 40
300.0
 41
1.0
 50
0.0
 71
     0
 42
300.0
  3
MS Gothic.ttf
  4

1001
ACAD
1000
MS Gothic
1071
    32817
  0
STYLE
  5
A547
330
1EEC
100
AcDbSymbolTableRecord
100
AcDbTextStyleTableRecord
  2
WMF-ＭＳ Ｐゴシック0
 70
     0
 40
0.0
 41
1.0
 50
0.0
 71
     0
 42
280.0
  3
MS PGothic.ttf
  4

1001
ACAD
1000
MS PGothic
1071
    32816
  0
STYLE
  5
A58D
330
1EEC
100
AcDbSymbolTableRecord
100
AcDbTextStyleTableRecord
  2
WMF-System0
 70
     0
 40
0.0
 41
1.0
 50
0.0
 71
     0
 42
280.0
  3

  4

  0
STYLE
  5
A81B
330
1EEC
100
AcDbSymbolTableRecord
100
AcDbTextStyleTableRecord
  2
ＭＳ ゴシック
 70
     0
 40
450.0
 41
0.85
 50
0.0
 71
     0
 42
450.0
  3
MS Gothic.ttf
  4

1001
ACAD
1000
MS Gothic
1071
    32817
  0
STYLE
  5
CA4C
330
1EEC
100
AcDbSymbolTableRecord
100
AcDbTextStyleTableRecord
  2
_______
 70
     0
 40
0.0
 41
1.0
 50
0.0
 71
     0
 42
0.0
  3
MS Gothic.ttf
  4
ＭＳ ゴシック
1001
ACAD
1000
ＭＳ ゴシック
1071
        0
  0
STYLE
  5
14676
330
1EEC
100
AcDbSymbolTableRecord
100
AcDbTextStyleTableRecord
  2
ヒラギノ角ゴ Pro W3
 70
     0
 40
0.0
 41
1.0
 50
0.0
 71
     0
 42
0.0
  3
MS Gothic.ttf
  4

1001
ACAD
1000
MS Gothic
1071
    32817
  0
ENDTAB
  0
TABLE
  2
VIEW
  5
1EEF
330
0
100
AcDbSymbolTable
 70
     0
  0
ENDTAB
  0
TABLE
  2
UCS
  5
1EF0
330
0
100
AcDbSymbolTable
 70
     0
  0
ENDTAB
  0
TABLE
  2
APPID
  5
1EF2
330
0
100
AcDbSymbolTable
 70
     3
  0
APPID
  5
1EFB
330
1EF2
100
AcDbSymbolTableRecord
100
AcDbRegAppTableRecord
  2
ACAD
 70
     0
  0
APPID
  5
9467
330
1EF2
100
AcDbSymbolTableRecord
100
AcDbRegAppTableRecord
  2
AcAecLayerStandard
 70
     0
  0
APPID
  5
9D2E
330
1EF2
100
AcDbSymbolTableRecord
100
AcDbRegAppTableRecord
  2
ACAD_PSEXT
 70
     0
  0
ENDTAB
  0
TABLE
  2
DIMSTYLE
  5
1EF3
330
0
100
AcDbSymbolTable
 70
     1
100
AcDbDimStyleTable
 71
     1
340
1F32
  0
DIMSTYLE
105
1F32
330
1EF3
100
AcDbSymbolTableRecord
100
AcDbDimStyleTableRecord
  2
STANDARD
 70
     0
279
     2
340
1EFA
  0
ENDTAB
  0
TABLE
  2
BLOCK_RECORD
  5
1EEA
330
0
100
AcDbSymbolTable
 70
     3
  0
BLOCK_RECORD
  5
1F07
102
{ACAD_XDICTIONARY
360
980C
102
}
330
1EEA
100
AcDbSymbolTableRecord
100
AcDbBlockTableRecord
  2
*Model_Space
340
1F0A
  0
BLOCK_RECORD
  5
1F03
330
1EEA
100
AcDbSymbolTableRecord
100
AcDbBlockTableRecord
  2
*Paper_Space
340
1F06
  0
BLOCK_RECORD
  5
429C
330
1EEA
100
AcDbSymbolTableRecord
100
AcDbBlockTableRecord
  2
_Open30
340
0
  0
BLOCK_RECORD
  5
A543
330
1EEA
100
AcDbSymbolTableRecord
100
AcDbBlockTableRecord
  2
WMF0
340
0
  0
BLOCK_RECORD
  5
1384E
330
1EEA
100
AcDbSymbolTableRecord
100
AcDbBlockTableRecord
  2
_Open
340
0
  0
ENDTAB
  0
ENDSEC
  0
SECTION
  2
BLOCKS
  0
BLOCK
  5
1F08
330
1F07
100
AcDbEntity
  8
0
100
AcDbBlockBegin
  2
*Model_Space
 70
     0
 10
0.0
 20
0.0
 30
0.0
  3
*Model_Space
  1

  0
ENDBLK
  5
1F09
330
1F07
100
AcDbEntity
  8
0
100
AcDbBlockEnd
  0
BLOCK
  5
1F04
330
1F03
100
AcDbEntity
 67
     1
  8
0
100
AcDbBlockBegin
  2
*Paper_Space
 70
     0
 10
0.0
 20
0.0
 30
0.0
  3
*Paper_Space
  1

  0
ENDBLK
  5
1F05
330
1F03
100
AcDbEntity
 67
     1
  8
0
100
AcDbBlockEnd
  0
BLOCK
  5
42A0
330
429C
100
AcDbEntity
  8
0
100
AcDbBlockBegin
  2
_Open30
 70
     0
 10
0.0
 20
0.0
 30
0.0
  3
_Open30
  1

  0
LINE
  5
429D
330
429C
100
AcDbEntity
  8
記号
  6
DOT
 62
     0
370
    -2
100
AcDbLine
 10
-1.0
 20
0.26794919
 30
0.0
 11
0.0
 21
0.0
 31
0.0
  0
LINE
  5
429E
330
429C
100
AcDbEntity
  8
記号
  6
DOT
 62
     0
370
    -2
100
AcDbLine
 10
0.0
 20
0.0
 30
0.0
 11
-1.0
 21
-0.26794919
 31
0.0
  0
LINE
  5
429F
330
429C
100
AcDbEntity
  8
記号
  6
DOT
 62
     0
370
    -2
100
AcDbLine
 10
0.0
 20
0.0
 30
0.0
 11
-1.0
 21
0.0
 31
0.0
  0
ENDBLK
  5
42A1
330
429C
100
AcDbEntity
  8
0
100
AcDbBlockEnd
  0
BLOCK
  5
A546
330
A543
100
AcDbEntity
  8
0
 62
     7
370
     0
100
AcDbBlockBegin
  2
WMF0
 70
     0
 10
0.0
 20
0.0
 30
0.0
  3
WMF0
  1

  0
TEXT
  5
A548
330
A543
100
AcDbEntity
  8
0
 62
     7
370
     0
100
AcDbText
 10
4302.31530976598
 20
-1290.694592929794
 30
0.0
 40
894.8815844313239
  1
LEDﾀﾞｳﾝﾗｲﾄ
  7
WMF-ＭＳ Ｐゴシック0
100
AcDbText
  0
TEXT
  5
A54A
330
A543
100
AcDbEntity
  8
0
 62
     7
370
     0
100
AcDbText
 10
23920.87312229885
 20
-1290.694592929794
 30
0.0
 40
894.8815844313239
  1
LEDﾀﾞｳﾝﾗｲﾄ
  7
WMF-ＭＳ Ｐゴシック0
100
AcDbText
  0
TEXT
  5
A54B
330
A543
100
AcDbEntity
  8
0
 62
     7
370
     0
100
AcDbText
 10
43539.43093483171
 20
-1290.694592929794
 30
0.0
 40
894.8815844313239
  1
LEDﾀﾞｳﾝﾗｲﾄ
  7
WMF-ＭＳ Ｐゴシック0
100
AcDbText
  0
TEXT
  5
A54C
330
A543
100
AcDbEntity
  8
0
 62
     7
370
     0
100
AcDbText
 10
63157.98874736458
 20
-1290.694592929794
 30
0.0
 40
894.8815844313239
  1
LEDﾀﾞｳﾝﾗｲﾄ
  7
WMF-ＭＳ Ｐゴシック0
100
AcDbText
  0
TEXT
  5
A54D
330
A543
100
AcDbEntity
  8
0
 62
     7
370
     0
100
AcDbText
 10
1290.694592929794
 20
-2753.481798250227
 30
0.0
 40
894.8815844313239
  1
D1
  7
WMF-ＭＳ Ｐゴシック0
100
AcDbText
  0
TEXT
  5
A54E
330
A543
100
AcDbEntity
  8
0
 62
     7
370
     0
100
AcDbText
 10
4302.31530976598
 20
-2753.481798250227
 30
0.0
 40
894.8815844313239
  1
BML-26181WW-110
  7
WMF-ＭＳ Ｐゴシック0
100
AcDbText
  0
TEXT
  5
A54F
330
A543
100
AcDbEntity
  8
0
 62
     7
370
     0
100
AcDbText
 10
20909.25240546266
 20
-2753.481798250227
 30
0.0
 40
894.8815844313239
  1
D2
  7
WMF-ＭＳ Ｐゴシック0
100
AcDbText
  0
TEXT
  5
A550
330
A543
100
AcDbEntity
  8
0
 62
     7
370
     0
100
AcDbText
 10
23920.87312229885
 20
-2753.481798250227
 30
0.0
 40
894.8815844313239
  1
BML-26187WW-110
  7
WMF-ＭＳ Ｐゴシック0
100
AcDbText
  0
TEXT
  5
A551
330
A543
100
AcDbEntity
  8
0
 62
     7
370
     0
100
AcDbText
 10
40527.81021799553
 20
-2753.481798250227
 30
0.0
 40
894.8815844313239
  1
D3
  7
WMF-ＭＳ Ｐゴシック0
100
AcDbText
  0
TEXT
  5
A552
330
A543
100
AcDbEntity
  8
0
 62
     7
370
     0
100
AcDbText
 10
43539.43093483171
 20
-2753.481798250227
 30
0.0
 40
894.8815844313239
  1
BML-26199WW-110
  7
WMF-ＭＳ Ｐゴシック0
100
AcDbText
  0
TEXT
  5
A553
330
A543
100
AcDbEntity
  8
0
 62
     7
370
     0
100
AcDbText
 10
60146.36803052839
 20
-2753.481798250227
 30
0.0
 40
894.8815844313239
  1
D4
  7
WMF-ＭＳ Ｐゴシック0
100
AcDbText
  0
TEXT
  5
A554
330
A543
100
AcDbEntity
  8
0
 62
     7
370
     0
100
AcDbText
 10
63157.98874736458
 20
-2753.481798250227
 30
0.0
 40
894.8815844313239
  1
BML-26213WL-110
  7
WMF-ＭＳ Ｐゴシック0
100
AcDbText
  0
TEXT
  5
A555
330
A543
100
AcDbEntity
  8
0
 62
     7
370
     0
100
AcDbText
 10
9637.186293875796
 20
-4216.26900357066
 30
0.0
 40
894.8815844313239
  1
LED76W  (4500K)
  7
WMF-ＭＳ Ｐゴシック0
100
AcDbText
  0
TEXT
  5
A556
330
A543
100
AcDbEntity
  8
0
 62
     7
370
     0
100
AcDbText
 10
29255.74410640866
 20
-4216.26900357066
 30
0.0
 40
894.8815844313239
  1
LED54W  (4500K)
  7
WMF-ＭＳ Ｐゴシック0
100
AcDbText
  0
TEXT
  5
A557
330
A543
100
AcDbEntity
  8
0
 62
     7
370
     0
100
AcDbText
 10
48874.30191894153
 20
-4216.26900357066
 30
0.0
 40
894.8815844313239
  1
LED32W  (4500K)
  7
WMF-ＭＳ Ｐゴシック0
100
AcDbText
  0
TEXT
  5
A558
330
A543
100
AcDbEntity
  8
0
 62
     7
370
     0
100
AcDbText
 10
68492.8597314744
 20
-4216.26900357066
 30
0.0
 40
894.8815844313239
  1
LED17W  (2900K)
  7
WMF-ＭＳ Ｐゴシック0
100
AcDbText
  0
TEXT
  5
A559
330
A543
100
AcDbEntity
  8
0
 62
     7
370
     0
100
AcDbText
 10
4302.31530976598
 20
-20823.20609926735
 30
0.0
 40
894.8815844313239
  1
 
  7
WMF-ＭＳ Ｐゴシック0
100
AcDbText
  0
TEXT
  5
A55A
330
A543
100
AcDbEntity
  8
0
 62
     7
370
     0
100
AcDbText
 10
23920.87312229885
 20
-20823.20609926735
 30
0.0
 40
894.8815844313239
  1
 
  7
WMF-ＭＳ Ｐゴシック0
100
AcDbText
  0
TEXT
  5
A55B
330
A543
100
AcDbEntity
  8
0
 62
     7
370
     0
100
AcDbText
 10
43539.43093483171
 20
-20823.20609926735
 30
0.0
 40
894.8815844313239
  1
 
  7
WMF-ＭＳ Ｐゴシック0
100
AcDbText
  0
TEXT
  5
A55C
330
A543
100
AcDbEntity
  8
0
 62
     7
370
     0
100
AcDbText
 10
63157.98874736458
 20
-20823.20609926735
 30
0.0
 40
894.8815844313239
  1
 
  7
WMF-ＭＳ Ｐゴシック0
100
AcDbText
  0
TEXT
  5
A55D
330
A543
100
AcDbEntity
  8
0
 62
     7
370
     0
100
AcDbText
 10
4302.31530976598
 20
-24006.91942849417
 30
0.0
 40
894.8815844313239
  1
LED直管型ﾗｲﾄ
  7
WMF-ＭＳ Ｐゴシック0
100
AcDbText
  0
TEXT
  5
A55E
330
A543
100
AcDbEntity
  8
0
 62
     7
370
     0
100
AcDbText
 10
23920.87312229885
 20
-24006.91942849417
 30
0.0
 40
894.8815844313239
  1
LED軒下用ﾀﾞｳﾝﾗｲﾄ
  7
WMF-ＭＳ Ｐゴシック0
100
AcDbText
  0
TEXT
  5
A55F
330
A543
100
AcDbEntity
  8
0
 62
     7
370
     0
100
AcDbText
 10
43539.43093483171
 20
-24006.91942849417
 30
0.0
 40
894.8815844313239
  1
LEDｱｳﾄﾄﾞｱｽﾎﾟｯﾄﾗｲﾄ
  7
WMF-ＭＳ Ｐゴシック0
100
AcDbText
  0
TEXT
  5
A560
330
A543
100
AcDbEntity
  8
0
 62
     7
370
     0
100
AcDbText
 10
63157.98874736458
 20
-24006.91942849417
 30
0.0
 40
894.8815844313239
  1
LEDﾀﾞｳﾝﾗｲﾄ
  7
WMF-ＭＳ Ｐゴシック0
100
AcDbText
  0
TEXT
  5
A561
330
A543
100
AcDbEntity
  8
0
 62
     7
370
     0
100
AcDbText
 10
1376.740899125113
 20
-25469.7066338146
 30
0.0
 40
894.8815844313239
  1
F1
  7
WMF-ＭＳ Ｐゴシック0
100
AcDbText
  0
TEXT
  5
A562
330
A543
100
AcDbEntity
  8
0
 62
     7
370
     0
100
AcDbText
 10
4302.31530976598
 20
-25469.7066338146
 30
0.0
 40
894.8815844313239
  1
TBJKL-22006W
  7
WMF-ＭＳ Ｐゴシック0
100
AcDbText
  0
TEXT
  5
A563
330
A543
100
AcDbEntity
  8
0
 62
     7
370
     0
100
AcDbText
 10
20479.02087448607
 20
-25469.7066338146
 30
0.0
 40
894.8815844313239
  1
OD1
  7
WMF-ＭＳ Ｐゴシック0
100
AcDbText
  0
TEXT
  5
A564
330
A543
100
AcDbEntity
  8
0
 62
     7
370
     0
100
AcDbText
 10
23920.87312229885
 20
-25469.7066338146
 30
0.0
 40
894.8815844313239
  1
BML-26187WSW-110
  7
WMF-ＭＳ Ｐゴシック0
100
AcDbText
  0
TEXT
  5
A565
330
A543
100
AcDbEntity
  8
0
 62
     7
370
     0
100
AcDbText
 10
40097.57868701893
 20
-25469.7066338146
 30
0.0
 40
894.8815844313239
  1
OS1
  7
WMF-ＭＳ Ｐゴシック0
100
AcDbText
  0
TEXT
  5
A566
330
A543
100
AcDbEntity
  8
0
 62
     7
370
     0
100
AcDbText
 10
43539.43093483171
 20
-25469.7066338146
 30
0.0
 40
894.8815844313239
  1
BGSL-20045GW-20
  7
WMF-ＭＳ Ｐゴシック0
100
AcDbText
  0
TEXT
  5
A567
330
A543
100
AcDbEntity
  8
0
 62
     7
370
     0
100
AcDbText
 10
60576.59956150499
 20
-25469.7066338146
 30
0.0
 40
894.8815844313239
  1
0
  7
WMF-ＭＳ Ｐゴシック0
100
AcDbText
  0
TEXT
  5
A568
330
A543
100
AcDbEntity
  8
0
 62
     7
370
     0
100
AcDbText
 10
63157.98874736458
 20
-25469.7066338146
 30
0.0
 40
894.8815844313239
  1
BML-26160WW-120
  7
WMF-ＭＳ Ｐゴシック0
100
AcDbText
  0
TEXT
  5
A569
330
A543
100
AcDbEntity
  8
0
 62
     7
370
     0
100
AcDbText
 10
9637.186293875796
 20
-26932.49383913503
 30
0.0
 40
894.8815844313239
  1
LED38W  (4000K)
  7
WMF-ＭＳ Ｐゴシック0
100
AcDbText
  0
TEXT
  5
A56A
330
A543
100
AcDbEntity
  8
0
 62
     7
370
     0
100
AcDbText
 10
29255.74410640866
 20
-26932.49383913503
 30
0.0
 40
894.8815844313239
  1
LED54W  (4500K)
  7
WMF-ＭＳ Ｐゴシック0
100
AcDbText
  0
TEXT
  5
A56B
330
A543
100
AcDbEntity
  8
0
 62
     7
370
     0
100
AcDbText
 10
48874.30191894153
 20
-26932.49383913503
 30
0.0
 40
894.8815844313239
  1
LED68W  (4500K)
  7
WMF-ＭＳ Ｐゴシック0
100
AcDbText
  0
TEXT
  5
A56C
330
A543
100
AcDbEntity
  8
0
 62
     7
370
     0
100
AcDbText
 10
77613.76818817828
 20
-26932.49383913503
 30
0.0
 40
894.8815844313239
  1
0
  7
WMF-ＭＳ Ｐゴシック0
100
AcDbText
  0
TEXT
  5
A56D
330
A543
100
AcDbEntity
  8
0
 62
     7
370
     0
100
AcDbText
 10
4302.31530976598
 20
-46723.14426405853
 30
0.0
 40
894.8815844313239
  1
LEDﾀﾞｳﾝﾗｲﾄ
  7
WMF-ＭＳ Ｐゴシック0
100
AcDbText
  0
TEXT
  5
A56E
330
A543
100
AcDbEntity
  8
0
 62
     7
370
     0
100
AcDbText
 10
23920.87312229885
 20
-46723.14426405853
 30
0.0
 40
894.8815844313239
  1
LEDﾀﾞｳﾝﾗｲﾄ
  7
WMF-ＭＳ Ｐゴシック0
100
AcDbText
  0
TEXT
  5
A56F
330
A543
100
AcDbEntity
  8
0
 62
     7
370
     0
100
AcDbText
 10
43539.43093483171
 20
-46723.14426405853
 30
0.0
 40
894.8815844313239
  1
LEDﾀﾞｳﾝﾗｲﾄ
  7
WMF-ＭＳ Ｐゴシック0
100
AcDbText
  0
TEXT
  5
A570
330
A543
100
AcDbEntity
  8
0
 62
     7
370
     0
100
AcDbText
 10
63157.98874736458
 20
-46723.14426405853
 30
0.0
 40
894.8815844313239
  1
LEDﾀﾞｳﾝﾗｲﾄ
  7
WMF-ＭＳ Ｐゴシック0
100
AcDbText
  0
TEXT
  5
A571
330
A543
100
AcDbEntity
  8
0
 62
     7
370
     0
100
AcDbText
 10
1720.926123906392
 20
-48185.93146937897
 30
0.0
 40
894.8815844313239
  1
0
  7
WMF-ＭＳ Ｐゴシック0
100
AcDbText
  0
TEXT
  5
A572
330
A543
100
AcDbEntity
  8
0
 62
     7
370
     0
100
AcDbText
 10
4302.31530976598
 20
-48185.93146937897
 30
0.0
 40
894.8815844313239
  1
BML-26160WW-124
  7
WMF-ＭＳ Ｐゴシック0
100
AcDbText
  0
TEXT
  5
A573
330
A543
100
AcDbEntity
  8
0
 62
     7
370
     0
100
AcDbText
 10
21339.48393643926
 20
-48185.93146937897
 30
0.0
 40
894.8815844313239
  1
0
  7
WMF-ＭＳ Ｐゴシック0
100
AcDbText
  0
TEXT
  5
A574
330
A543
100
AcDbEntity
  8
0
 62
     7
370
     0
100
AcDbText
 10
23920.87312229885
 20
-48185.93146937897
 30
0.0
 40
894.8815844313239
  1
BML-26160WW-125
  7
WMF-ＭＳ Ｐゴシック0
100
AcDbText
  0
TEXT
  5
A575
330
A543
100
AcDbEntity
  8
0
 62
     7
370
     0
100
AcDbText
 10
40958.04174897213
 20
-48185.93146937897
 30
0.0
 40
894.8815844313239
  1
0
  7
WMF-ＭＳ Ｐゴシック0
100
AcDbText
  0
TEXT
  5
A576
330
A543
100
AcDbEntity
  8
0
 62
     7
370
     0
100
AcDbText
 10
43539.43093483171
 20
-48185.93146937897
 30
0.0
 40
894.8815844313239
  1
BML-26160WW-126
  7
WMF-ＭＳ Ｐゴシック0
100
AcDbText
  0
TEXT
  5
A577
330
A543
100
AcDbEntity
  8
0
 62
     7
370
     0
100
AcDbText
 10
60576.59956150499
 20
-48185.93146937897
 30
0.0
 40
894.8815844313239
  1
0
  7
WMF-ＭＳ Ｐゴシック0
100
AcDbText
  0
TEXT
  5
A578
330
A543
100
AcDbEntity
  8
0
 62
     7
370
     0
100
AcDbText
 10
63157.98874736458
 20
-48185.93146937897
 30
0.0
 40
894.8815844313239
  1
BML-26160WW-127
  7
WMF-ＭＳ Ｐゴシック0
100
AcDbText
  0
TEXT
  5
A579
330
A543
100
AcDbEntity
  8
0
 62
     7
370
     0
100
AcDbText
 10
18758.09475057967
 20
-49648.7186746994
 30
0.0
 40
894.8815844313239
  1
0
  7
WMF-ＭＳ Ｐゴシック0
100
AcDbText
  0
TEXT
  5
A57A
330
A543
100
AcDbEntity
  8
0
 62
     7
370
     0
100
AcDbText
 10
38376.65256311254
 20
-49648.7186746994
 30
0.0
 40
894.8815844313239
  1
0
  7
WMF-ＭＳ Ｐゴシック0
100
AcDbText
  0
TEXT
  5
A57B
330
A543
100
AcDbEntity
  8
0
 62
     7
370
     0
100
AcDbText
 10
57995.21037564541
 20
-49648.7186746994
 30
0.0
 40
894.8815844313239
  1
0
  7
WMF-ＭＳ Ｐゴシック0
100
AcDbText
  0
TEXT
  5
A57C
330
A543
100
AcDbEntity
  8
0
 62
     7
370
     0
100
AcDbText
 10
77613.76818817828
 20
-49648.7186746994
 30
0.0
 40
894.8815844313239
  1
0
  7
WMF-ＭＳ Ｐゴシック0
100
AcDbText
  0
TEXT
  5
A57D
330
A543
100
AcDbEntity
  8
0
 62
     7
370
     0
100
AcDbText
 10
4302.31530976598
 20
-69439.36909962291
 30
0.0
 40
894.8815844313239
  1
LEDﾀﾞｳﾝﾗｲﾄ
  7
WMF-ＭＳ Ｐゴシック0
100
AcDbText
  0
TEXT
  5
A57E
330
A543
100
AcDbEntity
  8
0
 62
     7
370
     0
100
AcDbText
 10
23920.87312229885
 20
-69439.36909962291
 30
0.0
 40
894.8815844313239
  1
LEDﾀﾞｳﾝﾗｲﾄ
  7
WMF-ＭＳ Ｐゴシック0
100
AcDbText
  0
TEXT
  5
A57F
330
A543
100
AcDbEntity
  8
0
 62
     7
370
     0
100
AcDbText
 10
43539.43093483171
 20
-69439.36909962291
 30
0.0
 40
894.8815844313239
  1
LEDﾀﾞｳﾝﾗｲﾄ
  7
WMF-ＭＳ Ｐゴシック0
100
AcDbText
  0
TEXT
  5
A580
330
A543
100
AcDbEntity
  8
0
 62
     7
370
     0
100
AcDbText
 10
63157.98874736458
 20
-69439.36909962291
 30
0.0
 40
894.8815844313239
  1
LEDﾀﾞｳﾝﾗｲﾄ
  7
WMF-ＭＳ Ｐゴシック0
100
AcDbText
  0
TEXT
  5
A581
330
A543
100
AcDbEntity
  8
0
 62
     7
370
     0
100
AcDbText
 10
1720.926123906392
 20
-70902.15630494334
 30
0.0
 40
894.8815844313239
  1
0
  7
WMF-ＭＳ Ｐゴシック0
100
AcDbText
  0
TEXT
  5
A582
330
A543
100
AcDbEntity
  8
0
 62
     7
370
     0
100
AcDbText
 10
18758.09475057967
 20
-70902.15630494334
 30
0.0
 40
894.8815844313239
  1
0
  7
WMF-ＭＳ Ｐゴシック0
100
AcDbText
  0
TEXT
  5
A583
330
A543
100
AcDbEntity
  8
0
 62
     7
370
     0
100
AcDbText
 10
21339.48393643926
 20
-70902.15630494334
 30
0.0
 40
894.8815844313239
  1
0
  7
WMF-ＭＳ Ｐゴシック0
100
AcDbText
  0
TEXT
  5
A584
330
A543
100
AcDbEntity
  8
0
 62
     7
370
     0
100
AcDbText
 10
38376.65256311254
 20
-70902.15630494334
 30
0.0
 40
894.8815844313239
  1
0
  7
WMF-ＭＳ Ｐゴシック0
100
AcDbText
  0
TEXT
  5
A585
330
A543
100
AcDbEntity
  8
0
 62
     7
370
     0
100
AcDbText
 10
40958.04174897213
 20
-70902.15630494334
 30
0.0
 40
894.8815844313239
  1
0
  7
WMF-ＭＳ Ｐゴシック0
100
AcDbText
  0
TEXT
  5
A586
330
A543
100
AcDbEntity
  8
0
 62
     7
370
     0
100
AcDbText
 10
57995.21037564541
 20
-70902.15630494334
 30
0.0
 40
894.8815844313239
  1
0
  7
WMF-ＭＳ Ｐゴシック0
100
AcDbText
  0
TEXT
  5
A587
330
A543
100
AcDbEntity
  8
0
 62
     7
370
     0
100
AcDbText
 10
60576.59956150499
 20
-70902.15630494334
 30
0.0
 40
894.8815844313239
  1
0
  7
WMF-ＭＳ Ｐゴシック0
100
AcDbText
  0
TEXT
  5
A588
330
A543
100
AcDbEntity
  8
0
 62
     7
370
     0
100
AcDbText
 10
77613.76818817828
 20
-70902.15630494334
 30
0.0
 40
894.8815844313239
  1
0
  7
WMF-ＭＳ Ｐゴシック0
100
AcDbText
  0
TEXT
  5
A589
330
A543
100
AcDbEntity
  8
0
 62
     7
370
     0
100
AcDbText
 10
18758.09475057967
 20
-72364.94351026378
 30
0.0
 40
894.8815844313239
  1
0
  7
WMF-ＭＳ Ｐゴシック0
100
AcDbText
  0
TEXT
  5
A58A
330
A543
100
AcDbEntity
  8
0
 62
     7
370
     0
100
AcDbText
 10
38376.65256311254
 20
-72364.94351026378
 30
0.0
 40
894.8815844313239
  1
0
  7
WMF-ＭＳ Ｐゴシック0
100
AcDbText
  0
TEXT
  5
A58B
330
A543
100
AcDbEntity
  8
0
 62
     7
370
     0
100
AcDbText
 10
57995.21037564541
 20
-72364.94351026378
 30
0.0
 40
894.8815844313239
  1
0
  7
WMF-ＭＳ Ｐゴシック0
100
AcDbText
  0
TEXT
  5
A58C
330
A543
100
AcDbEntity
  8
0
 62
     7
370
     0
100
AcDbText
 10
77613.76818817828
 20
-72364.94351026378
 30
0.0
 40
894.8815844313239
  1
0
  7
WMF-ＭＳ Ｐゴシック0
100
AcDbText
  0
POLYLINE
  5
A58E
330
A543
100
AcDbEntity
  8
0
 62
     7
370
     0
100
AcDb2dPolyline
 66
     1
 10
0.0
 20
0.0
 30
0.0
  0
VERTEX
  5
A58F
330
A58E
100
AcDbEntity
  8
0
 62
     7
370
     0
100
AcDbVertex
100
AcDb2dVertex
 10
4130.22269737534
 20
-1462.787205320433
 30
0.0
  0
VERTEX
  5
A590
330
A58E
100
AcDbEntity
  8
0
 62
     7
370
     0
100
AcDbVertex
100
AcDb2dVertex
 10
19704.60411872819
 20
-1462.787205320433
 30
0.0
  0
SEQEND
  5
A591
330
A58E
100
AcDbEntity
  8
0
 62
     7
370
     0
  0
POLYLINE
  5
A592
330
A543
100
AcDbEntity
  8
0
 62
     7
370
     0
100
AcDb2dPolyline
 66
     1
 10
0.0
 20
0.0
 30
0.0
  0
VERTEX
  5
A593
330
A592
100
AcDbEntity
  8
0
 62
     7
370
     0
100
AcDbVertex
100
AcDb2dVertex
 10
23748.78050990821
 20
-1462.787205320433
 30
0.0
  0
VERTEX
  5
A594
330
A592
100
AcDbEntity
  8
0
 62
     7
370
     0
100
AcDbVertex
100
AcDb2dVertex
 10
39323.16193126106
 20
-1462.787205320433
 30
0.0
  0
SEQEND
  5
A595
330
A592
100
AcDbEntity
  8
0
 62
     7
370
     0
  0
POLYLINE
  5
A596
330
A543
100
AcDbEntity
  8
0
 62
     7
370
     0
100
AcDb2dPolyline
 66
     1
 10
0.0
 20
0.0
 30
0.0
  0
VERTEX
  5
A597
330
A596
100
AcDbEntity
  8
0
 62
     7
370
     0
100
AcDbVertex
100
AcDb2dVertex
 10
43367.33832244107
 20
-1462.787205320433
 30
0.0
  0
VERTEX
  5
A598
330
A596
100
AcDbEntity
  8
0
 62
     7
370
     0
100
AcDbVertex
100
AcDb2dVertex
 10
58941.71974379392
 20
-1462.787205320433
 30
0.0
  0
SEQEND
  5
A599
330
A596
100
AcDbEntity
  8
0
 62
     7
370
     0
  0
POLYLINE
  5
A59A
330
A543
100
AcDbEntity
  8
0
 62
     7
370
     0
100
AcDb2dPolyline
 66
     1
 10
0.0
 20
0.0
 30
0.0
  0
VERTEX
  5
A59B
330
A59A
100
AcDbEntity
  8
0
 62
     7
370
     0
100
AcDbVertex
100
AcDb2dVertex
 10
4044.176391180021
 20
-86.04630619531958
 30
0.0
  0
VERTEX
  5
A59C
330
A59A
100
AcDbEntity
  8
0
 62
     7
370
     0
100
AcDbVertex
100
AcDb2dVertex
 10
4044.176391180021
 20
-4474.407922156618
 30
0.0
  0
SEQEND
  5
A59D
330
A59A
100
AcDbEntity
  8
0
 62
     7
370
     0
  0
POLYLINE
  5
A59E
330
A543
100
AcDbEntity
  8
0
 62
     7
370
     0
100
AcDb2dPolyline
 66
     1
 10
0.0
 20
0.0
 30
0.0
  0
VERTEX
  5
A59F
330
A59E
100
AcDbEntity
  8
0
 62
     7
370
     0
100
AcDbVertex
100
AcDb2dVertex
 10
23662.73420371289
 20
-86.04630619531958
 30
0.0
  0
VERTEX
  5
A5A0
330
A59E
100
AcDbEntity
  8
0
 62
     7
370
     0
100
AcDbVertex
100
AcDb2dVertex
 10
23662.73420371289
 20
-4474.407922156618
 30
0.0
  0
SEQEND
  5
A5A1
330
A59E
100
AcDbEntity
  8
0
 62
     7
370
     0
  0
POLYLINE
  5
A5A2
330
A543
100
AcDbEntity
  8
0
 62
     7
370
     0
100
AcDb2dPolyline
 66
     1
 10
0.0
 20
0.0
 30
0.0
  0
VERTEX
  5
A5A3
330
A5A2
100
AcDbEntity
  8
0
 62
     7
370
     0
100
AcDbVertex
100
AcDb2dVertex
 10
43281.29201624575
 20
-86.04630619531958
 30
0.0
  0
VERTEX
  5
A5A4
330
A5A2
100
AcDbEntity
  8
0
 62
     7
370
     0
100
AcDbVertex
100
AcDb2dVertex
 10
43281.29201624575
 20
-4474.407922156618
 30
0.0
  0
SEQEND
  5
A5A5
330
A5A2
100
AcDbEntity
  8
0
 62
     7
370
     0
  0
POLYLINE
  5
A5A6
330
A543
100
AcDbEntity
  8
0
 62
     7
370
     0
100
AcDb2dPolyline
 66
     1
 10
0.0
 20
0.0
 30
0.0
  0
VERTEX
  5
A5A7
330
A5A6
100
AcDbEntity
  8
0
 62
     7
370
     0
100
AcDbVertex
100
AcDb2dVertex
 10
62899.84982877862
 20
-86.04630619531958
 30
0.0
  0
VERTEX
  5
A5A8
330
A5A6
100
AcDbEntity
  8
0
 62
     7
370
     0
100
AcDbVertex
100
AcDb2dVertex
 10
62899.84982877862
 20
-4474.407922156618
 30
0.0
  0
SEQEND
  5
A5A9
330
A5A6
100
AcDbEntity
  8
0
 62
     7
370
     0
  0
POLYLINE
  5
A5AA
330
A543
100
AcDbEntity
  8
0
 62
     7
370
     0
100
AcDb2dPolyline
 66
     1
 10
0.0
 20
0.0
 30
0.0
  0
VERTEX
  5
A5AB
330
A5AA
100
AcDbEntity
  8
0
 62
     7
370
     0
100
AcDbVertex
100
AcDb2dVertex
 10
4130.22269737534
 20
-24179.0120408848
 30
0.0
  0
VERTEX
  5
A5AC
330
A5AA
100
AcDbEntity
  8
0
 62
     7
370
     0
100
AcDbVertex
100
AcDb2dVertex
 10
19704.60411872819
 20
-24179.0120408848
 30
0.0
  0
SEQEND
  5
A5AD
330
A5AA
100
AcDbEntity
  8
0
 62
     7
370
     0
  0
POLYLINE
  5
A5AE
330
A543
100
AcDbEntity
  8
0
 62
     7
370
     0
100
AcDb2dPolyline
 66
     1
 10
0.0
 20
0.0
 30
0.0
  0
VERTEX
  5
A5AF
330
A5AE
100
AcDbEntity
  8
0
 62
     7
370
     0
100
AcDbVertex
100
AcDb2dVertex
 10
23748.78050990821
 20
-24179.0120408848
 30
0.0
  0
VERTEX
  5
A5B0
330
A5AE
100
AcDbEntity
  8
0
 62
     7
370
     0
100
AcDbVertex
100
AcDb2dVertex
 10
39323.16193126106
 20
-24179.0120408848
 30
0.0
  0
SEQEND
  5
A5B1
330
A5AE
100
AcDbEntity
  8
0
 62
     7
370
     0
  0
POLYLINE
  5
A5B2
330
A543
100
AcDbEntity
  8
0
 62
     7
370
     0
100
AcDb2dPolyline
 66
     1
 10
0.0
 20
0.0
 30
0.0
  0
VERTEX
  5
A5B3
330
A5B2
100
AcDbEntity
  8
0
 62
     7
370
     0
100
AcDbVertex
100
AcDb2dVertex
 10
43367.33832244107
 20
-24179.0120408848
 30
0.0
  0
VERTEX
  5
A5B4
330
A5B2
100
AcDbEntity
  8
0
 62
     7
370
     0
100
AcDbVertex
100
AcDb2dVertex
 10
58941.71974379392
 20
-24179.0120408848
 30
0.0
  0
SEQEND
  5
A5B5
330
A5B2
100
AcDbEntity
  8
0
 62
     7
370
     0
  0
POLYLINE
  5
A5B6
330
A543
100
AcDbEntity
  8
0
 62
     7
370
     0
100
AcDb2dPolyline
 66
     1
 10
0.0
 20
0.0
 30
0.0
  0
VERTEX
  5
A5B7
330
A5B6
100
AcDbEntity
  8
0
 62
     7
370
     0
100
AcDbVertex
100
AcDb2dVertex
 10
4044.176391180021
 20
-22802.27114175969
 30
0.0
  0
VERTEX
  5
A5B8
330
A5B6
100
AcDbEntity
  8
0
 62
     7
370
     0
100
AcDbVertex
100
AcDb2dVertex
 10
4044.176391180021
 20
-27190.63275772099
 30
0.0
  0
SEQEND
  5
A5B9
330
A5B6
100
AcDbEntity
  8
0
 62
     7
370
     0
  0
POLYLINE
  5
A5BA
330
A543
100
AcDbEntity
  8
0
 62
     7
370
     0
100
AcDb2dPolyline
 66
     1
 10
0.0
 20
0.0
 30
0.0
  0
VERTEX
  5
A5BB
330
A5BA
100
AcDbEntity
  8
0
 62
     7
370
     0
100
AcDbVertex
100
AcDb2dVertex
 10
23662.73420371289
 20
-22802.27114175969
 30
0.0
  0
VERTEX
  5
A5BC
330
A5BA
100
AcDbEntity
  8
0
 62
     7
370
     0
100
AcDbVertex
100
AcDb2dVertex
 10
23662.73420371289
 20
-27190.63275772099
 30
0.0
  0
SEQEND
  5
A5BD
330
A5BA
100
AcDbEntity
  8
0
 62
     7
370
     0
  0
POLYLINE
  5
A5BE
330
A543
100
AcDbEntity
  8
0
 62
     7
370
     0
100
AcDb2dPolyline
 66
     1
 10
0.0
 20
0.0
 30
0.0
  0
VERTEX
  5
A5BF
330
A5BE
100
AcDbEntity
  8
0
 62
     7
370
     0
100
AcDbVertex
100
AcDb2dVertex
 10
43281.29201624575
 20
-22802.27114175969
 30
0.0
  0
VERTEX
  5
A5C0
330
A5BE
100
AcDbEntity
  8
0
 62
     7
370
     0
100
AcDbVertex
100
AcDb2dVertex
 10
43281.29201624575
 20
-27190.63275772099
 30
0.0
  0
SEQEND
  5
A5C1
330
A5BE
100
AcDbEntity
  8
0
 62
     7
370
     0
  0
POLYLINE
  5
A5C2
330
A543
100
AcDbEntity
  8
0
 62
     7
370
     0
100
AcDb2dPolyline
 66
     1
 10
0.0
 20
0.0
 30
0.0
  0
VERTEX
  5
A5C3
330
A5C2
100
AcDbEntity
  8
0
 62
     7
370
     0
100
AcDbVertex
100
AcDb2dVertex
 10
62899.84982877862
 20
-22802.27114175969
 30
0.0
  0
VERTEX
  5
A5C4
330
A5C2
100
AcDbEntity
  8
0
 62
     7
370
     0
100
AcDbVertex
100
AcDb2dVertex
 10
62899.84982877862
 20
-27190.63275772099
 30
0.0
  0
SEQEND
  5
A5C5
330
A5C2
100
AcDbEntity
  8
0
 62
     7
370
     0
  0
POLYLINE
  5
A5C6
330
A543
100
AcDbEntity
  8
0
 62
     7
370
     0
100
AcDb2dPolyline
 66
     1
 10
0.0
 20
0.0
 30
0.0
  0
VERTEX
  5
A5C7
330
A5C6
100
AcDbEntity
  8
0
 62
     7
370
     0
100
AcDbVertex
100
AcDb2dVertex
 10
4130.22269737534
 20
-46895.23687644918
 30
0.0
  0
VERTEX
  5
A5C8
330
A5C6
100
AcDbEntity
  8
0
 62
     7
370
     0
100
AcDbVertex
100
AcDb2dVertex
 10
19704.60411872819
 20
-46895.23687644918
 30
0.0
  0
SEQEND
  5
A5C9
330
A5C6
100
AcDbEntity
  8
0
 62
     7
370
     0
  0
POLYLINE
  5
A5CA
330
A543
100
AcDbEntity
  8
0
 62
     7
370
     0
100
AcDb2dPolyline
 66
     1
 10
0.0
 20
0.0
 30
0.0
  0
VERTEX
  5
A5CB
330
A5CA
100
AcDbEntity
  8
0
 62
     7
370
     0
100
AcDbVertex
100
AcDb2dVertex
 10
23748.78050990821
 20
-46895.23687644918
 30
0.0
  0
VERTEX
  5
A5CC
330
A5CA
100
AcDbEntity
  8
0
 62
     7
370
     0
100
AcDbVertex
100
AcDb2dVertex
 10
39323.16193126106
 20
-46895.23687644918
 30
0.0
  0
SEQEND
  5
A5CD
330
A5CA
100
AcDbEntity
  8
0
 62
     7
370
     0
  0
POLYLINE
  5
A5CE
330
A543
100
AcDbEntity
  8
0
 62
     7
370
     0
100
AcDb2dPolyline
 66
     1
 10
0.0
 20
0.0
 30
0.0
  0
VERTEX
  5
A5CF
330
A5CE
100
AcDbEntity
  8
0
 62
     7
370
     0
100
AcDbVertex
100
AcDb2dVertex
 10
43367.33832244107
 20
-46895.23687644918
 30
0.0
  0
VERTEX
  5
A5D0
330
A5CE
100
AcDbEntity
  8
0
 62
     7
370
     0
100
AcDbVertex
100
AcDb2dVertex
 10
58941.71974379392
 20
-46895.23687644918
 30
0.0
  0
SEQEND
  5
A5D1
330
A5CE
100
AcDbEntity
  8
0
 62
     7
370
     0
  0
POLYLINE
  5
A5D2
330
A543
100
AcDbEntity
  8
0
 62
     7
370
     0
100
AcDb2dPolyline
 66
     1
 10
0.0
 20
0.0
 30
0.0
  0
VERTEX
  5
A5D3
330
A5D2
100
AcDbEntity
  8
0
 62
     7
370
     0
100
AcDbVertex
100
AcDb2dVertex
 10
4044.176391180021
 20
-45518.49597732406
 30
0.0
  0
VERTEX
  5
A5D4
330
A5D2
100
AcDbEntity
  8
0
 62
     7
370
     0
100
AcDbVertex
100
AcDb2dVertex
 10
4044.176391180021
 20
-49906.85759328536
 30
0.0
  0
SEQEND
  5
A5D5
330
A5D2
100
AcDbEntity
  8
0
 62
     7
370
     0
  0
POLYLINE
  5
A5D6
330
A543
100
AcDbEntity
  8
0
 62
     7
370
     0
100
AcDb2dPolyline
 66
     1
 10
0.0
 20
0.0
 30
0.0
  0
VERTEX
  5
A5D7
330
A5D6
100
AcDbEntity
  8
0
 62
     7
370
     0
100
AcDbVertex
100
AcDb2dVertex
 10
23662.73420371289
 20
-45518.49597732406
 30
0.0
  0
VERTEX
  5
A5D8
330
A5D6
100
AcDbEntity
  8
0
 62
     7
370
     0
100
AcDbVertex
100
AcDb2dVertex
 10
23662.73420371289
 20
-49906.85759328536
 30
0.0
  0
SEQEND
  5
A5D9
330
A5D6
100
AcDbEntity
  8
0
 62
     7
370
     0
  0
POLYLINE
  5
A5DA
330
A543
100
AcDbEntity
  8
0
 62
     7
370
     0
100
AcDb2dPolyline
 66
     1
 10
0.0
 20
0.0
 30
0.0
  0
VERTEX
  5
A5DB
330
A5DA
100
AcDbEntity
  8
0
 62
     7
370
     0
100
AcDbVertex
100
AcDb2dVertex
 10
43281.29201624575
 20
-45518.49597732406
 30
0.0
  0
VERTEX
  5
A5DC
330
A5DA
100
AcDbEntity
  8
0
 62
     7
370
     0
100
AcDbVertex
100
AcDb2dVertex
 10
43281.29201624575
 20
-49906.85759328536
 30
0.0
  0
SEQEND
  5
A5DD
330
A5DA
100
AcDbEntity
  8
0
 62
     7
370
     0
  0
POLYLINE
  5
A5DE
330
A543
100
AcDbEntity
  8
0
 62
     7
370
     0
100
AcDb2dPolyline
 66
     1
 10
0.0
 20
0.0
 30
0.0
  0
VERTEX
  5
A5DF
330
A5DE
100
AcDbEntity
  8
0
 62
     7
370
     0
100
AcDbVertex
100
AcDb2dVertex
 10
62899.84982877862
 20
-45518.49597732406
 30
0.0
  0
VERTEX
  5
A5E0
330
A5DE
100
AcDbEntity
  8
0
 62
     7
370
     0
100
AcDbVertex
100
AcDb2dVertex
 10
62899.84982877862
 20
-49906.85759328536
 30
0.0
  0
SEQEND
  5
A5E1
330
A5DE
100
AcDbEntity
  8
0
 62
     7
370
     0
  0
POLYLINE
  5
A5E2
330
A543
100
AcDbEntity
  8
0
 62
     7
370
     0
100
AcDb2dPolyline
 66
     1
 10
0.0
 20
0.0
 30
0.0
  0
VERTEX
  5
A5E3
330
A5E2
100
AcDbEntity
  8
0
 62
     7
370
     0
100
AcDbVertex
100
AcDb2dVertex
 10
4130.22269737534
 20
-69611.46171201355
 30
0.0
  0
VERTEX
  5
A5E4
330
A5E2
100
AcDbEntity
  8
0
 62
     7
370
     0
100
AcDbVertex
100
AcDb2dVertex
 10
19704.60411872819
 20
-69611.46171201355
 30
0.0
  0
SEQEND
  5
A5E5
330
A5E2
100
AcDbEntity
  8
0
 62
     7
370
     0
  0
POLYLINE
  5
A5E6
330
A543
100
AcDbEntity
  8
0
 62
     7
370
     0
100
AcDb2dPolyline
 66
     1
 10
0.0
 20
0.0
 30
0.0
  0
VERTEX
  5
A5E7
330
A5E6
100
AcDbEntity
  8
0
 62
     7
370
     0
100
AcDbVertex
100
AcDb2dVertex
 10
23748.78050990821
 20
-69611.46171201355
 30
0.0
  0
VERTEX
  5
A5E8
330
A5E6
100
AcDbEntity
  8
0
 62
     7
370
     0
100
AcDbVertex
100
AcDb2dVertex
 10
39323.16193126106
 20
-69611.46171201355
 30
0.0
  0
SEQEND
  5
A5E9
330
A5E6
100
AcDbEntity
  8
0
 62
     7
370
     0
  0
POLYLINE
  5
A5EA
330
A543
100
AcDbEntity
  8
0
 62
     7
370
     0
100
AcDb2dPolyline
 66
     1
 10
0.0
 20
0.0
 30
0.0
  0
VERTEX
  5
A5EB
330
A5EA
100
AcDbEntity
  8
0
 62
     7
370
     0
100
AcDbVertex
100
AcDb2dVertex
 10
43367.33832244107
 20
-69611.46171201355
 30
0.0
  0
VERTEX
  5
A5EC
330
A5EA
100
AcDbEntity
  8
0
 62
     7
370
     0
100
AcDbVertex
100
AcDb2dVertex
 10
58941.71974379392
 20
-69611.46171201355
 30
0.0
  0
SEQEND
  5
A5ED
330
A5EA
100
AcDbEntity
  8
0
 62
     7
370
     0
  0
POLYLINE
  5
A5EE
330
A543
100
AcDbEntity
  8
0
 62
     7
370
     0
100
AcDb2dPolyline
 66
     1
 10
0.0
 20
0.0
 30
0.0
  0
VERTEX
  5
A5EF
330
A5EE
100
AcDbEntity
  8
0
 62
     7
370
     0
100
AcDbVertex
100
AcDb2dVertex
 10
0.0
 20
0.0
 30
0.0
  0
VERTEX
  5
A5F0
330
A5EE
100
AcDbEntity
  8
0
 62
     7
370
     0
100
AcDbVertex
100
AcDb2dVertex
 10
0.0
 20
-90950.94564845281
 30
0.0
  0
SEQEND
  5
A5F1
330
A5EE
100
AcDbEntity
  8
0
 62
     7
370
     0
  0
POLYLINE
  5
A5F2
330
A543
100
AcDbEntity
  8
0
 62
     7
370
     0
100
AcDb2dPolyline
 66
     1
 10
0.0
 20
0.0
 30
0.0
  0
VERTEX
  5
A5F3
330
A5F2
100
AcDbEntity
  8
0
 62
     7
370
     0
100
AcDbVertex
100
AcDb2dVertex
 10
4044.176391180021
 20
-68234.72081288843
 30
0.0
  0
VERTEX
  5
A5F4
330
A5F2
100
AcDbEntity
  8
0
 62
     7
370
     0
100
AcDbVertex
100
AcDb2dVertex
 10
4044.176391180021
 20
-72623.08242884974
 30
0.0
  0
SEQEND
  5
A5F5
330
A5F2
100
AcDbEntity
  8
0
 62
     7
370
     0
  0
POLYLINE
  5
A5F6
330
A543
100
AcDbEntity
  8
0
 62
     7
370
     0
100
AcDb2dPolyline
 66
     1
 10
0.0
 20
0.0
 30
0.0
  0
VERTEX
  5
A5F7
330
A5F6
100
AcDbEntity
  8
0
 62
     7
370
     0
100
AcDbVertex
100
AcDb2dVertex
 10
19618.55781253287
 20
-86.04630619531958
 30
0.0
  0
VERTEX
  5
A5F8
330
A5F6
100
AcDbEntity
  8
0
 62
     7
370
     0
100
AcDbVertex
100
AcDb2dVertex
 10
19618.55781253287
 20
-90950.94564845281
 30
0.0
  0
SEQEND
  5
A5F9
330
A5F6
100
AcDbEntity
  8
0
 62
     7
370
     0
  0
POLYLINE
  5
A5FA
330
A543
100
AcDbEntity
  8
0
 62
     7
370
     0
100
AcDb2dPolyline
 66
     1
 10
0.0
 20
0.0
 30
0.0
  0
VERTEX
  5
A5FB
330
A5FA
100
AcDbEntity
  8
0
 62
     7
370
     0
100
AcDbVertex
100
AcDb2dVertex
 10
23662.73420371289
 20
-68234.72081288843
 30
0.0
  0
VERTEX
  5
A5FC
330
A5FA
100
AcDbEntity
  8
0
 62
     7
370
     0
100
AcDbVertex
100
AcDb2dVertex
 10
23662.73420371289
 20
-72623.08242884974
 30
0.0
  0
SEQEND
  5
A5FD
330
A5FA
100
AcDbEntity
  8
0
 62
     7
370
     0
  0
POLYLINE
  5
A5FE
330
A543
100
AcDbEntity
  8
0
 62
     7
370
     0
100
AcDb2dPolyline
 66
     1
 10
0.0
 20
0.0
 30
0.0
  0
VERTEX
  5
A5FF
330
A5FE
100
AcDbEntity
  8
0
 62
     7
370
     0
100
AcDbVertex
100
AcDb2dVertex
 10
39237.11562506574
 20
-86.04630619531958
 30
0.0
  0
VERTEX
  5
A600
330
A5FE
100
AcDbEntity
  8
0
 62
     7
370
     0
100
AcDbVertex
100
AcDb2dVertex
 10
39237.11562506574
 20
-90950.94564845281
 30
0.0
  0
SEQEND
  5
A601
330
A5FE
100
AcDbEntity
  8
0
 62
     7
370
     0
  0
POLYLINE
  5
A602
330
A543
100
AcDbEntity
  8
0
 62
     7
370
     0
100
AcDb2dPolyline
 66
     1
 10
0.0
 20
0.0
 30
0.0
  0
VERTEX
  5
A603
330
A602
100
AcDbEntity
  8
0
 62
     7
370
     0
100
AcDbVertex
100
AcDb2dVertex
 10
43281.29201624575
 20
-68234.72081288843
 30
0.0
  0
VERTEX
  5
A604
330
A602
100
AcDbEntity
  8
0
 62
     7
370
     0
100
AcDbVertex
100
AcDb2dVertex
 10
43281.29201624575
 20
-72623.08242884974
 30
0.0
  0
SEQEND
  5
A605
330
A602
100
AcDbEntity
  8
0
 62
     7
370
     0
  0
POLYLINE
  5
A606
330
A543
100
AcDbEntity
  8
0
 62
     7
370
     0
100
AcDb2dPolyline
 66
     1
 10
0.0
 20
0.0
 30
0.0
  0
VERTEX
  5
A607
330
A606
100
AcDbEntity
  8
0
 62
     7
370
     0
100
AcDbVertex
100
AcDb2dVertex
 10
58855.6734375986
 20
-86.04630619531958
 30
0.0
  0
VERTEX
  5
A608
330
A606
100
AcDbEntity
  8
0
 62
     7
370
     0
100
AcDbVertex
100
AcDb2dVertex
 10
58855.6734375986
 20
-90950.94564845281
 30
0.0
  0
SEQEND
  5
A609
330
A606
100
AcDbEntity
  8
0
 62
     7
370
     0
  0
POLYLINE
  5
A60A
330
A543
100
AcDbEntity
  8
0
 62
     7
370
     0
100
AcDb2dPolyline
 66
     1
 10
0.0
 20
0.0
 30
0.0
  0
VERTEX
  5
A60B
330
A60A
100
AcDbEntity
  8
0
 62
     7
370
     0
100
AcDbVertex
100
AcDb2dVertex
 10
62899.84982877862
 20
-68234.72081288843
 30
0.0
  0
VERTEX
  5
A60C
330
A60A
100
AcDbEntity
  8
0
 62
     7
370
     0
100
AcDbVertex
100
AcDb2dVertex
 10
62899.84982877862
 20
-72623.08242884974
 30
0.0
  0
SEQEND
  5
A60D
330
A60A
100
AcDbEntity
  8
0
 62
     7
370
     0
  0
POLYLINE
  5
A60E
330
A543
100
AcDbEntity
  8
0
 62
     7
370
     0
100
AcDb2dPolyline
 66
     1
 10
0.0
 20
0.0
 30
0.0
  0
VERTEX
  5
A60F
330
A60E
100
AcDbEntity
  8
0
 62
     7
370
     0
100
AcDbVertex
100
AcDb2dVertex
 10
78474.23125013147
 20
-86.04630619531958
 30
0.0
  0
VERTEX
  5
A610
330
A60E
100
AcDbEntity
  8
0
 62
     7
370
     0
100
AcDbVertex
100
AcDb2dVertex
 10
78474.23125013147
 20
-90950.94564845281
 30
0.0
  0
SEQEND
  5
A611
330
A60E
100
AcDbEntity
  8
0
 62
     7
370
     0
  0
POLYLINE
  5
A612
330
A543
100
AcDbEntity
  8
0
 62
     7
370
     0
100
AcDb2dPolyline
 66
     1
 10
0.0
 20
0.0
 30
0.0
  0
VERTEX
  5
A613
330
A612
100
AcDbEntity
  8
0
 62
     7
370
     0
100
AcDbVertex
100
AcDb2dVertex
 10
86.04630619531958
 20
0.0
 30
0.0
  0
VERTEX
  5
A614
330
A612
100
AcDbEntity
  8
0
 62
     7
370
     0
100
AcDbVertex
100
AcDb2dVertex
 10
78560.2775563268
 20
0.0
 30
0.0
  0
SEQEND
  5
A615
330
A612
100
AcDbEntity
  8
0
 62
     7
370
     0
  0
POLYLINE
  5
A616
330
A543
100
AcDbEntity
  8
0
 62
     7
370
     0
100
AcDb2dPolyline
 66
     1
 10
0.0
 20
0.0
 30
0.0
  0
VERTEX
  5
A617
330
A616
100
AcDbEntity
  8
0
 62
     7
370
     0
100
AcDbVertex
100
AcDb2dVertex
 10
62985.89613497393
 20
-1462.787205320433
 30
0.0
  0
VERTEX
  5
A618
330
A616
100
AcDbEntity
  8
0
 62
     7
370
     0
100
AcDbVertex
100
AcDb2dVertex
 10
78560.2775563268
 20
-1462.787205320433
 30
0.0
  0
SEQEND
  5
A619
330
A616
100
AcDbEntity
  8
0
 62
     7
370
     0
  0
POLYLINE
  5
A61A
330
A543
100
AcDbEntity
  8
0
 62
     7
370
     0
100
AcDb2dPolyline
 66
     1
 10
0.0
 20
0.0
 30
0.0
  0
VERTEX
  5
A61B
330
A61A
100
AcDbEntity
  8
0
 62
     7
370
     0
100
AcDbVertex
100
AcDb2dVertex
 10
86.04630619531958
 20
-4388.361615961299
 30
0.0
  0
VERTEX
  5
A61C
330
A61A
100
AcDbEntity
  8
0
 62
     7
370
     0
100
AcDbVertex
100
AcDb2dVertex
 10
78560.2775563268
 20
-4388.361615961299
 30
0.0
  0
SEQEND
  5
A61D
330
A61A
100
AcDbEntity
  8
0
 62
     7
370
     0
  0
POLYLINE
  5
A61E
330
A543
100
AcDbEntity
  8
0
 62
     7
370
     0
100
AcDb2dPolyline
 66
     1
 10
0.0
 20
0.0
 30
0.0
  0
VERTEX
  5
A61F
330
A61E
100
AcDbEntity
  8
0
 62
     7
370
     0
100
AcDbVertex
100
AcDb2dVertex
 10
86.04630619531958
 20
-22716.22483556437
 30
0.0
  0
VERTEX
  5
A620
330
A61E
100
AcDbEntity
  8
0
 62
     7
370
     0
100
AcDbVertex
100
AcDb2dVertex
 10
78560.2775563268
 20
-22716.22483556437
 30
0.0
  0
SEQEND
  5
A621
330
A61E
100
AcDbEntity
  8
0
 62
     7
370
     0
  0
POLYLINE
  5
A622
330
A543
100
AcDbEntity
  8
0
 62
     7
370
     0
100
AcDb2dPolyline
 66
     1
 10
0.0
 20
0.0
 30
0.0
  0
VERTEX
  5
A623
330
A622
100
AcDbEntity
  8
0
 62
     7
370
     0
100
AcDbVertex
100
AcDb2dVertex
 10
62985.89613497393
 20
-24179.0120408848
 30
0.0
  0
VERTEX
  5
A624
330
A622
100
AcDbEntity
  8
0
 62
     7
370
     0
100
AcDbVertex
100
AcDb2dVertex
 10
78560.2775563268
 20
-24179.0120408848
 30
0.0
  0
SEQEND
  5
A625
330
A622
100
AcDbEntity
  8
0
 62
     7
370
     0
  0
POLYLINE
  5
A626
330
A543
100
AcDbEntity
  8
0
 62
     7
370
     0
100
AcDb2dPolyline
 66
     1
 10
0.0
 20
0.0
 30
0.0
  0
VERTEX
  5
A627
330
A626
100
AcDbEntity
  8
0
 62
     7
370
     0
100
AcDbVertex
100
AcDb2dVertex
 10
86.04630619531958
 20
-27104.58645152567
 30
0.0
  0
VERTEX
  5
A628
330
A626
100
AcDbEntity
  8
0
 62
     7
370
     0
100
AcDbVertex
100
AcDb2dVertex
 10
78560.2775563268
 20
-27104.58645152567
 30
0.0
  0
SEQEND
  5
A629
330
A626
100
AcDbEntity
  8
0
 62
     7
370
     0
  0
POLYLINE
  5
A62A
330
A543
100
AcDbEntity
  8
0
 62
     7
370
     0
100
AcDb2dPolyline
 66
     1
 10
0.0
 20
0.0
 30
0.0
  0
VERTEX
  5
A62B
330
A62A
100
AcDbEntity
  8
0
 62
     7
370
     0
100
AcDbVertex
100
AcDb2dVertex
 10
86.04630619531958
 20
-45432.44967112874
 30
0.0
  0
VERTEX
  5
A62C
330
A62A
100
AcDbEntity
  8
0
 62
     7
370
     0
100
AcDbVertex
100
AcDb2dVertex
 10
78560.2775563268
 20
-45432.44967112874
 30
0.0
  0
SEQEND
  5
A62D
330
A62A
100
AcDbEntity
  8
0
 62
     7
370
     0
  0
POLYLINE
  5
A62E
330
A543
100
AcDbEntity
  8
0
 62
     7
370
     0
100
AcDb2dPolyline
 66
     1
 10
0.0
 20
0.0
 30
0.0
  0
VERTEX
  5
A62F
330
A62E
100
AcDbEntity
  8
0
 62
     7
370
     0
100
AcDbVertex
100
AcDb2dVertex
 10
62985.89613497393
 20
-46895.23687644918
 30
0.0
  0
VERTEX
  5
A630
330
A62E
100
AcDbEntity
  8
0
 62
     7
370
     0
100
AcDbVertex
100
AcDb2dVertex
 10
78560.2775563268
 20
-46895.23687644918
 30
0.0
  0
SEQEND
  5
A631
330
A62E
100
AcDbEntity
  8
0
 62
     7
370
     0
  0
POLYLINE
  5
A632
330
A543
100
AcDbEntity
  8
0
 62
     7
370
     0
100
AcDb2dPolyline
 66
     1
 10
0.0
 20
0.0
 30
0.0
  0
VERTEX
  5
A633
330
A632
100
AcDbEntity
  8
0
 62
     7
370
     0
100
AcDbVertex
100
AcDb2dVertex
 10
86.04630619531958
 20
-49820.81128709004
 30
0.0
  0
VERTEX
  5
A634
330
A632
100
AcDbEntity
  8
0
 62
     7
370
     0
100
AcDbVertex
100
AcDb2dVertex
 10
78560.2775563268
 20
-49820.81128709004
 30
0.0
  0
SEQEND
  5
A635
330
A632
100
AcDbEntity
  8
0
 62
     7
370
     0
  0
POLYLINE
  5
A636
330
A543
100
AcDbEntity
  8
0
 62
     7
370
     0
100
AcDb2dPolyline
 66
     1
 10
0.0
 20
0.0
 30
0.0
  0
VERTEX
  5
A637
330
A636
100
AcDbEntity
  8
0
 62
     7
370
     0
100
AcDbVertex
100
AcDb2dVertex
 10
86.04630619531958
 20
-68148.67450669312
 30
0.0
  0
VERTEX
  5
A638
330
A636
100
AcDbEntity
  8
0
 62
     7
370
     0
100
AcDbVertex
100
AcDb2dVertex
 10
78560.2775563268
 20
-68148.67450669312
 30
0.0
  0
SEQEND
  5
A639
330
A636
100
AcDbEntity
  8
0
 62
     7
370
     0
  0
POLYLINE
  5
A63A
330
A543
100
AcDbEntity
  8
0
 62
     7
370
     0
100
AcDb2dPolyline
 66
     1
 10
0.0
 20
0.0
 30
0.0
  0
VERTEX
  5
A63B
330
A63A
100
AcDbEntity
  8
0
 62
     7
370
     0
100
AcDbVertex
100
AcDb2dVertex
 10
62985.89613497393
 20
-69611.46171201355
 30
0.0
  0
VERTEX
  5
A63C
330
A63A
100
AcDbEntity
  8
0
 62
     7
370
     0
100
AcDbVertex
100
AcDb2dVertex
 10
78560.2775563268
 20
-69611.46171201355
 30
0.0
  0
SEQEND
  5
A63D
330
A63A
100
AcDbEntity
  8
0
 62
     7
370
     0
  0
POLYLINE
  5
A63E
330
A543
100
AcDbEntity
  8
0
 62
     7
370
     0
100
AcDb2dPolyline
 66
     1
 10
0.0
 20
0.0
 30
0.0
  0
VERTEX
  5
A63F
330
A63E
100
AcDbEntity
  8
0
 62
     7
370
     0
100
AcDbVertex
100
AcDb2dVertex
 10
86.04630619531958
 20
-72537.03612265442
 30
0.0
  0
VERTEX
  5
A640
330
A63E
100
AcDbEntity
  8
0
 62
     7
370
     0
100
AcDbVertex
100
AcDb2dVertex
 10
78560.2775563268
 20
-72537.03612265442
 30
0.0
  0
SEQEND
  5
A641
330
A63E
100
AcDbEntity
  8
0
 62
     7
370
     0
  0
POLYLINE
  5
A642
330
A543
100
AcDbEntity
  8
0
 62
     7
370
     0
100
AcDb2dPolyline
 66
     1
 10
0.0
 20
0.0
 30
0.0
  0
VERTEX
  5
A643
330
A642
100
AcDbEntity
  8
0
 62
     7
370
     0
100
AcDbVertex
100
AcDb2dVertex
 10
86.04630619531958
 20
-90864.89934225749
 30
0.0
  0
VERTEX
  5
A644
330
A642
100
AcDbEntity
  8
0
 62
     7
370
     0
100
AcDbVertex
100
AcDb2dVertex
 10
78560.2775563268
 20
-90864.89934225749
 30
0.0
  0
SEQEND
  5
A645
330
A642
100
AcDbEntity
  8
0
 62
     7
370
     0
  0
ENDBLK
  5
A646
330
A543
100
AcDbEntity
  8
0
 62
     7
370
     0
100
AcDbBlockEnd
  0
BLOCK
  5
1384F
330
1384E
100
AcDbEntity
  8
0
 62
     7
100
AcDbBlockBegin
  2
_Open
 70
     0
 10
0.0
 20
0.0
 30
0.0
  3
_Open
  1

  0
LINE
  5
13850
330
1384E
100
AcDbEntity
  8
0
  6
ByBlock
 62
     0
370
    -2
100
AcDbLine
 10
-1.0
 20
0.1666666666666666
 30
0.0
 11
0.0
 21
0.0
 31
0.0
  0
LINE
  5
13851
330
1384E
100
AcDbEntity
  8
0
  6
ByBlock
 62
     0
370
    -2
100
AcDbLine
 10
-1.0
 20
-0.1666666666666666
 30
0.0
 11
0.0
 21
0.0
 31
0.0
  0
LINE
  5
13852
330
1384E
100
AcDbEntity
  8
0
  6
ByBlock
 62
     0
370
    -2
100
AcDbLine
 10
0.0
 20
0.0
 30
0.0
 11
-1.0
 21
0.0
 31
0.0
  0
ENDBLK
  5
13853
330
1384E
100
AcDbEntity
  8
0
 62
     7
100
AcDbBlockEnd
  0
ENDSEC
  0
SECTION
  2
ENTITIES
  0
TEXT
  5
100D6
330
1F07
100
AcDbEntity
  8
0
 62
     7
100
AcDbText
 10
9484.11852929061
 20
-24879.77389569596
 30
0.0
 40
299.9999947731441
  1
 
  7
WMF-ＭＳ Ｐゴシック0
100
AcDbText
  0
TEXT
  5
1010D
330
1F07
100
AcDbEntity
  8
0
 62
     7
100
AcDbText
 10
9354.310854694494
 20
-24951.88927243347
 30
0.0
 40
299.9999983045655
  1
 
  7
WMF-ＭＳ Ｐゴシック0
100
AcDbText
  0
TEXT
  5
1010E
330
1F07
100
AcDbEntity
  8
0
 62
     7
100
AcDbText
 10
9354.310854694523
 20
-24925.10355829914
 30
0.0
 40
299.9999983045655
  1
 
  7
WMF-ＭＳ Ｐゴシック0
100
AcDbText
  0
TEXT
  5
1010F
330
1F07
100
AcDbEntity
  8
0
 62
     7
100
AcDbText
 10
9444.777613635562
 20
-24776.65308778131
 30
0.0
 40
278.5714109022594
  1
 
  7
WMF-ＭＳ Ｐゴシック0
100
AcDbText
  0
LINE
  5
10814
330
1F07
100
AcDbEntity
  8
器具
100
AcDbLine
 10
11179.95064038225
 20
-22772.36758161377
 30
0.0
 11
11396.00438089112
 21
-22762.64887429602
 31
0.0
  0
SPLINE
  5
10815
330
1F07
100
AcDbEntity
  8
器具
100
AcDbSpline
210
0.0
220
0.0
230
1.0
 70
     8
 71
     3
 72
    14
 73
    10
 74
     0
 42
0.0000000001
 43
0.0000000001
 40
0.809194188741605
 40
0.809194188741605
 40
0.809194188741605
 40
0.809194188741605
 40
3.681783636674683
 40
9.809532868938108
 40
12.18637375453786
 40
16.51484699573498
 40
21.85020085226201
 40
26.95574795628858
 40
27.17816334632308
 40
27.17816334632308
 40
27.17816334632308
 40
27.17816334632308
 10
11240.74750580166
 20
-22172.78805536614
 30
0.0
 10
11239.8320896648
 20
-22178.44315218831
 30
0.0
 10
11236.91629337523
 20
-22196.2997179557
 30
0.0
 10
11232.37211134122
 20
-22221.36110913941
 30
0.0
 10
11248.62880463903
 20
-22242.55807483654
 30
0.0
 10
11268.09038774467
 20
-22258.03118822411
 30
0.0
 10
11297.32346349055
 20
-22264.79855247637
 30
0.0
 10
11319.59283114305
 20
-22268.76156964384
 30
0.0
 10
11329.84213746182
 20
-22266.09726286127
 30
0.0
 10
11330.26859394428
 20
-22265.97863281244
 30
0.0
  0
SPLINE
  5
10816
330
1F07
100
AcDbEntity
  8
器具
100
AcDbSpline
210
0.0
220
0.0
230
1.0
 70
     8
 71
     3
 72
    16
 73
    12
 74
     0
 42
0.0000000001
 43
0.0000000001
 40
0.7358824052975514
 40
0.7358824052975514
 40
0.7358824052975514
 40
0.7358824052975514
 40
2.09569348410375
 40
5.389424770263186
 40
6.702268602835339
 40
7.771828284468006
 40
8.538699224420982
 40
10.61517770169116
 40
16.52203905896427
 40
21.02898808272243
 40
25.64046632496478
 40
25.64046632496478
 40
25.64046632496478
 40
25.64046632496478
 10
11325.27486887163
 20
-22245.74675712009
 30
0.0
 10
11322.58114222637
 20
-22246.38811180905
 30
0.0
 10
11313.32997109724
 20
-22248.04975646385
 30
0.0
 10
11301.06021056626
 20
-22243.51762831703
 30
0.0
 10
11292.01262354806
 20
-22236.75986208202
 30
0.0
 10
11287.8780512078
 20
-22231.25439597092
 30
0.0
 10
11289.39512118911
 20
-22222.86152754767
 30
0.0
 10
11305.91366988714
 20
-22212.77023193965
 30
0.0
 10
11330.66552072759
 20
-22209.21797654343
 30
0.0
 10
11361.10767222838
 20
-22207.71799675193
 30
0.0
 10
11379.51898980266
 20
-22208.42379605809
 30
0.0
 10
11388.83017778884
 20
-22208.78074118141
 30
0.0
  0
SPLINE
  5
10817
330
1F07
100
AcDbEntity
  8
器具
100
AcDbSpline
210
0.0
220
0.0
230
1.0
 70
     8
 71
     3
 72
    12
 73
     8
 74
     0
 42
0.0000000001
 43
0.0000000001
 40
0.0
 40
0.0
 40
0.0
 40
0.0
 40
4.862816347335211
 40
11.00263790684212
 40
17.42909313997249
 40
22.15931697567567
 40
26.2100767402579
 40
26.2100767402579
 40
26.2100767402579
 40
26.2100767402579
 10
11379.88613259993
 20
-22175.29982829505
 30
0.0
 10
11370.08936537042
 20
-22174.84895595293
 30
0.0
 10
11347.9231401251
 20
-22173.82880944327
 30
0.0
 10
11312.26758772005
 20
-22173.53213421989
 30
0.0
 10
11279.08319808866
 20
-22185.11679485541
 30
0.0
 10
11250.78279745617
 20
-22199.18951119055
 30
0.0
 10
11240.7388714689
 20
-22214.060706572
 30
0.0
 10
11236.27130819975
 20
-22221.0985538777
 30
0.0
  0
SPLINE
  5
10818
330
1F07
100
AcDbEntity
  8
器具
100
AcDbSpline
210
0.0
220
0.0
230
1.0
 70
     8
 71
     3
 72
    12
 73
     8
 74
     6
 42
0.0000000001
 43
0.0000000001
 44
0.0000000001
 40
0.0
 40
0.0
 40
0.0
 40
0.0
 40
35.38954169327796
 40
67.86151503035913
 40
104.5947080931888
 40
134.5470303456114
 40
158.5725159689723
 40
158.5725159689723
 40
158.5725159689723
 40
158.5725159689723
 10
11390.34357570374
 20
-22342.17968386959
 30
0.0
 10
11381.01372269736
 20
-22334.92482020274
 30
0.0
 10
11363.12318414471
 20
-22321.01319501024
 30
0.0
 10
11340.8711330947
 20
-22293.59691700614
 30
0.0
 10
11327.76557418801
 20
-22263.00400220649
 30
0.0
 10
11323.69121137305
 20
-22231.83092776915
 30
0.0
 10
11310.73329949438
 20
-22218.71245222239
 30
0.0
 10
11304.9657417183
 20
-22212.87342766669
 30
0.0
 11
11390.34357570374
 21
-22342.17968386959
 31
0.0
 11
11363.29317349346
 21
-22319.36093277488
 31
0.0
 11
11343.00537183513
 21
-22294.00675843856
 31
0.0
 11
11328.6348516899
 21
-22260.20120233684
 31
0.0
 11
11320.18159698067
 21
-22231.46648303886
 31
0.0
 11
11304.9657417183
 21
-22212.87342766669
 31
0.0
  0
LINE
  5
10819
330
1F07
100
AcDbEntity
  8
器具
100
AcDbLine
 10
11179.95064038225
 20
-23280.27128478213
 30
0.0
 11
11737.72562039122
 21
-23221.38671474904
 31
0.0
  0
ELLIPSE
  5
1081A
330
1F07
100
AcDbEntity
  8
器具
100
AcDbEllipse
 10
11179.9506403823
 20
-23026.31943319777
 30
0.0
 11
-6.31920272716739
 21
254.1703136558192
 31
0.0
210
0.0
220
0.0
230
1.0
 40
0.4569743823837534
 41
2.417439156988895
 42
7.018408619931708
  0
SPLINE
  5
1081B
330
1F07
100
AcDbEntity
  8
器具
100
AcDbSpline
210
0.0
220
0.0
230
1.0
 70
     8
 71
     3
 72
    42
 73
    38
 74
     0
 42
0.0000000001
 43
0.0000000001
 40
0.0
 40
0.0
 40
0.0
 40
0.0
 40
1.682832691638658
 40
1.682832691638658
 40
5.048498074915975
 40
5.048498074915975
 40
8.376355733904166
 40
8.376355733904166
 40
11.70421339289235
 40
11.70421339289235
 40
15.60750365089364
 40
15.60750365089364
 40
19.51079390889493
 40
19.51079390889493
 40
23.60306071441507
 40
23.60306071441507
 40
27.69532751993521
 40
27.69532751993521
 40
35.87986113097549
 40
35.87986113097549
 40
42.55425005454338
 40
42.55425005454338
 40
45.73573090111498
 40
45.73573090111498
 40
48.41456476408815
 40
48.41456476408815
 40
51.09339862706133
 40
51.09339862706133
 40
53.39923647079328
 40
53.39923647079328
 40
55.17712053764377
 40
55.17712053764377
 40
56.95500460449427
 40
56.95500460449427
 40
58.73288867134475
 40
58.73288867134475
 40
59.81385192168422
 40
59.81385192168422
 40
59.81385192168422
 40
59.81385192168422
 10
11157.73795229439
 20
-22386.22494171564
 30
0.0
 10
11157.92702359835
 20
-22382.82628467804
 30
0.0
 10
11158.1156363011
 20
-22379.43620013824
 30
0.0
 10
11158.72295104559
 20
-22369.29660898438
 30
0.0
 10
11159.18334962147
 20
-22362.57781331242
 30
0.0
 10
11160.43139998296
 20
-22349.32297281587
 30
0.0
 10
11161.23540371318
 20
-22342.78742260782
 30
0.0
 10
11163.23189849955
 20
-22329.7163331793
 30
0.0
 10
11164.41252755761
 20
-22323.1944477737
 30
0.0
 10
11167.304702989
 20
-22309.05494350391
 30
0.0
 10
11169.06888913748
 20
-22301.42661715567
 30
0.0
 10
11172.9228674598
 20
-22286.29662089838
 30
0.0
 10
11175.03320677828
 20
-22278.8126539296
 30
0.0
 10
11179.95383722637
 20
-22263.77214137745
 30
0.0
 10
11182.79213620426
 20
-22256.24079357057
 30
0.0
 10
11189.35949062579
 20
-22241.56979195723
 30
0.0
 10
11193.07732781847
 20
-22234.40651229384
 30
0.0
 10
11205.36152596642
 20
-22213.53272062703
 30
0.0
 10
11215.05476473241
 20
-22200.46627599657
 30
0.0
 10
11234.58515138314
 20
-22178.48671308114
 30
0.0
 10
11244.06426766493
 20
-22169.29324403536
 30
0.0
 10
11258.80847979072
 20
-22156.35675460078
 30
0.0
 10
11263.68106791402
 20
-22152.27621946771
 30
0.0
 10
11272.8173894973
 20
-22144.87794335559
 30
0.0
 10
11277.06093814193
 20
-22141.53707635528
 30
0.0
 10
11285.61892386772
 20
-22134.92701232544
 30
0.0
 10
11289.86693556664
 20
-22131.72341440364
 30
0.0
 10
11297.89373695522
 20
-22126.37196151824
 30
0.0
 10
11301.65370982114
 20
-22124.13965693233
 30
0.0
 10
11308.50225842393
 20
-22120.8368308021
 30
0.0
 10
11311.59739370559
 20
-22119.60333195413
 30
0.0
 10
11318.00409996187
 20
-22117.45784817906
 30
0.0
 10
11321.29583922282
 20
-22116.5533555551
 30
0.0
 10
11327.99622953857
 20
-22115.00266235532
 30
0.0
 10
11331.41771570042
 20
-22114.34960517867
 30
0.0
 10
11337.01303861273
 20
-22113.36963650029
 30
0.0
 10
11339.15010444046
 20
-22113.01510714944
 30
0.0
 10
11341.3051684999
 20
-22112.6576760662
 30
0.0
  0
SPLINE
  5
1081C
330
1F07
100
AcDbEntity
  8
器具
100
AcDbSpline
210
0.0
220
0.0
230
1.0
 70
     8
 71
     3
 72
    16
 73
    12
 74
    10
 42
0.0000000001
 43
0.0000000001
 44
0.0000000001
 40
0.0
 40
0.0
 40
0.0
 40
0.0
 40
37.36300496717827
 40
88.91765865600515
 40
139.2766426440357
 40
183.4524875210579
 40
229.9585853060534
 40
292.9611368531706
 40
324.8795945209676
 40
343.3353936668054
 40
362.62623550948
 40
362.62623550948
 40
362.62623550948
 40
362.62623550948
 10
11151.68473234603
 20
-22385.88819394259
 30
0.0
 10
11152.37715142642
 20
-22373.44159348305
 30
0.0
 10
11154.02499221149
 20
-22343.82078080856
 30
0.0
 10
11162.87801191794
 20
-22298.13980070134
 30
0.0
 10
11176.57431548826
 20
-22251.16242407534
 30
0.0
 10
11199.57324319682
 20
-22209.77042954551
 30
0.0
 10
11232.43213432428
 20
-22170.06886626847
 30
0.0
 10
11268.63870649611
 20
-22139.90423234078
 30
0.0
 10
11299.2762287144
 20
-22117.08340894891
 30
0.0
 10
11321.5566869307
 20
-22109.78768777886
 30
0.0
 10
11333.9694971362
 20
-22107.72894424466
 30
0.0
 10
11340.31320222429
 20
-22106.67680040158
 30
0.0
 11
11151.68473234603
 21
-22385.88819394259
 31
0.0
 11
11154.46898646251
 21
-22348.62907332505
 31
0.0
 11
11163.74132384527
 21
-22297.91510999704
 31
0.0
 11
11179.01341367497
 21
-22249.92771018688
 31
0.0
 11
11200.28523987481
 21
-22211.21059923161
 31
0.0
 11
11229.73855252961
 21
-22175.22005179417
 31
0.0
 11
11277.19109037142
 21
-22133.77637732124
 31
0.0
 11
11303.91723551519
 21
-22116.32641727415
 31
0.0
 11
11321.37104327731
 21
-22110.32799108769
 31
0.0
 11
11340.31320222429
 21
-22106.67680040158
 31
0.0
  0
LINE
  5
1081D
330
1F07
100
AcDbEntity
  8
器具
100
AcDbLine
 10
11157.73795229429
 20
-22386.22494171576
 30
0.0
 11
11157.73795229429
 21
-22774.95471425367
 31
0.0
  0
LINE
  5
1081E
330
1F07
100
AcDbEntity
  8
器具
100
AcDbLine
 10
11278.69270442687
 20
-22327.92953498057
 30
0.0
 11
11278.69270442687
 21
-22767.92588475575
 31
0.0
  0
LINE
  5
1081F
330
1F07
100
AcDbEntity
  8
器具
100
AcDbLine
 10
11151.68473234603
 20
-22777.3247584471
 30
0.0
 11
11151.68473234603
 21
-22385.88819394261
 31
0.0
  0
SPLINE
  5
10820
330
1F07
100
AcDbEntity
  8
器具
100
AcDbSpline
210
0.0
220
0.0
230
1.0
 70
     8
 71
     3
 72
    49
 73
    45
 74
     0
 42
0.0000000001
 43
0.0000000001
 40
2.432546509072678
 40
2.432546509072678
 40
2.432546509072678
 40
2.432546509072678
 40
2.533651988734123
 40
2.533651988734123
 40
2.755409173947485
 40
2.755409173947485
 40
2.977166359160846
 40
2.977166359160846
 40
3.198923544374208
 40
3.198923544374208
 40
3.42068072958757
 40
3.42068072958757
 40
3.642437914800932
 40
3.642437914800932
 40
3.864195100014293
 40
3.864195100014293
 40
4.085952285227655
 40
4.085952285227655
 40
4.307709470441017
 40
4.307709470441017
 40
4.529466655654379
 40
4.529466655654379
 40
4.840699105112594
 40
4.840699105112594
 40
5.151931554570808
 40
5.151931554570808
 40
5.463164004029022
 40
5.463164004029022
 40
5.712485651341908
 40
5.712485651341908
 40
5.961807298654794
 40
5.961807298654794
 40
6.157328776533902
 40
6.157328776533902
 40
6.283185307179586
 40
6.283185307179586
 40
6.283185307179586
 40
6.515601381808931
 40
6.515601381808931
 40
6.748017456438275
 40
6.748017456438275
 40
6.98043353106762
 40
6.98043353106762
 40
6.99965981901228
 40
6.99965981901228
 40
6.99965981901228
 40
6.99965981901228
 10
11114.40161921089
 20
-23218.12464138464
 30
0.0
 10
11117.42606389116
 20
-23223.47997919613
 30
0.0
 10
11120.55806097741
 20
-23228.49715163135
 30
0.0
 10
11130.84324602931
 20
-23243.34123291563
 30
0.0
 10
11138.32993173697
 20
-23251.76373237957
 30
0.0
 10
11153.61468821831
 20
-23264.69747282971
 30
0.0
 10
11161.39720863053
 20
-23269.2042436139
 30
0.0
 10
11176.8015637351
 20
-23274.36786312659
 30
0.0
 10
11184.4229825616
 20
-23275.05709888181
 30
0.0
 10
11199.59699430165
 20
-23272.76690719461
 30
0.0
 10
11207.18474910665
 20
-23269.76540983914
 30
0.0
 10
11222.16421778164
 20
-23259.8447369332
 30
0.0
 10
11229.53414791171
 20
-23252.91545751666
 30
0.0
 10
11243.49712555003
 20
-23235.31825957612
 30
0.0
 10
11250.08499660844
 20
-23224.658001757
 30
0.0
 10
11262.02385036579
 20
-23200.15087013644
 30
0.0
 10
11267.37552512723
 20
-23186.30708694499
 30
0.0
 10
11276.52227136172
 20
-23156.15394931941
 30
0.0
 10
11280.3177889723
 20
-23139.84608375379
 30
0.0
 10
11286.14152539677
 20
-23105.59723177163
 30
0.0
 10
11288.16984574077
 20
-23087.65757699342
 30
0.0
 10
11290.78951288744
 20
-23043.66546341541
 30
0.0
 10
11290.46294295689
 20
-23017.26279353108
 30
0.0
 10
11286.1275281242
 20
-22965.61595872233
 30
0.0
 10
11282.11893290872
 20
-22940.3794438916
 30
0.0
 10
11270.83461359751
 20
-22893.56219063451
 30
0.0
 10
11263.55844643475
 20
-22871.98877755625
 30
0.0
 10
11248.2294509363
 20
-22838.37805001133
 30
0.0
 10
11240.62171697988
 20
-22825.29714768905
 30
0.0
 10
11224.43643732211
 20
-22803.71625797229
 30
0.0
 10
11215.86290905636
 20
-22795.2272480867
 30
0.0
 10
11200.40034009117
 20
-22784.54030784363
 30
0.0
 10
11193.55920237275
 20
-22781.37267955629
 30
0.0
 10
11182.43105336332
 20
-22778.58740303801
 30
0.0
 10
11178.09843788253
 20
-22778.10251359522
 30
0.0
 10
11173.78211943108
 20
-22778.20982625079
 30
0.0
 10
11165.81128322397
 20
-22778.40799782022
 30
0.0
 10
11157.86374915633
 20
-22780.61976714347
 30
0.0
 10
11142.07628654829
 20
-22789.30130866843
 30
0.0
 10
11134.2585008898
 20
-22795.79666422876
 30
0.0
 10
11119.37466654783
 20
-22812.96867058562
 30
0.0
 10
11112.31866486856
 20
-22823.63552263433
 30
0.0
 10
11105.38863488443
 20
-22837.12467565495
 30
0.0
 10
11104.86363884941
 20
-22838.16752092844
 30
0.0
 10
11104.34323155311
 20
-22839.22236795105
 30
0.0
  0
SPLINE
  5
10821
330
1F07
100
AcDbEntity
  8
器具
100
AcDbSpline
210
0.0
220
0.0
230
1.0
 70
     8
 71
     3
 72
    14
 73
    10
 74
     0
 42
0.0000000001
 43
0.0000000001
 40
0.0
 40
0.0
 40
0.0
 40
0.0
 40
1.682832691638658
 40
1.682832691638658
 40
5.048498074915975
 40
5.048498074915975
 40
8.376355733904166
 40
8.376355733904166
 40
11.09676443291831
 40
11.09676443291831
 40
11.09676443291831
 40
11.09676443291831
 10
11278.69270442692
 20
-22327.92953498049
 30
0.0
 10
11278.88177573089
 20
-22324.5308779429
 30
0.0
 10
11279.07038843363
 20
-22321.1407934031
 30
0.0
 10
11279.67770317813
 20
-22311.00120224904
 30
0.0
 10
11280.1381017541
 20
-22304.28240657727
 30
0.0
 10
11281.38615211559
 20
-22291.02756608071
 30
0.0
 10
11282.19015584581
 20
-22284.49201587248
 30
0.0
 10
11284.00443600525
 20
-22272.61388907811
 30
0.0
 10
11284.94234527963
 20
-22267.28043482852
 30
0.0
 10
11285.9846513491
 20
-22261.95668919263
 30
0.0
  0
SPLINE
  5
10822
330
1F07
100
AcDbEntity
  8
器具
100
AcDbSpline
210
0.0
220
0.0
230
1.0
 70
     8
 71
     3
 72
    19
 73
    15
 74
     0
 42
0.0000000001
 43
0.0000000001
 40
2.834580116820505
 40
2.834580116820505
 40
2.834580116820505
 40
2.834580116820505
 40
10.2760443786197
 40
20.42062489552686
 40
31.62986796953672
 40
37.52839821498113
 40
40.6427546130492
 40
44.54990421555176
 40
53.59998503556105
 40
62.11176045471724
 40
71.66848567368734
 40
78.72707549950672
 40
88.61923618893724
 40
94.48541642774285
 40
94.48541642774285
 40
94.48541642774285
 40
94.48541642774285
 10
11581.97281155075
 20
-22436.57853392468
 30
0.0
 10
11596.09810958413
 20
-22441.85355802465
 30
0.0
 10
11629.6793816011
 20
-22453.54248372062
 30
0.0
 10
11687.46592539975
 20
-22461.77809274004
 30
0.0
 10
11741.04261669889
 20
-22476.01262214457
 30
0.0
 10
11780.76688798458
 20
-22482.62343476546
 30
0.0
 10
11806.41676555199
 20
-22493.06255148353
 30
0.0
 10
11817.68618021816
 20
-22525.57103735741
 30
0.0
 10
11839.67799142059
 20
-22563.53181056863
 30
0.0
 10
11834.70970234809
 20
-22619.75446718442
 30
0.0
 10
11836.60284073848
 20
-22671.24763955921
 30
0.0
 10
11812.754280761
 20
-22720.20721151287
 30
0.0
 10
11799.72803354673
 20
-22764.6708251007
 30
0.0
 10
11783.13510226558
 20
-22791.85819449621
 30
0.0
 10
11776.6184388557
 20
-22801.8214274269
 30
0.0
  0
SPLINE
  5
10823
330
1F07
100
AcDbEntity
  8
器具
100
AcDbSpline
210
0.0
220
0.0
230
1.0
 70
     8
 71
     3
 72
    19
 73
    15
 74
     0
 42
0.0000000001
 43
0.0000000001
 40
2.935887396402156
 40
2.935887396402156
 40
2.935887396402156
 40
2.935887396402156
 40
9.306636279045205
 40
25.81247198400222
 40
42.39049960235115
 40
53.87576617480434
 40
61.2328366079371
 40
67.93326784269467
 40
77.26064834814936
 40
87.53563095633294
 40
104.7828586894259
 40
115.86939509829
 40
124.8255867344441
 40
139.065569290779
 40
139.065569290779
 40
139.065569290779
 40
139.065569290779
 10
11578.08262313972
 20
-22340.78663158958
 30
0.0
 10
11589.69205099375
 20
-22346.42144350304
 30
0.0
 10
11631.74963486264
 20
-22365.632840414
 30
0.0
 10
11711.5399314016
 20
-22378.69212544906
 30
0.0
 10
11793.86052106969
 20
-22415.12851912873
 30
0.0
 10
11860.12468426715
 20
-22444.53303138901
 30
0.0
 10
11897.46259145589
 20
-22480.82943365151
 30
0.0
 10
11927.08989366619
 20
-22518.19193348863
 30
0.0
 10
11941.98505745027
 20
-22570.81713536134
 30
0.0
 10
11942.05842986909
 20
-22645.28085138306
 30
0.0
 10
11934.42791407287
 20
-22723.97793608875
 30
0.0
 10
11905.96060759687
 20
-22794.10432664727
 30
0.0
 10
11877.48397102448
 20
-22857.4342453207
 30
0.0
 10
11849.49930739062
 20
-22895.28054723657
 30
0.0
 10
11832.31970187897
 20
-22918.51414923611
 30
0.0
  0
LINE
  5
10824
330
1F07
100
AcDbEntity
  8
器具
100
AcDbLine
 10
11401.13686949928
 20
-22960.17108150995
 30
0.0
 11
11381.7023767558
 21
-22212.24075059097
 31
0.0
  0
LINE
  5
10825
330
1F07
100
AcDbEntity
  8
器具
100
AcDbLine
 10
11407.19740339792
 20
-22960.01360240092
 30
0.0
 11
11387.76291065444
 21
-22212.08327148194
 31
0.0
  0
LINE
  5
10826
330
1F07
100
AcDbEntity
  8
器具
100
AcDbLine
 10
11574.05716371556
 20
-22241.66381917194
 30
0.0
 11
11604.94885051111
 21
-23002.33994389095
 31
0.0
  0
SPLINE
  5
10827
330
1F07
100
AcDbEntity
  8
器具
100
AcDbSpline
210
0.0
220
0.0
230
1.0
 70
     8
 71
     3
 72
    22
 73
    18
 74
    16
 42
0.0000000001
 43
0.0000000001
 44
0.0000000001
 40
0.0
 40
0.0
 40
0.0
 40
0.0
 40
22.61963473010003
 40
33.60348911225536
 40
45.08668722616455
 40
59.52787884095382
 40
71.07117346036154
 40
90.47890260880313
 40
106.7799246403124
 40
121.1199713840782
 40
135.0743086232051
 40
150.1586125484314
 40
166.4662598753675
 40
174.7593933740123
 40
189.1347330487905
 40
202.8323696036852
 40
221.0086180533794
 40
221.0086180533794
 40
221.0086180533794
 40
221.0086180533794
 10
11506.94612728234
 20
-22887.62177616303
 30
0.0
 10
11499.41395637022
 20
-22888.96988878208
 30
0.0
 10
11488.22424326225
 20
-22890.97263057068
 30
0.0
 10
11475.60260345776
 20
-22899.67100489885
 30
0.0
 10
11468.06221280535
 20
-22909.57734000024
 30
0.0
 10
11463.05036911048
 20
-22921.13220738383
 30
0.0
 10
11459.78587552814
 20
-22936.01866489169
 30
0.0
 10
11461.90923163641
 20
-22952.11058177757
 30
0.0
 10
11469.42629436199
 20
-22967.23612854729
 30
0.0
 10
11479.01194386763
 20
-22978.64479270751
 30
0.0
 10
11490.44111725212
 20
-22988.02259294325
 30
0.0
 10
11505.71037258655
 20
-22991.18580574512
 30
0.0
 10
11518.72411245973
 20
-22991.14716971228
 30
0.0
 10
11532.18653770836
 20
-22989.80404839385
 30
0.0
 10
11540.05793312956
 20
-22979.52731510518
 30
0.0
 10
11551.93886712604
 20
-22969.26327695446
 30
0.0
 10
11553.71200574867
 20
-22958.33635787362
 30
0.0
 10
11554.7231472564
 20
-22952.10522552265
 30
0.0
 11
11506.94612728234
 21
-22887.62177616303
 31
0.0
 11
11485.15737069228
 21
-22893.69614539631
 31
0.0
 11
11476.14857054743
 21
-22899.97997997708
 31
0.0
 11
11469.02531639996
 21
-22908.98681567415
 31
0.0
 11
11463.15910899235
 21
-22922.18286151773
 31
0.0
 11
11460.85453669701
 21
-22933.49376763555
 31
0.0
 11
11463.15910899235
 21
-22952.76418271241
 31
0.0
 11
11470.2823631399
 21
-22967.42646662799
 31
0.0
 11
11479.44753653663
 21
-22978.45536218563
 31
0.0
 11
11490.63459823014
 21
-22986.79641598289
 31
0.0
 11
11505.23465443902
 21
-22990.58779879212
 31
0.0
 11
11521.54119986654
 21
-22990.77737083696
 31
0.0
 11
11529.69448865724
 21
-22989.26081384108
 31
0.0
 11
11540.50231266128
 21
-22979.78234713687
 31
0.0
 11
11549.6036474455
 21
-22969.54560193463
 31
0.0
 11
11554.7231472564
 21
-22952.10522552265
 31
0.0
  0
ELLIPSE
  5
10828
330
1F07
100
AcDbEntity
  8
器具
100
AcDbEllipse
 10
11515.95302239708
 20
-22934.31338623749
 30
0.0
 11
-9.557392621607363
 21
46.88062065390124
 31
0.0
210
0.0
220
0.0
230
0.9999999999999996
 40
0.8509124751454299
 41
0.0
 42
6.283185307179586
  0
ELLIPSE
  5
10829
330
1F07
100
AcDbEntity
  8
器具
100
AcDbEllipse
 10
11707.64610737776
 20
-22985.68506281877
 30
0.0
 11
30.07951301341856
 21
-235.7016519301463
 31
0.0
210
0.0
220
0.0
230
1.0
 40
0.5653526063454596
 41
6.258589925663243
 42
9.424777960769379
  0
SPLINE
  5
1082A
330
1F07
100
AcDbEntity
  8
器具
100
AcDbSpline
210
0.0
220
0.0
230
1.0
 70
     8
 71
     3
 72
    56
 73
    52
 74
     0
 42
0.0000000001
 43
0.0000000001
 40
1.554723702897356
 40
1.554723702897356
 40
1.554723702897356
 40
1.554723702897356
 40
3.575311454839878
 40
3.575311454839878
 40
5.772794657495177
 40
5.772794657495177
 40
7.970277860150476
 40
7.970277860150476
 40
9.515473325697374
 40
9.515473325697374
 40
11.06066879124427
 40
11.06066879124427
 40
12.84846613165926
 40
12.84846613165926
 40
14.39581056969883
 40
14.39581056969883
 40
15.33978025287608
 40
15.33978025287608
 40
16.28374993605334
 40
16.28374993605334
 40
18.17168930240784
 40
18.17168930240784
 40
19.85424494390815
 40
19.85424494390815
 40
22.03264892621227
 40
22.03264892621227
 40
24.21105290851638
 40
24.21105290851638
 40
25.24863060494975
 40
25.24863060494975
 40
27.32378599781651
 40
27.32378599781651
 40
29.39894139068325
 40
29.39894139068325
 40
30.81509907237935
 40
30.81509907237935
 40
32.23125675407544
 40
32.23125675407544
 40
35.06357211746762
 40
35.06357211746762
 40
38.27653466751968
 40
38.27653466751968
 40
40.39309289914228
 40
40.39309289914228
 40
41.85767370834825
 40
41.85767370834825
 40
43.32225451755421
 40
43.32225451755421
 40
46.25141613596613
 40
46.25141613596613
 40
46.63991291319512
 40
46.63991291319512
 40
46.63991291319512
 40
46.63991291319512
 10
11604.94885051115
 20
-23002.33994389093
 30
0.0
 10
11602.82328055388
 20
-23005.92180660208
 30
0.0
 10
11600.61427850697
 20
-23009.49649150735
 30
0.0
 10
11595.65539904979
 20
-23016.80725923344
 30
0.0
 10
11592.89599581216
 20
-23020.46857279909
 30
0.0
 10
11587.17254431959
 20
-23027.54656632461
 30
0.0
 10
11584.20162834188
 20
-23030.97642216105
 30
0.0
 10
11579.03485188106
 20
-23036.74798982601
 30
0.0
 10
11576.88702519143
 20
-23039.10011896002
 30
0.0
 10
11572.47462111905
 20
-23043.8673833716
 30
0.0
 10
11570.19545529442
 20
-23046.27636522875
 30
0.0
 10
11565.04032344731
 20
-23051.32967048228
 30
0.0
 10
11562.12680321626
 20
-23053.95302912541
 30
0.0
 10
11556.27567828656
 20
-23058.39830666521
 30
0.0
 10
11553.39209859944
 20
-23060.28114833788
 30
0.0
 10
11548.40535254944
 20
-23062.82641803132
 30
0.0
 10
11546.43310268408
 20
-23063.66936116067
 30
0.0
 10
11542.45984265012
 20
-23065.08132627629
 30
0.0
 10
11540.44676514483
 20
-23065.66113669676
 30
0.0
 10
11534.36804288801
 20
-23067.10107779341
 30
0.0
 10
11530.26380759982
 20
-23067.66408510391
 30
0.0
 10
11522.53688234806
 20
-23068.34405961382
 30
0.0
 10
11518.90876570638
 20
-23068.50208261691
 30
0.0
 10
11510.72204626887
 20
-23068.76353493586
 30
0.0
 10
11506.04016144934
 20
-23068.86184723235
 30
0.0
 10
11496.59495412423
 20
-23068.47982109429
 30
0.0
 10
11491.84345751508
 20
-23067.9988930584
 30
0.0
 10
11484.91223886003
 20
-23066.43755696855
 30
0.0
 10
11482.68949394358
 20
-23065.80213086081
 30
0.0
 10
11476.11261359171
 20
-23063.40365437384
 30
0.0
 10
11472.04739552153
 20
-23061.21087130446
 30
0.0
 10
11464.43964545338
 20
-23056.26671853812
 30
0.0
 10
11460.88172496569
 20
-23053.50873437352
 30
0.0
 10
11455.15357833853
 20
-23048.80156259607
 30
0.0
 10
11452.91419691078
 20
-23046.88643048889
 30
0.0
 10
11448.48070409597
 20
-23043.10087011517
 30
0.0
 10
11446.27190240389
 20
-23041.20247007958
 30
0.0
 10
11439.70612140849
 20
-23035.41270472108
 30
0.0
 10
11435.40810904139
 20
-23031.42644109951
 30
0.0
 10
11426.64940629227
 20
-23022.2033417638
 30
0.0
 10
11422.24661909668
 20
-23016.84093025355
 30
0.0
 10
11415.85685460193
 20
-23007.26064670191
 30
0.0
 10
11413.55576853701
 20
-23003.27652262829
 30
0.0
 10
11410.20892917162
 20
-22996.25441858007
 30
0.0
 10
11409.00238456017
 20
-22993.29217671733
 30
0.0
 10
11406.93598742976
 20
-22987.34199735709
 30
0.0
 10
11406.06181236558
 20
-22984.3443048107
 30
0.0
 10
11403.76625706378
 20
-22975.33856562646
 30
0.0
 10
11402.66865353377
 20
-22969.3178539295
 30
0.0
 10
11401.4962847933
 20
-22962.61586745127
 30
0.0
 10
11401.36016666248
 20
-22961.83287907404
 30
0.0
 10
11401.22441100116
 20
-22961.05198221622
 30
0.0
  0
SPLINE
  5
1082B
330
1F07
100
AcDbEntity
  8
器具
100
AcDbSpline
210
0.0
220
0.0
230
1.0
 70
     8
 71
     3
 72
    16
 73
    12
 74
    10
 42
0.0000000001
 43
0.0000000001
 44
0.0000000001
 40
0.0
 40
0.0
 40
0.0
 40
0.0
 40
22.89890184364147
 40
55.37550016026841
 40
89.20897227859351
 40
120.9426820269715
 40
153.3698960730785
 40
185.2763586834927
 40
216.2645380602326
 40
248.9713447424914
 40
282.7581822748978
 40
282.7581822748978
 40
282.7581822748978
 40
282.7581822748978
 10
11604.48712193357
 20
-22991.0667094898
 30
0.0
 10
11600.66677143798
 20
-22997.71318299973
 30
0.0
 10
11591.42817035022
 20
-23013.78608454878
 30
0.0
 10
11571.91532981493
 20
-23035.84075971801
 30
0.0
 10
11548.15022679668
 20
-23060.8136267197
 30
0.0
 10
11514.29691368873
 20
-23062.94459923942
 30
0.0
 10
11481.20917560253
 20
-23062.86458948779
 30
0.0
 10
11455.79201876312
 20
-23041.45285509397
 30
0.0
 10
11431.94577996506
 20
-23020.88175049393
 30
0.0
 10
11412.9774254027
 20
-22993.26157869867
 30
0.0
 10
11409.14482787189
 20
-22971.21562251374
 30
0.0
 10
11407.19740339802
 20
-22960.01360240094
 30
0.0
 11
11604.48712193357
 21
-22991.0667094898
 31
0.0
 11
11592.53465601774
 21
-23010.59869003903
 31
0.0
 11
11571.83576970767
 21
-23035.62438770649
 31
0.0
 11
11545.84183142131
 21
-23057.28123438245
 31
0.0
 11
11514.55280900705
 21
-23062.57513755068
 31
0.0
 11
11482.30106302301
 21
-23059.20629624051
 31
0.0
 11
11455.82575491432
 21
-23041.39954423855
 31
0.0
 11
11433.2013893116
 21
-23020.22396060646
 31
0.0
 11
11415.39072193977
 21
-22992.79194771785
 31
0.0
 11
11407.19740339802
 21
-22960.01360240094
 31
0.0
  0
LINE
  5
1082C
330
1F07
100
AcDbEntity
  8
器具
100
AcDbLine
 10
11510.1747437956
 20
-22947.79710085848
 30
0.0
 11
11520.12515945306
 21
-22936.90142750807
 31
0.0
  0
LINE
  5
1082D
330
1F07
100
AcDbEntity
  8
器具
100
AcDbLine
 10
11514.67612957963
 20
-22914.6363588247
 30
0.0
 11
11524.62654523709
 21
-22903.7406854743
 31
0.0
  0
LINE
  5
1082E
330
1F07
100
AcDbEntity
  8
器具
100
AcDbLine
 10
11496.0074108932
 20
-22939.51125334109
 30
0.0
 11
11510.1747437956
 21
-22947.79710085848
 31
0.0
  0
LINE
  5
1082F
330
1F07
100
AcDbEntity
  8
器具
100
AcDbLine
 10
11496.0074108932
 20
-22939.51125334109
 30
0.0
 11
11504.01496879886
 21
-22930.7430030193
 31
0.0
  0
LINE
  5
10830
330
1F07
100
AcDbEntity
  8
器具
100
AcDbLine
 10
11489.80009847619
 20
-22921.50536628644
 30
0.0
 11
11504.01496879886
 21
-22930.7430030193
 31
0.0
  0
LINE
  5
10831
330
1F07
100
AcDbEntity
  8
器具
100
AcDbLine
 10
11500.46125925696
 20
-22905.39872209185
 30
0.0
 11
11514.67612957963
 21
-22914.6363588247
 31
0.0
  0
LINE
  5
10832
330
1F07
100
AcDbEntity
  8
器具
100
AcDbLine
 10
11489.80009847619
 20
-22921.50536628644
 30
0.0
 11
11500.46125925696
 21
-22905.39872209185
 31
0.0
  0
LINE
  5
10833
330
1F07
100
AcDbEntity
  8
器具
100
AcDbLine
 10
11520.12515945306
 20
-22936.90142750807
 30
0.0
 11
11534.34002977573
 21
-22946.13906424093
 31
0.0
  0
LINE
  5
10834
330
1F07
100
AcDbEntity
  8
器具
100
AcDbLine
 10
11534.34002977573
 20
-22946.13906424093
 30
0.0
 11
11545.0011905565
 21
-22930.03242004634
 31
0.0
  0
LINE
  5
10835
330
1F07
100
AcDbEntity
  8
器具
100
AcDbLine
 10
11530.78632023383
 20
-22920.79478331348
 30
0.0
 11
11545.0011905565
 21
-22930.03242004634
 31
0.0
  0
LINE
  5
10836
330
1F07
100
AcDbEntity
  8
器具
100
AcDbLine
 10
11537.89375539574
 20
-22911.79400757159
 30
0.0
 11
11530.78632023383
 21
-22920.79478331348
 31
0.0
  0
LINE
  5
10837
330
1F07
100
AcDbEntity
  8
器具
100
AcDbLine
 10
11524.62654523709
 20
-22903.7406854743
 30
0.0
 11
11537.89375539574
 21
-22911.79400757159
 31
0.0
  0
LINE
  5
10838
330
1F07
100
AcDbEntity
  8
器具
100
AcDbLine
 10
11594.85154590709
 20
-22753.7041673302
 30
0.0
 11
11677.56659436537
 21
-22749.9834108889
 31
0.0
  0
SPLINE
  5
10839
330
1F07
100
AcDbEntity
  8
器具
100
AcDbSpline
210
0.0
220
0.0
230
1.0
 70
     8
 71
     3
 72
    38
 73
    34
 74
     0
 42
0.0000000001
 43
0.0000000001
 40
0.0
 40
0.0
 40
0.0
 40
0.0
 40
1.373642203969453
 40
1.373642203969453
 40
4.120926611908361
 40
4.120926611908361
 40
6.868211019847269
 40
6.868211019847269
 40
8.863456184573834
 40
8.863456184573834
 40
10.8587013493004
 40
10.8587013493004
 40
12.24042500292152
 40
12.24042500292152
 40
13.62214865654264
 40
13.62214865654264
 40
14.33136275200419
 40
14.33136275200419
 40
14.81719630498023
 40
14.81719630498023
 40
15.30302985795627
 40
15.30302985795627
 40
15.92183079241096
 40
15.92183079241096
 40
16.44905239426967
 40
16.44905239426967
 40
16.97627399612837
 40
16.97627399612837
 40
18.03071719984579
 40
18.03071719984579
 40
19.0851604035632
 40
19.0851604035632
 40
20.35138997856665
 40
20.35138997856665
 40
20.35138997856665
 40
20.35138997856665
 10
11381.71349916099
 20
-22212.48263521995
 30
0.0
 10
11381.53044419814
 20
-22209.70978757391
 30
0.0
 10
11381.34819486222
 20
-22206.94976571692
 30
0.0
 10
11380.75194099928
 20
-22198.71559074376
 30
0.0
 10
11380.28752544875
 20
-22193.29973224206
 30
0.0
 10
11378.96220663627
 20
-22182.57506449925
 30
0.0
 10
11378.11158986011
 20
-22177.22574493914
 30
0.0
 10
11376.36594620847
 20
-22167.98060520297
 30
0.0
 10
11375.5620511583
 20
-22164.0854699664
 30
0.0
 10
11373.7066887103
 20
-22156.52150139135
 30
0.0
 10
11372.64620775729
 20
-22152.83860558987
 30
0.0
 10
11370.49728847518
 20
-22146.87560309658
 30
0.0
 10
11369.51095672494
 20
-22144.53233236676
 30
0.0
 10
11367.27992792952
 20
-22139.74639468358
 30
0.0
 10
11366.05336565717
 20
-22137.32424654115
 30
0.0
 10
11364.13260496324
 20
-22133.54458024832
 30
0.0
 10
11363.47008227706
 20
-22132.24265754325
 30
0.0
 10
11362.35286083102
 20
-22130.00435882372
 30
0.0
 10
11361.9000931717
 20
-22129.07691342809
 30
0.0
 10
11361.03893585635
 20
-22127.33357917722
 30
0.0
 10
11360.62130969113
 20
-22126.50428462569
 30
0.0
 10
11359.67860953128
 20
-22124.75351502707
 30
0.0
 10
11359.15491367904
 20
-22123.87010986938
 30
0.0
 10
11358.18488334794
 20
-22122.46667734598
 30
0.0
 10
11357.75058944358
 20
-22121.92642189341
 30
0.0
 10
11356.75966487388
 20
-22120.8692814081
 30
0.0
 10
11356.21501075872
 20
-22120.36680451663
 30
0.0
 10
11354.41999299552
 20
-22118.9185725473
 30
0.0
 10
11353.0040344718
 20
-22118.03225956382
 30
0.0
 10
11349.77232507228
 20
-22116.39129744995
 30
0.0
 10
11347.96010812274
 20
-22115.63889774137
 30
0.0
 10
11343.67029472219
 20
-22114.07510898627
 30
0.0
 10
11341.13447692256
 20
-22113.28256364451
 30
0.0
 10
11338.51009535546
 20
-22112.46503643899
 30
0.0
  0
SPLINE
  5
1083A
330
1F07
100
AcDbEntity
  8
器具
100
AcDbSpline
210
0.0
220
0.0
230
1.0
 70
     8
 71
     3
 72
    13
 73
     9
 74
     7
 42
0.0000000001
 43
0.0000000001
 44
0.0000000001
 40
0.0
 40
0.0
 40
0.0
 40
0.0
 40
23.09857594938682
 40
44.91502311395509
 40
69.2337430304606
 40
87.94784268660983
 40
98.01769429413468
 40
123.3819207134432
 40
123.3819207134432
 40
123.3819207134432
 40
123.3819207134432
 10
11387.76291065444
 20
-22212.08327148201
 30
0.0
 10
11387.2551773645
 20
-22204.39231882453
 30
0.0
 10
11386.26789345126
 20
-22189.43731393005
 30
0.0
 10
11382.56281150619
 20
-22166.69035675369
 30
0.0
 10
11377.41425222494
 20
-22145.42184161478
 30
0.0
 10
11368.95597569475
 20
-22130.00403489292
 30
0.0
 10
11361.09813112594
 20
-22113.15156194129
 30
0.0
 10
11348.98439211311
 20
-22109.37798292961
 30
0.0
 10
11340.31320222429
 20
-22106.67680040158
 30
0.0
 11
11387.76291065444
 21
-22212.08327148201
 31
0.0
 11
11385.86511458934
 21
-22189.06278971066
 31
0.0
 11
11382.42975807103
 21
-22167.51851686435
 31
0.0
 11
11375.87137355835
 21
-22144.10083698436
 31
0.0
 11
11367.75144289393
 21
-22127.24010592236
 31
0.0
 11
11362.75457237909
 21
-22118.49749781862
 31
0.0
 11
11340.31320222429
 21
-22106.67680040158
 31
0.0
  0
SPLINE
  5
1083B
330
1F07
100
AcDbEntity
  8
器具
100
AcDbSpline
210
0.0
220
0.0
230
1.0
 70
     8
 71
     3
 72
    11
 73
     7
 74
     5
 42
0.0000000001
 43
0.0000000001
 44
0.0000000001
 40
0.0
 40
0.0
 40
0.0
 40
0.0
 40
25.68855400723327
 40
58.44891525863495
 40
84.68162488229332
 40
109.4526833301131
 40
109.4526833301131
 40
109.4526833301131
 40
109.4526833301131
 10
11574.0571637156
 20
-22241.66381917187
 30
0.0
 10
11572.82754355217
 20
-22233.17626663712
 30
0.0
 10
11570.02980084106
 20
-22213.86462150843
 30
0.0
 10
11562.71364472357
 20
-22186.69022919591
 30
0.0
 10
11553.88540295571
 20
-22159.70528692562
 30
0.0
 10
11542.44277692084
 20
-22146.88799300113
 30
0.0
 10
11536.8854236306
 20
-22140.6630031827
 30
0.0
 11
11574.0571637156
 21
-22241.66381917187
 31
0.0
 11
11569.93329546594
 21
-22216.30843478035
 31
0.0
 11
11561.80405667936
 21
-22184.5727018272
 31
0.0
 11
11552.1263899261
 21
-22160.19037584275
 31
0.0
 11
11536.8854236306
 21
-22140.6630031827
 31
0.0
  0
LINE
  5
1083C
330
1F07
100
AcDbEntity
  8
器具
100
AcDbLine
 10
11340.31320222425
 20
-22106.67680040164
 30
0.0
 11
11536.8854236305
 21
-22140.66300318267
 31
0.0
  0
LINE
  5
1083D
330
1F07
100
AcDbEntity
  8
器具
100
AcDbLine
 10
11061.40508613909
 20
-23221.25781262878
 30
0.0
 11
11086.51903660362
 21
-23181.0362477809
 31
0.0
  0
LINE
  5
1083E
330
1F07
100
AcDbEntity
  8
器具
100
AcDbLine
 10
11064.18642717823
 20
-22881.3815889565
 30
0.0
 11
11033.38778606577
 21
-22845.32706784692
 31
0.0
  0
LINE
  5
1083F
330
1F07
100
AcDbEntity
  8
器具
100
AcDbLine
 10
11060.86697847265
 20
-23222.11446162326
 30
0.0
 11
11247.8746502147
 21
-23208.17718693146
 31
0.0
  0
LINE
  5
10840
330
1F07
100
AcDbEntity
  8
器具
100
AcDbLine
 10
11219.73631179442
 20
-22830.62237287148
 30
0.0
 11
11032.72864005236
 21
-22844.559647563
 31
0.0
  0
LINE
  5
10845
330
1F07
100
AcDbEntity
  8
器具
100
AcDbLine
 10
10582.6314528145
 20
-22791.10085000124
 30
0.0
 11
10577.49372173655
 21
-22791.48375391449
 31
0.0
  0
LINE
  5
10846
330
1F07
100
AcDbEntity
  8
器具
100
AcDbLine
 10
10618.52879859937
 20
-23342.08452441878
 30
0.0
 11
10623.66652967732
 21
-23341.70162050551
 31
0.0
  0
LINE
  5
10847
330
1F07
100
AcDbEntity
  8
器具
100
AcDbLine
 10
10799.30389461111
 20
-23172.50681908574
 30
0.0
 11
10800.45147652015
 21
-23171.48228107887
 31
0.0
  0
LINE
  5
10848
330
1F07
100
AcDbEntity
  8
器具
100
AcDbLine
 10
10805.4215363785
 20
-23013.94216155476
 30
0.0
 11
10804.77007290568
 21
-23013.51531425847
 31
0.0
  0
LWPOLYLINE
  5
10849
330
1F07
100
AcDbEntity
  8
器具
100
AcDbPolyline
 90
       48
 70
   128
 43
0.0
 10
10539.91808199764
 20
-22678.85122357918
 10
10536.27659781433
 20
-22680.00558462639
 10
10522.6409003578
 20
-22685.87183126422
 10
10509.31369404414
 20
-22693.18139307319
 10
10496.34296752719
 20
-22701.91263802201
 10
10483.7786718898
 20
-22712.0374530369
 10
10471.67152114819
 20
-22723.52007677995
 10
10460.07140883486
 20
-22736.31695132427
 10
10449.02599556647
 20
-22750.37738244324
 10
10438.57976783095
 20
-22765.64459427783
 10
10428.77359857024
 20
-22782.05680424141
 10
10419.64467875452
 20
-22799.54810467787
 10
10411.22679298657
 20
-22818.04875660462
 10
10403.55040088146
 20
-22837.48566038299
 10
10396.64238336238
 20
-22857.78382793103
 10
10390.52666347085
 20
-22878.8656480343
 10
10385.22425996192
 20
-22900.65105488857
 10
10380.75329674679
 20
-22923.05771018274
 10
10377.12898308632
 20
-22946.0012097507
 10
10374.36357773689
 20
-22969.39531794272
 10
10372.4663475278
 20
-22993.15222845913
 10
10371.44352807287
 20
-23017.18284824006
 10
10371.29829197178
 20
-23041.39710019917
 10
10372.03072814833
 20
-23065.7042404504
 10
10373.63783463262
 20
-23090.01318584491
 10
10376.1135262144
 20
-23114.23284789603
 10
10379.44861502041
 20
-23138.27219773558
 10
10383.63089074048
 20
-23162.04107503991
 10
10388.64518628418
 20
-23185.45041169315
 10
10394.47344183128
 20
-23208.41247197964
 10
10401.09479038408
 20
-23230.84116577991
 10
10408.48565612434
 20
-23252.65234663141
 10
10416.61986285464
 20
-23273.76409027953
 10
10425.46874835984
 20
-23294.09694907116
 10
10435.00127835518
 20
-23313.57417747931
 10
10445.18415070983
 20
-23332.12192453932
 10
10455.98187666075
 20
-23349.66939062757
 10
10467.35682092468
 20
-23366.14894977184
 10
10479.26917776854
 20
-23381.4962459442
 10
10491.67664211659
 20
-23395.65005401349
 10
10504.53366650644
 20
-23408.55206409082
 10
10517.79224500659
 20
-23420.14846741042
 10
10531.40104114962
 20
-23430.38977361469
 10
10545.30509029444
 20
-23439.23158980143
 10
10559.44579414949
 20
-23446.6357068359
 10
10573.76146600127
 20
-23452.57137295297
 10
10588.18861713519
 20
-23457.01643604654
 10
10598.4944114588
 20
-23459.11061512287
  0
LINE
  5
1084A
330
1F07
100
AcDbEntity
  8
器具
100
AcDbLine
 10
10594.27190296325
 20
-22670.01020550862
 30
0.0
 11
10575.00541142381
 21
-22671.44609518342
 31
0.0
  0
LINE
  5
1084B
330
1F07
100
AcDbEntity
  8
器具
100
AcDbLine
 10
10633.86143660699
 20
-23461.16492336683
 30
0.0
 11
10653.12792814757
 21
-23459.72903369201
 31
0.0
  0
ARC
  5
1084C
330
1F07
100
AcDbEntity
  8
器具
100
AcDbCircle
 10
10565.34994449732
 20
-22941.0642867904
 30
0.0
 40
154.3384577471096
100
AcDbArc
 50
30.70590394981522
 51
72.79856086663976
  0
LWPOLYLINE
  5
1084D
330
1F07
100
AcDbEntity
  8
器具
100
AcDbPolyline
 90
       32
 70
   128
 43
0.0
 10
10698.05009783549
 20
-22862.25420593973
 10
10702.83866542295
 20
-22869.53710621963
 10
10711.55276447547
 20
-22884.22203850493
 10
10719.68880278233
 20
-22899.9042494812
 10
10727.19791150353
 20
-22916.49700132472
 10
10734.03661726782
 20
-22933.91095796072
 10
10740.16526103749
 20
-22952.05167751659
 10
10745.5483253814
 20
-22970.82028984934
 10
10750.15468276896
 20
-22990.11416889288
 10
10753.95778544311
 20
-23009.82759275535
 10
10756.93581214181
 20
-23029.85239150451
 10
10759.07178200585
 20
-23050.07858468815
 10
10760.35364234899
 20
-23070.39501109248
 10
10760.77433465659
 20
-23090.68982562483
 10
10760.33187230945
 20
-23110.85103730094
 10
10759.02936703445
 20
-23130.76770238419
 10
10756.87500991754
 20
-23150.33020079745
 10
10753.88206338943
 20
-23169.43086270106
 10
10750.0688326501
 20
-23187.96460393765
 10
10745.458611552
 20
-23205.8295753756
 10
10740.07959376545
 20
-23222.92783262538
 10
10733.96473341484
 20
-23239.16603314513
 10
10727.15152935127
 20
-23254.45616603289
 10
10719.68169328952
 20
-23268.7163131443
 10
10711.60064498066
 20
-23281.87142390007
 10
10702.95736080335
 20
-23293.85328887746
 10
10693.80319134101
 20
-23304.60185597807
 10
10684.18981635336
 20
-23314.06637382038
 10
10674.1677977526
 20
-23322.20462936081
 10
10663.78474161041
 20
-23328.98187450501
 10
10653.08416467455
 20
-23334.36861556974
 10
10649.05195449822
 20
-23335.82643831078
  0
LINE
  5
1084E
330
1F07
100
AcDbEntity
  8
器具
100
AcDbLine
 10
11044.39449034504
 20
-22978.69768627559
 30
0.0
 11
11043.28257883253
 21
-22978.66866338817
 31
0.0
  0
LWPOLYLINE
  5
1084F
330
1F07
100
AcDbEntity
  8
器具
100
AcDbPolyline
 90
        3
 70
   128
 43
0.0
 10
11051.41658203961
 20
-23087.87982288659
 10
11051.42816729352
 20
-23087.87790110996
 10
11052.57113619048
 20
-23087.67528779732
  0
ARC
  5
10850
330
1F07
100
AcDbEntity
  8
器具
100
AcDbCircle
 10
10907.81290495235
 20
-24156.78282507672
 30
0.0
 40
1231.919372877533
100
AcDbArc
 50
83.99023706808948
 51
93.56970246831776
  0
ARC
  5
10851
330
1F07
100
AcDbEntity
  8
器具
100
AcDbCircle
 10
10745.64842533969
 20
-21958.89659404888
 30
0.0
 40
1215.690749581257
100
AcDbArc
 50
274.8855723020889
 51
284.5995819633993
  0
ARC
  5
10852
330
1F07
100
AcDbEntity
  8
器具
100
AcDbCircle
 10
10862.36905600632
 20
-23754.04598119613
 30
0.0
 40
881.5739439636844
100
AcDbArc
 50
79.37505978823416
 51
93.1343468495468
  0
ARC
  5
10853
330
1F07
100
AcDbEntity
  8
器具
100
AcDbCircle
 10
10759.84817955689
 20
-22358.06718881973
 30
0.0
 40
871.2192281286425
100
AcDbArc
 50
275.3072336971326
 51
289.2312256629814
  0
ARC
  5
10854
330
1F07
100
AcDbEntity
  8
器具
100
AcDbCircle
 10
10826.08042719955
 20
-23551.65804467562
 30
0.0
 40
727.5534287320016
100
AcDbArc
 50
75.57907916447828
 51
92.58918882578361
  0
ARC
  5
10855
330
1F07
100
AcDbEntity
  8
器具
100
AcDbCircle
 10
10753.47488700562
 20
-22560.12075611056
 30
0.0
 40
720.6993169814294
100
AcDbArc
 50
275.8596761639222
 51
293.0276204440842
  0
ARC
  5
10856
330
1F07
100
AcDbEntity
  8
器具
100
AcDbCircle
 10
10791.08146464311
 20
-23432.4090013832
 30
0.0
 40
651.1472963897991
100
AcDbArc
 50
72.39160640184014
 51
91.94958047652326
  0
LINE
  5
10857
330
1F07
100
AcDbEntity
  8
器具
100
AcDbLine
 10
10990.65021140978
 20
-22812.61971299636
 30
0.0
 11
10988.05972466033
 21
-22811.7703249569
 31
0.0
  0
LINE
  5
10858
330
1F07
100
AcDbEntity
  8
器具
100
AcDbLine
 10
11021.56389776077
 20
-23261.13714687944
 30
0.0
 11
11024.3990844737
 21
-23259.70677628666
 31
0.0
  0
ARC
  5
10859
330
1F07
100
AcDbEntity
  8
器具
100
AcDbCircle
 10
10736.16221112466
 20
-22681.13868745353
 30
0.0
 40
646.4149871957125
100
AcDbArc
 50
276.517880042568
 51
296.2005617423688
  0
ARC
  5
1085A
330
1F07
100
AcDbEntity
  8
器具
100
AcDbCircle
 10
10755.24441866127
 20
-23361.55656750547
 30
0.0
 40
616.4610333200609
100
AcDbArc
 50
70.05210851820788
 51
91.25239070046957
  0
LINE
  5
1085B
330
1F07
100
AcDbEntity
  8
器具
100
AcDbLine
 10
10967.21289116467
 20
-22782.68755440676
 30
0.0
 11
10965.55958396367
 21
-22782.08116954145
 31
0.0
  0
LINE
  5
1085C
330
1F07
100
AcDbEntity
  8
器具
100
AcDbLine
 10
11003.68243536717
 20
-23293.85586889826
 30
0.0
 11
11005.72861567901
 21
-23292.73355370615
 31
0.0
  0
ARC
  5
1085D
330
1F07
100
AcDbEntity
  8
器具
100
AcDbCircle
 10
10710.94668309249
 20
-22755.18275709451
 30
0.0
 40
613.0766200403573
100
AcDbArc
 50
277.2804865247187
 51
298.521363549993
  0
LINE
  5
1085E
330
1F07
100
AcDbEntity
  8
器具
100
AcDbLine
 10
10943.60252069706
 20
-22760.97057725402
 30
0.0
 11
10942.98754035253
 21
-22760.50820458513
 31
0.0
  0
ARC
  5
1085F
330
1F07
100
AcDbEntity
  8
器具
100
AcDbCircle
 10
10870.28629143324
 20
-22849.6959715705
 30
0.0
 40
114.9881881575282
100
AcDbArc
 50
52.24121783587246
 51
65.7306271383939
  0
ARC
  5
10860
330
1F07
100
AcDbEntity
  8
器具
100
AcDbCircle
 10
10885.36390770839
 20
-23224.16898129969
 30
0.0
 40
137.0415227798278
100
AcDbArc
 50
303.9093907137878
 51
316.9948192721219
  0
LINE
  5
10861
330
1F07
100
AcDbEntity
  8
器具
100
AcDbLine
 10
10999.07636649527
 20
-23302.4242734556
 30
0.0
 11
11047.72837077946
 21
-23241.13259964792
 31
0.0
  0
LINE
  5
10862
330
1F07
100
AcDbEntity
  8
器具
100
AcDbLine
 10
11016.91607777858
 20
-22827.69917721421
 30
0.0
 11
10959.71614704925
 21
-22774.29641770174
 31
0.0
  0
LWPOLYLINE
  5
10863
330
1F07
100
AcDbEntity
  8
器具
100
AcDbPolyline
 90
        3
 70
   128
 43
0.0
 10
10743.68771345614
 20
-22717.29347599685
 10
10726.51310376548
 20
-22716.54349496091
 10
10713.64090273298
 20
-22716.55779086492
  0
LWPOLYLINE
  5
10864
330
1F07
100
AcDbEntity
  8
器具
100
AcDbPolyline
 90
        3
 70
   128
 43
0.0
 10
10765.10289960088
 20
-23395.84780239966
 10
10778.266802532
 20
-23393.86571092833
 10
10794.06853278491
 20
-23390.75686644086
  0
LINE
  5
10865
330
1F07
100
AcDbEntity
  8
器具
100
AcDbLine
 10
10519.76067189498
 20
-23384.29475008907
 30
0.0
 11
10524.18976038431
 21
-23383.67370521017
 31
0.0
  0
LINE
  5
10866
330
1F07
100
AcDbEntity
  8
器具
100
AcDbLine
 10
10472.93928099837
 20
-22764.45932168735
 30
0.0
 11
10472.10458035608
 21
-22764.46926724704
 31
0.0
  0
LWPOLYLINE
  5
10867
330
1F07
100
AcDbEntity
  8
器具
100
AcDbPolyline
 90
        3
 70
   128
 43
0.0
 10
10453.10736995697
 20
-22804.684438588
 10
10450.79629214561
 20
-22804.72209237185
 10
10447.00398166298
 20
-22804.87988028315
  0
LWPOLYLINE
  5
10868
330
1F07
100
AcDbEntity
  8
器具
100
AcDbPolyline
 90
        3
 70
   128
 43
0.0
 10
10489.34501301955
 20
-23348.03873196689
 10
10489.62893947005
 20
-23348.0084161054
 10
10497.91690974283
 20
-23346.91764336102
  0
LWPOLYLINE
  5
10869
330
1F07
100
AcDbEntity
  8
器具
100
AcDbPolyline
 90
        3
 70
   128
 43
0.0
 10
10463.53983862092
 20
-23304.7772746006
 10
10464.16258053624
 20
-23304.71422133705
 10
10476.58291883211
 20
-23303.2022772842
  0
LWPOLYLINE
  5
1086A
330
1F07
100
AcDbEntity
  8
器具
100
AcDbPolyline
 90
        3
 70
   128
 43
0.0
 10
10438.06579842226
 20
-22851.1755855649
 10
10427.93181164693
 20
-22851.47577234913
 10
10427.18124772015
 20
-22851.51249532342
  0
LINE
  5
1086B
330
1F07
100
AcDbEntity
  8
器具
100
AcDbLine
 10
10442.62944765035
 20
-23255.66902101039
 30
0.0
 11
10461.8589307919
 21
-23253.53789040156
 31
0.0
  0
LWPOLYLINE
  5
1086C
330
1F07
100
AcDbEntity
  8
器具
100
AcDbPolyline
 90
        3
 70
   128
 43
0.0
 10
10430.19308389464
 20
-22902.54357190883
 10
10413.8394274837
 20
-22903.19733944766
 10
10412.81263263643
 20
-22903.25361430797
  0
LINE
  5
1086D
330
1F07
100
AcDbEntity
  8
器具
100
AcDbLine
 10
10429.495519083
 20
-23201.69054073839
 30
0.0
 11
10448.71274738009
 21
-23199.7851798132
 31
0.0
  0
LWPOLYLINE
  5
1086E
330
1F07
100
AcDbEntity
  8
器具
100
AcDbPolyline
 90
        3
 70
   128
 43
0.0
 10
10428.82535268779
 20
-22957.52609207543
 10
10404.86952423619
 20
-22958.74929130266
 10
10404.34037801935
 20
-22958.78163396804
  0
LINE
  5
1088C
330
1F07
100
AcDbEntity
  8
器具
100
AcDbLine
 10
10870.7150712696
 20
-23053.02653039995
 30
0.0
 11
10868.38131504842
 21
-23052.14814147075
 31
0.0
  0
LWPOLYLINE
  5
1088D
330
1F07
100
AcDbEntity
  8
器具
100
AcDbPolyline
 90
       24
 70
   128
 43
0.0
 10
11060.22247207363
 20
-23223.12706507867
 10
11064.71810303942
 20
-23215.74775570184
 10
11072.22272923161
 20
-23201.5467359982
 10
11078.95361130604
 20
-23186.21022059384
 10
11084.86353696116
 20
-23169.8457841247
 10
11089.91105231402
 20
-23152.56821135502
 10
11094.06075267131
 20
-23134.49869204386
 10
11097.28353086735
 20
-23115.76397088648
 10
11099.55678142827
 20
-23096.49545849014
 10
11100.86455913545
 20
-23076.82830962598
 10
11101.19769086578
 20
-23056.90047521146
 10
11100.55383994147
 20
-23036.85173468792
 10
11098.93752251219
 20
-23016.82271556389
 10
11096.36007588645
 20
-22996.95390701889
 10
11092.83957899686
 20
-22977.38467446813
 10
11088.40072560285
 20
-22958.25228201835
 10
11083.07465107029
 20
-22939.69092965528
 10
11076.89871398447
 20
-22921.83081192986
 10
11069.91623410754
 20
-22904.79720473534
 10
11062.17618851851
 20
-22888.70958658739
 10
11053.73286807592
 20
-22873.68080056859
 10
11044.64549660788
 20
-22859.81626281481
 10
11034.97781549295
 20
-22847.2132230962
 10
11031.94115341931
 20
-22843.65376763778
  0
ARC
  5
1088E
330
1F07
100
AcDbEntity
  8
器具
100
AcDbCircle
 10
10836.90709709936
 20
-23048.97975247502
 30
0.0
 40
282.3916399184674
100
AcDbArc
 50
332.1190470917159
 51
36.40545284900941
  0
LINE
  5
1088F
330
1F07
100
AcDbEntity
  8
器具
100
AcDbLine
 10
11221.1268942809
 20
-22830.53415976998
 30
0.0
 11
11219.73631179442
 21
-22830.62237287148
 31
0.0
  0
LWPOLYLINE
  5
10891
330
1F07
100
AcDbEntity
  8
器具
100
AcDbPolyline
 90
       81
 70
   128
 43
0.0
 10
10576.70243176928
 20
-23335.77483717023
 10
10589.2312858743
 20
-23339.63656721138
 10
10601.81427144007
 20
-23341.81607130109
 10
10614.37381017755
 20
-23342.29991207176
 10
10626.83246835206
 20
-23341.08510648376
 10
10639.11343419565
 20
-23338.17914421826
 10
10651.14099146742
 20
-23333.59994149872
 10
10662.8409862783
 20
-23327.37573063234
 10
10674.14128427024
 20
-23319.54488594902
 10
10684.97221534719
 20
-23310.15568721044
 10
10695.26700321838
 20
-23299.26602194912
 10
10704.96217709277
 20
-23286.94302857193
 10
10713.99796299954
 20
-23273.26268243157
 10
10722.31865231338
 20
-23258.3093274109
 10
10729.87294521846
 20
-23242.17515591605
 10
10736.61426698731
 20
-23224.95964047956
 10
10742.50105512901
 20
-23206.7689204788
 10
10747.49701563646
 20
-23187.71514775139
 10
10751.57134675216
 20
-23167.91579514254
 10
10754.69892887109
 20
-23147.49293224497
 10
10756.86047940706
 20
-23126.57247279957
 10
10758.04267168489
 20
-23105.28339839582
 10
10758.23821709534
 20
-23083.75696325638
 10
10757.44591003366
 20
-23062.12588501272
 10
10755.67063533928
 20
-23040.5235264549
 10
10752.92333817036
 20
-23019.08307330669
 10
10749.2209565272
 20
-22997.93671309187
 10
10744.58631682191
 20
-22977.2148201528
 10
10739.04799315276
 20
-22957.04515185057
 10
10732.64013112481
 20
-22937.55206089686
 10
10725.40223733946
 20
-22918.85572867969
 10
10717.37893581666
 20
-22901.0714243043
 10
10708.61969288093
 20
-22884.30879392121
 10
10699.17851217529
 20
-22868.67118472088
 10
10689.11360172074
 20
-22854.25500776388
 10
10678.48701503592
 20
-22841.14914357489
 10
10667.36426856065
 20
-22829.43439416514
 10
10655.81393772623
 20
-22819.18298486019
 10
10643.90723416365
 20
-22810.45811900715
 10
10631.71756665947
 20
-22803.3135883053
 10
10619.32008856788
 20
-22797.79344116261
 10
10606.79123446287
 20
-22793.93171112147
 10
10594.2082488959
 20
-22791.75220703214
 10
10581.64871015962
 20
-22791.26836626146
 10
10569.190051984
 20
-22792.48317184909
 10
10556.90908614152
 20
-22795.38913411496
 10
10544.88152886975
 20
-22799.9683368345
 10
10533.18153405766
 20
-22806.19254770088
 10
10521.88123606693
 20
-22814.02339238384
 10
10511.05030498997
 20
-22823.41259112242
 10
10500.75551711878
 20
-22834.30225638411
 10
10491.0603432444
 20
-22846.62524976093
 10
10482.02455733763
 20
-22860.30559590146
 10
10473.70386802258
 20
-22875.25895092233
 10
10466.1495751175
 20
-22891.39312241717
 10
10459.40825334985
 20
-22908.60863785367
 10
10453.52146520815
 20
-22926.79935785442
 10
10448.52550470071
 20
-22945.85313058183
 10
10444.4511735839
 20
-22965.65248319032
 10
10441.32359146607
 20
-22986.07534608808
 10
10439.16204092899
 20
-23006.99580553329
 10
10437.97984865106
 20
-23028.2848799374
 10
10437.78430324183
 20
-23049.81131507647
 10
10438.5766103023
 20
-23071.44239332032
 10
10440.35188499668
 20
-23093.04475187833
 10
10443.0991821657
 20
-23114.48520502636
 10
10446.80156380996
 20
-23135.63156524117
 10
10451.43620351405
 20
-23156.35345818005
 10
10456.9745271832
 20
-23176.52312648265
 10
10463.38238921125
 20
-23196.01621743636
 10
10470.62028299771
 20
-23214.71254965353
 10
10478.6435845194
 20
-23232.49685402855
 10
10487.40282745624
 20
-23249.25948441182
 10
10496.84400816067
 20
-23264.89709361233
 10
10506.90891861522
 20
-23279.31327056933
 10
10517.53550530125
 20
-23292.41913475834
 10
10528.65825177651
 20
-23304.13388416807
 10
10540.20858260973
 20
-23314.38529347304
 10
10552.1152861724
 20
-23323.11015932607
 10
10564.30495367657
 20
-23330.25469002754
 10
10576.70243176928
 20
-23335.77483717023
  0
LINE
  5
10892
330
1F07
100
AcDbEntity
  8
器具
100
AcDbLine
 10
10788.53394461693
 20
-23173.30948001453
 30
0.0
 11
10789.90951719936
 21
-23166.12351513648
 31
0.0
  0
LWPOLYLINE
  5
10893
330
1F07
100
AcDbEntity
  8
器具
100
AcDbPolyline
 90
        3
 70
   128
 43
0.0
 10
10794.61919658553
 20
-23132.38925684103
 10
10795.39346248824
 20
-23123.70069345025
 10
10796.01329610061
 20
-23114.73809402313
  0
LWPOLYLINE
  5
10894
330
1F07
100
AcDbEntity
  8
器具
100
AcDbPolyline
 90
        3
 70
   128
 43
0.0
 10
10796.81624837136
 20
-23087.67730633472
 10
10796.77120017541
 20
-23080.88518390707
 10
10796.11525022342
 20
-23061.65194710172
  0
LWPOLYLINE
  5
10895
330
1F07
100
AcDbEntity
  8
器具
100
AcDbPolyline
 90
        3
 70
   128
 43
0.0
 10
10794.18821309077
 20
-23037.50534694871
 10
10791.45632125154
 20
-23016.21129395738
 10
10791.20741767741
 20
-23014.5869942174
  0
LWPOLYLINE
  5
10896
330
1F07
100
AcDbEntity
  8
器具
100
AcDbPolyline
 90
        3
 70
   128
 43
0.0
 10
10785.45767737452
 20
-22984.22432664275
 10
10783.11929990309
 20
-22974.34304080349
 10
10782.71170055089
 20
-22972.71786965424
  0
LWPOLYLINE
  5
10897
330
1F07
100
AcDbEntity
  8
器具
100
AcDbPolyline
 90
        3
 70
   128
 43
0.0
 10
10771.20755632204
 20
-22934.77671200187
 10
10771.17311420599
 20
-22934.68028154735
 10
10770.62438906901
 20
-22933.15457942568
  0
LINE
  5
10898
330
1F07
100
AcDbEntity
  8
器具
100
AcDbLine
 10
10864.58622641825
 20
-23053.48329986557
 30
0.0
 11
10863.62139260106
 21
-23052.50288812907
 31
0.0
  0
LWPOLYLINE
  5
10899
330
1F07
100
AcDbEntity
  8
器具
100
AcDbPolyline
 90
       96
 70
   128
 43
0.0
 10
10735.60060286639
 20
-22781.34174555911
 10
10747.09057167491
 20
-22799.27147763673
 10
10757.92865458521
 20
-22818.37097451754
 10
10768.0674594195
 20
-22838.55671896172
 10
10777.46265176145
 20
-22859.74044384505
 10
10786.07314882847
 20
-22881.82951812794
 10
10793.86129910628
 20
-22904.72735190937
 10
10800.79304699481
 20
-22928.33381878844
 10
10806.83808172543
 20
-22952.54569369129
 10
10811.96996989812
 20
-22977.25710424996
 10
10816.16627107265
 20
-23002.35999375306
 10
10819.40863589204
 20
-23027.74459365209
 10
10821.68288631846
 20
-23053.29990355049
 10
10822.97907763366
 20
-23078.91417658025
 10
10823.29154192426
 20
-23104.47540804311
 10
10822.61891286223
 20
-23129.87182517714
 10
10820.96413168366
 20
-23154.99237591171
 10
10818.33443432507
 20
-23179.72721447099
 10
10814.7413197849
 20
-23203.96818169876
 10
10810.20049983783
 20
-23227.60927801331
 10
10804.7318303358
 20
-23250.54712691554
 10
10798.359224377
 20
-23272.68142702878
 10
10791.11054774619
 20
-23293.91539068997
 10
10783.01749706362
 20
-23314.156167179
 10
10774.11546117827
 20
-23333.31524873013
 10
10764.44336643127
 20
-23351.30885755485
 10
10754.04350642892
 20
-23368.05831217972
 10
10742.96135711462
 20
-23383.49037150164
 10
10731.24537790629
 20
-23397.5375550514
 10
10718.94679980176
 20
-23410.13843806979
 10
10706.11940135263
 20
-23421.23792010087
 10
10692.81927350806
 20
-23430.78746593459
 10
10679.10457434484
 20
-23438.74531783645
 10
10665.03527475249
 20
-23445.07667814484
 10
10650.67289619699
 20
-23449.75386143205
 10
10636.08024170593
 20
-23452.75641556574
 10
10621.32112124557
 20
-23454.07121114059
 10
10606.46007269227
 20
-23453.69249889005
 10
10591.56207963314
 20
-23451.62193482642
 10
10576.69228719865
 20
-23447.86857299969
 10
10561.9157172093
 20
-23442.44882590585
 10
10547.29698384368
 20
-23435.38639272022
 10
10532.90001110636
 20
-23426.71215566591
 10
10518.78775329394
 20
-23416.46404497464
 10
10505.02191971964
 20
-23404.68687302708
 10
10491.66270487187
 20
-23391.43213839932
 10
10478.76852519654
 20
-23376.75780067379
 10
10466.39576366063
 20
-23360.72802699531
 10
10454.59852320403
 20
-23343.41291148576
 10
10443.42839015654
 20
-23324.88816873963
 10
10432.93420866828
 20
-23305.23480274331
 10
10423.16186712394
 20
-23284.53875266634
 10
10414.15409748765
 20
-23262.89051706916
 10
10405.95028844233
 20
-23240.3847581784
 10
10398.58631315988
 20
-23217.11988795111
 10
10392.09437242991
 20
-23193.19763774549
 10
10386.50285385555
 20
-23168.72261347515
 10
10381.83620772787
 20
-23143.80183819331
 10
10378.11484010046
 20
-23118.5442841099
 10
10375.35502356807
 20
-23093.0603960826
 10
10373.56882610672
 20
-23067.46160866916
 10
10372.76405830268
 20
-23041.85985885419
 10
10372.94423920165
 20
-23016.36709657519
 10
10374.10858091687
 20
-22991.09479519541
 10
10376.25199208034
 20
-22966.15346405889
 10
10379.36510009869
 20
-22941.65216525995
 10
10383.43429214208
 20
-22917.69803674494
 10
10388.44177467127
 20
-22894.39582382282
 10
10394.36565123889
 20
-22871.84742114146
 10
10401.18001823796
 20
-22850.15142712881
 10
10408.85507817769
 20
-22829.40271284649
 10
10417.35726997212
 20
-22809.69200714277
 10
10426.64941570065
 20
-22791.10549991825
 10
10436.69088317501
 20
-22773.72446524025
 10
10447.43776361134
 20
-22757.62490595101
 10
10458.84306363695
 20
-22742.87722132697
 10
10470.85691077535
 20
-22729.54589924063
 10
10483.4267715318
 20
-22717.6892341711
 10
10496.49768110202
 20
-22707.35907229856
 10
10510.01248372452
 20
-22698.60058479189
 10
10523.91208260648
 20
-22691.45207028901
 10
10538.13569833836
 20
-22685.94478742487
 10
10552.62113466774
 20
-22682.10281814569
 10
10567.30505046587
 20
-22679.94296240623
 10
10582.12323670763
 20
-22679.47466470592
 10
10597.01089723218
 20
-22680.69997279097
 10
10611.90293209098
 20
-22683.61352870154
 10
10626.73422220161
 20
-22688.20259219891
 10
10641.43991410783
 20
-22694.4470964752
 10
10655.95570356054
 20
-22702.31973590306
 10
10670.21811670527
 20
-22711.78608543308
 10
10684.1647876384
 20
-22722.80475112693
 10
10697.7347311161
 20
-22735.32755116359
 10
10710.8686092299
 20
-22749.2997265245
 10
10723.50899087102
 20
-22764.66018044204
 10
10735.60060286639
 20
-22781.34174555911
  0
ARC
  5
1089A
330
1F07
100
AcDbEntity
  8
器具
100
AcDbCircle
 10
10623.8868358872
 20
-23327.30716590883
 30
0.0
 40
134.2040330299851
100
AcDbArc
 50
259.6613080604095
 51
289.1041795500673
  0
ARC
  5
1089B
330
1F07
100
AcDbEntity
  8
器具
100
AcDbCircle
 10
10584.97180532328
 20
-22805.23707984358
 30
0.0
 40
134.1380250448122
100
AcDbArc
 50
80.31095491940085
 51
109.0467826438263
  0
LWPOLYLINE
  5
1089C
330
1F07
100
AcDbEntity
  8
器具
100
AcDbPolyline
 90
       38
 70
   128
 43
0.0
 10
10764.08578957791
 20
-22773.62555139204
 10
10775.69051610154
 20
-22791.7228496718
 10
10786.64439553844
 20
-22810.98980435438
 10
10796.9005216975
 20
-22831.34391138243
 10
10806.41497627047
 20
-22852.69801134477
 10
10815.1470169027
 20
-22874.96066270648
 10
10823.05925165543
 20
-22898.03653337725
 10
10830.11779912417
 20
-22921.82680893548
 10
10836.29243352652
 20
-22946.22961576987
 10
10841.55671412867
 20
-22971.14045731408
 10
10845.88809847286
 20
-22996.45266152111
 10
10849.26803890816
 20
-23022.05783764626
 10
10851.68206200769
 20
-23047.84634039403
 10
10853.11983055663
 20
-23073.70773943704
 10
10853.57518780806
 20
-23099.53129229402
 10
10853.04618385377
 20
-23125.20641854697
 10
10851.53508396706
 20
-23150.62317336408
 10
10849.04835891217
 20
-23175.67271829847
 10
10845.59665722643
 20
-23200.24778735387
 10
10841.19475962681
 20
-23224.24314631084
 10
10835.86151571492
 20
-23247.55604335948
 10
10829.61976325876
 20
-23270.08664909457
 10
10822.49623040125
 20
-23291.73848400405
 10
10814.52142120508
 20
-23312.41883160676
 10
10805.72948502531
 20
-23332.03913547915
 10
10796.15807028261
 20
-23350.5153784678
 10
10785.84816324616
 20
-23367.76844246413
 10
10774.84391252018
 20
-23383.72444719871
 10
10763.19243999372
 20
-23398.31506661007
 10
10750.94363906377
 20
-23411.47782142616
 10
10738.14996097425
 20
-23423.1563467096
 10
10724.8661902191
 20
-23433.30063322219
 10
10711.14920994509
 20
-23441.86724157216
 10
10697.05775836667
 20
-23448.81948822717
 10
10682.65217724292
 20
-23454.12760259962
 10
10667.99415348534
 20
-23457.76885452853
 10
10653.14645500039
 20
-23459.72765161502
 10
10653.12792814767
 20
-23459.72903369192
  0
LWPOLYLINE
  5
1089D
330
1F07
100
AcDbEntity
  8
器具
100
AcDbPolyline
 90
       13
 70
   128
 43
0.0
 10
10594.27190296329
 20
-22670.01020550851
 10
10609.22716919887
 20
-22669.74363321222
 10
10624.26293680911
 20
-22671.1676689735
 10
10639.29629347513
 20
-22674.27759692922
 10
10654.26286405734
 20
-22679.06009989085
 10
10669.09855940099
 20
-22685.49469844678
 10
10683.73985078162
 20
-22693.55383865747
 10
10698.12404194281
 20
-22703.20301004786
 10
10712.18953757001
 20
-22714.40089338409
 10
10725.87610704889
 20
-22727.09953761119
 10
10739.12514238984
 20
-22741.24456518454
 10
10751.8799091895
 20
-22756.77540492508
 10
10764.08578957791
 20
-22773.62555139204
  0
LWPOLYLINE
  5
1089E
330
1F07
100
AcDbEntity
  8
器具
100
AcDbPolyline
 90
        9
 70
   128
 43
0.0
 10
10689.78651375307
 20
-22812.97359449819
 10
10688.80903799892
 20
-22817.10512488604
 10
10688.86094075332
 20
-22821.70293427195
 10
10689.93432029109
 20
-22826.06704785578
 10
10691.86576430996
 20
-22829.53306890557
 10
10694.36122796452
 20
-22831.57332713542
 10
10697.04079953594
 20
-22831.87721172557
 10
10699.49653854252
 20
-22830.39845900149
 10
10701.35458098255
 20
-22827.36219566035
  0
LINE
  5
1089F
330
1F07
100
AcDbEntity
  8
器具
100
AcDbLine
 10
10701.35458098256
 20
-22827.36219566046
 30
0.0
 11
10716.37925549714
 21
-22796.5302206604
 31
0.0
  0
LWPOLYLINE
  5
108A0
330
1F07
100
AcDbEntity
  8
器具
100
AcDbPolyline
 90
       10
 70
   128
 43
0.0
 10
10716.37925549714
 20
-22796.53022066046
 10
10717.30223680249
 20
-22791.78337442976
 10
10717.25615580211
 20
-22786.64544157774
 10
10716.24594294441
 20
-22781.66615659508
 10
10714.37968622501
 20
-22777.37827940302
 10
10711.85706627507
 20
-22774.24059256058
 10
10708.94799148852
 20
-22772.58881370615
 10
10705.96371909474
 20
-22772.59967535724
 10
10703.22355211253
 20
-22774.27201536879
 10
10701.02067543531
 20
-22777.42690127614
  0
LINE
  5
108A1
330
1F07
100
AcDbEntity
  8
器具
100
AcDbLine
 10
10701.02067543526
 20
-22777.42690127612
 30
0.0
 11
10689.78651375302
 21
-22812.97359449828
 31
0.0
  0
LWPOLYLINE
  5
108A2
330
1F07
100
AcDbEntity
  8
器具
100
AcDbPolyline
 90
        9
 70
   128
 43
0.0
 10
10664.25006761983
 20
-22787.92696328273
 10
10663.67500273613
 20
-22792.32679438032
 10
10664.14544382693
 20
-22796.91553512631
 10
10665.58977049992
 20
-22800.99459133874
 10
10667.78809711258
 20
-22803.94296368617
 10
10670.40574836549
 20
-22805.31178920583
 10
10673.04421058498
 20
-22804.89267662058
 10
10675.30180181495
 20
-22802.74943202272
 10
10676.83482425745
 20
-22799.20834497308
  0
LINE
  5
108A3
330
1F07
100
AcDbEntity
  8
器具
100
AcDbLine
 10
10676.8348242574
 20
-22799.20834497305
 30
0.0
 11
10688.65781479655
 21
-22764.28746787656
 31
0.0
  0
LWPOLYLINE
  5
108A4
330
1F07
100
AcDbEntity
  8
器具
100
AcDbPolyline
 90
       10
 70
   128
 43
0.0
 10
10688.65781479665
 20
-22764.28746787649
 10
10689.12359496978
 20
-22759.28636979562
 10
10688.60950192821
 20
-22754.15535350225
 10
10687.17054119004
 20
-22749.44341344888
 10
10684.96067474449
 20
-22745.65470491404
 10
10682.21634783842
 20
-22743.19460177475
 10
10679.23119045761
 20
-22742.32632341981
 10
10676.32460031202
 20
-22743.14277152281
 10
10673.80756878449
 20
-22745.55659000246
 10
10671.94940633397
 20
-22749.30951170836
  0
LINE
  5
108A5
330
1F07
100
AcDbEntity
  8
器具
100
AcDbLine
 10
10671.94940633392
 20
-22749.30951170831
 30
0.0
 11
10664.25006761974
 21
-22787.92696328268
 31
0.0
  0
LWPOLYLINE
  5
108A6
330
1F07
100
AcDbEntity
  8
器具
100
AcDbPolyline
 90
        9
 70
   128
 43
0.0
 10
10637.08260221428
 20
-22769.746721211
 10
10636.92410820668
 20
-22774.30651457491
 10
10637.8015038119
 20
-22778.77319665428
 10
10639.58121350371
 20
-22782.46675559405
 10
10641.99229261319
 20
-22784.82488052726
 10
10644.66767620289
 20
-22785.48856830902
 10
10647.20006137361
 20
-22784.35677849143
 10
10649.20391544002
 20
-22781.6018158143
 10
10650.37416978403
 20
-22777.64309837163
  0
LINE
  5
108A7
330
1F07
100
AcDbEntity
  8
器具
100
AcDbLine
 10
10650.37416978398
 20
-22777.64309837155
 30
0.0
 11
10658.70435508089
 21
-22739.4931870687
 31
0.0
  0
LWPOLYLINE
  5
108A8
330
1F07
100
AcDbEntity
  8
器具
100
AcDbPolyline
 90
       10
 70
   128
 43
0.0
 10
10658.70435508099
 20
-22739.49318706837
 10
10658.70146507078
 20
-22734.36098076982
 10
10657.73201866301
 20
-22729.36322368551
 10
10655.89974203388
 20
-22725.03465216344
 10
10653.40068010819
 20
-22721.8384028643
 10
10650.50222068165
 20
-22720.11645933136
 10
10647.51448519067
 20
-22720.05306137074
 10
10644.75714718781
 20
-22721.65499226412
 10
10642.52522878604
 20
-22724.7508529899
 10
10641.05753468767
 20
-22729.00940110632
  0
LINE
  5
108A9
330
1F07
100
AcDbEntity
  8
器具
100
AcDbLine
 10
10641.05753468757
 20
-22729.00940110632
 30
0.0
 11
10637.08260221419
 21
-22769.74672121101
 31
0.0
  0
LWPOLYLINE
  5
108AA
330
1F07
100
AcDbEntity
  8
器具
100
AcDbPolyline
 90
        9
 70
   128
 43
0.0
 10
10608.95307069666
 20
-22758.88052618032
 10
10609.21505021368
 20
-22763.48800456425
 10
10610.47779594314
 20
-22767.72264344077
 10
10612.54906629329
 20
-22770.93975742842
 10
10615.11352913104
 20
-22772.64957008466
 10
10617.78076823443
 20
-22772.59177793332
 10
10620.14472062978
 20
-22770.77517930482
 10
10621.84549599284
 20
-22767.47633487325
 10
10622.62416669439
 20
-22763.19746379875
  0
LINE
  5
108AB
330
1F07
100
AcDbEntity
  8
器具
100
AcDbLine
 10
10622.62416669435
 20
-22763.19746379884
 30
0.0
 11
10627.25642993964
 21
-22722.75789571786
 31
0.0
  0
LWPOLYLINE
  5
108AC
330
1F07
100
AcDbEntity
  8
器具
100
AcDbPolyline
 90
       10
 70
   128
 43
0.0
 10
10627.25642993968
 20
-22722.75789571792
 10
10626.78494090771
 20
-22717.62095315298
 10
10625.38401212293
 20
-22712.87951664344
 10
10623.20353633331
 20
-22709.04089744921
 10
10620.47681412729
 20
-22706.51580965124
 10
10617.49559187067
 20
-22705.57442568962
 10
10614.5788462305
 20
-22706.31746919146
 10
10612.03865518395
 20
-22708.66543801994
 10
10610.14680714642
 20
-22712.36711062643
 10
10609.10572090063
 20
-22717.02642556555
  0
LINE
  5
108AD
330
1F07
100
AcDbEntity
  8
器具
100
AcDbLine
 10
10609.10572090053
 20
-22717.02642556558
 30
0.0
 11
10608.95307069656
 21
-22758.88052618036
 31
0.0
  0
LWPOLYLINE
  5
108AE
330
1F07
100
AcDbEntity
  8
器具
100
AcDbPolyline
 90
        9
 70
   128
 43
0.0
 10
10580.55411548908
 20
-22755.59593997459
 10
10581.2301177264
 20
-22760.13765196991
 10
10582.8471205893
 20
-22764.03597678021
 10
10585.15895004886
 20
-22766.69742979203
 10
10587.81365102705
 20
-22767.71682891021
 10
10590.40706936539
 20
-22766.93897985962
 10
10592.54438063204
 20
-22764.48230310756
 10
10593.90019855931
 20
-22760.72080541929
 10
10594.26811215884
 20
-22756.2271407201
  0
LINE
  5
108AF
330
1F07
100
AcDbEntity
  8
器具
100
AcDbLine
 10
10594.26811215875
 20
-22756.22714072008
 30
0.0
 11
10595.08839166051
 21
-22714.4936722383
 31
0.0
  0
LWPOLYLINE
  5
108B0
330
1F07
100
AcDbEntity
  8
器具
100
AcDbPolyline
 90
       10
 70
   128
 43
0.0
 10
10595.08839166056
 20
-22714.49367223835
 10
10594.15991323007
 20
-22709.47848198184
 10
10592.36199758432
 20
-22705.11011595029
 10
10589.88701318587
 20
-22701.85596862803
 10
10586.99977164796
 20
-22700.06421837311
 10
10584.00919414735
 20
-22699.92657398004
 10
10581.23525831761
 20
-22701.45776274738
 10
10578.97476216063
 20
-22704.49395472598
 10
10577.46956806404
 20
-22708.710291748
 10
10576.88072467001
 20
-22713.65564571306
  0
LINE
  5
108B1
330
1F07
100
AcDbEntity
  8
器具
100
AcDbLine
 10
10576.88072466991
 20
-22713.65564571318
 30
0.0
 11
10580.55411548899
 21
-22755.59593997466
 31
0.0
  0
LWPOLYLINE
  5
108B2
330
1F07
100
AcDbEntity
  8
器具
100
AcDbPolyline
 90
        9
 70
   128
 43
0.0
 10
10552.5850131221
 20
-22759.97384000769
 10
10553.65839265987
 20
-22764.33795359151
 10
10555.58983667883
 20
-22767.80397464131
 10
10558.0853003333
 20
-22769.84423287116
 10
10560.76487190482
 20
-22770.14811746151
 10
10563.2206109113
 20
-22768.66936473723
 10
10565.07865335142
 20
-22765.63310139628
 10
10566.05612910557
 20
-22761.50157100806
 10
10566.00422635117
 20
-22756.90376162251
  0
LINE
  5
108B3
330
1F07
100
AcDbEntity
  8
器具
100
AcDbLine
 10
10566.00422635117
 20
-22756.90376162254
 30
0.0
 11
10562.99232410339
 21
-22714.90400923951
 31
0.0
  0
LWPOLYLINE
  5
108B4
330
1F07
100
AcDbEntity
  8
器具
100
AcDbPolyline
 90
       10
 70
   128
 43
0.0
 10
10562.99232410343
 20
-22714.90400923946
 10
10561.62971849562
 20
-22710.13406192022
 10
10559.47908663893
 20
-22706.24633003577
 10
10556.77053596155
 20
-22703.65678249271
 10
10553.79386856116
 20
-22702.64248861836
 10
10550.86757376036
 20
-22703.31197305564
 10
10548.30475124619
 20
-22705.59360413932
 10
10546.3796108975
 20
-22709.24325814529
 10
10545.29813361656
 20
-22713.8704393724
 10
10545.17603235118
 20
-22718.98006133564
  0
LINE
  5
108B5
330
1F07
100
AcDbEntity
  8
器具
100
AcDbLine
 10
10545.17603235114
 20
-22718.98006133573
 30
0.0
 11
10552.58501312205
 21
-22759.9738400078
 31
0.0
  0
LWPOLYLINE
  5
108B6
330
1F07
100
AcDbEntity
  8
器具
100
AcDbPolyline
 90
        9
 70
   128
 43
0.0
 10
10525.73445571734
 20
-22771.90642785082
 10
10527.17878239033
 20
-22775.98548406343
 10
10529.37710900308
 20
-22778.93385641105
 10
10531.99476025598
 20
-22780.30268193071
 10
10534.63322247547
 20
-22779.88356934545
 10
10536.89081370545
 20
-22777.74032474722
 10
10538.42383614794
 20
-22774.19923769758
 10
10538.99890103155
 20
-22769.79940659999
 10
10538.52845994084
 20
-22765.210665854
  0
LINE
  5
108B7
330
1F07
100
AcDbEntity
  8
器具
100
AcDbLine
 10
10538.52845994079
 20
-22765.210665854
 30
0.0
 11
10531.75853897384
 21
-22723.97880286307
 31
0.0
  0
LWPOLYLINE
  5
108B8
330
1F07
100
AcDbEntity
  8
器具
100
AcDbPolyline
 90
       10
 70
   128
 43
0.0
 10
10531.75853897389
 20
-22723.97880286279
 10
10529.99535806152
 20
-22719.5715504141
 10
10527.5449656875
 20
-22716.26018153873
 10
10524.6695422375
 20
-22714.39899702902
 10
10521.67674440524
 20
-22714.18713481696
 10
10518.88678739327
 20
-22715.64726315616
 10
10516.59818339189
 20
-22718.62315522657
 10
10515.05580219405
 20
-22722.79640466512
 10
10514.42467128885
 20
-22727.72049353896
 10
10514.77231869159
 20
-22732.86856764977
  0
LINE
  5
108B9
330
1F07
100
AcDbEntity
  8
器具
100
AcDbLine
 10
10514.77231869154
 20
-22732.86856764986
 30
0.0
 11
10525.73445571734
 21
-22771.90642785093
 31
0.0
  0
LWPOLYLINE
  5
108BA
330
1F07
100
AcDbEntity
  8
器具
100
AcDbPolyline
 90
        9
 70
   128
 43
0.0
 10
10500.66359311186
 20
-22791.09988358985
 10
10502.44330280256
 20
-22794.79344252944
 10
10504.85438191204
 20
-22797.15156746247
 10
10507.52976550173
 20
-22797.81525524441
 10
10510.06215067356
 20
-22796.68346542701
 10
10512.06600473877
 20
-22793.92850274988
 10
10513.23625908399
 20
-22789.9697853072
 10
10513.39475309039
 20
-22785.40999194328
 10
10512.51735748517
 20
-22780.94330986355
  0
LINE
  5
108BB
330
1F07
100
AcDbEntity
  8
器具
100
AcDbLine
 10
10512.51735748512
 20
-22780.9433098635
 30
0.0
 11
10502.15611572106
 21
-22741.49460157174
 31
0.0
  0
LWPOLYLINE
  5
108BC
330
1F07
100
AcDbEntity
  8
器具
100
AcDbPolyline
 90
       10
 70
   128
 43
0.0
 10
10502.15611572105
 20
-22741.49460157162
 10
10500.03577486794
 20
-22737.55856517575
 10
10497.34595877024
 20
-22734.9050962005
 10
10494.37446501566
 20
-22733.81810326412
 10
10491.43922936766
 20
-22734.41388946504
 10
10488.85430814469
 20
-22736.62870850025
 10
10486.89627568131
 20
-22740.22558521805
 10
10485.77463217979
 20
-22744.81967083819
 10
10485.60938818627
 20
-22749.91941994872
 10
10486.41822402527
 20
-22754.979183537
  0
LINE
  5
108BD
330
1F07
100
AcDbEntity
  8
器具
100
AcDbLine
 10
10486.41822402518
 20
-22754.97918353706
 30
0.0
 11
10500.66359311181
 21
-22791.09988358996
 31
0.0
  0
LWPOLYLINE
  5
108BE
330
1F07
100
AcDbEntity
  8
器具
100
AcDbPolyline
 90
        9
 70
   128
 43
0.0
 10
10477.98975314668
 20
-22817.08160064481
 10
10480.06102349803
 20
-22820.29871463191
 10
10482.62548633468
 20
-22822.0085272887
 10
10485.29272543806
 20
-22821.95073513699
 10
10487.65667783332
 20
-22820.13413650867
 10
10489.35745319647
 20
-22816.83529207692
 10
10490.13612389794
 20
-22812.55642100242
 10
10489.87414437981
 20
-22807.94894261849
 10
10488.61139865034
 20
-22803.71430374197
  0
LINE
  5
108BF
330
1F07
100
AcDbEntity
  8
器具
100
AcDbLine
 10
10488.6113986503
 20
-22803.71430374201
 30
0.0
 11
10474.91396424877
 21
-22767.02010827027
 31
0.0
  0
LWPOLYLINE
  5
108C0
330
1F07
100
AcDbEntity
  8
器具
100
AcDbPolyline
 90
       10
 70
   128
 43
0.0
 10
10474.91396424881
 20
-22767.02010827019
 10
10472.48867328514
 20
-22763.65220620595
 10
10469.62566566215
 20
-22761.72197434356
 10
10466.63126964059
 20
-22761.43593835413
 10
10463.82587141956
 20
-22762.82470273435
 10
10461.50963532624
 20
-22765.73967627056
 10
10459.93038765857
 20
-22769.86897059364
 10
10459.25710043948
 20
-22774.77077076081
 10
10459.56181221356
 20
-22779.920607359
 10
10460.81192026514
 20
-22784.7674722532
  0
LINE
  5
108C1
330
1F07
100
AcDbEntity
  8
器具
100
AcDbLine
 10
10460.81192026509
 20
-22784.76747225327
 30
0.0
 11
10477.98975314663
 21
-22817.08160064474
 31
0.0
  0
LWPOLYLINE
  5
108C2
330
1F07
100
AcDbEntity
  8
器具
100
AcDbPolyline
 90
        9
 70
   128
 43
0.0
 10
10458.27124101381
 20
-22849.21182291297
 10
10460.58307047338
 20
-22851.87327592481
 10
10463.23777145156
 20
-22852.89267504298
 10
10465.8311897899
 20
-22852.11482599238
 10
10467.96850105655
 20
-22849.65814924034
 10
10469.32431898382
 20
-22845.89665155206
 10
10469.69223258335
 20
-22841.40298685267
 10
10469.01623034715
 20
-22836.86127485754
 10
10467.39922748415
 20
-22832.96295004706
  0
LINE
  5
108C3
330
1F07
100
AcDbEntity
  8
器具
100
AcDbLine
 10
10467.39922748411
 20
-22832.96295004718
 30
0.0
 11
10450.70287673776
 21
-22799.92680026917
 31
0.0
  0
LWPOLYLINE
  5
108C4
330
1F07
100
AcDbEntity
  8
器具
100
AcDbPolyline
 90
       10
 70
   128
 43
0.0
 10
10450.70287673786
 20
-22799.92680026922
 10
10448.0323543775
 20
-22797.20996146283
 10
10445.06665197811
 20
-22796.05049542797
 10
10442.12308565922
 20
-22796.57245954072
 10
10439.5166030789
 20
-22798.72000611246
 10
10437.52608553466
 20
-22802.26335782664
 10
10436.36450898109
 20
-22806.82339282454
 10
10436.15615660953
 20
-22811.91220894978
 10
10436.92332113712
 20
-22816.98532696833
 10
10438.58391959184
 20
-22821.49994726848
  0
LINE
  5
108C5
330
1F07
100
AcDbEntity
  8
器具
100
AcDbLine
 10
10438.58391959179
 20
-22821.4999472686
 30
0.0
 11
10458.27124101382
 21
-22849.211822913
 31
0.0
  0
LWPOLYLINE
  5
108C6
330
1F07
100
AcDbEntity
  8
器具
100
AcDbPolyline
 90
        9
 70
   128
 43
0.0
 10
10441.99359192269
 20
-22886.69939768862
 10
10444.48905557715
 20
-22888.73965591883
 10
10447.16862714868
 20
-22889.04354050881
 10
10449.62436615636
 20
-22887.56478778492
 10
10451.48240859529
 20
-22884.52852444377
 10
10452.45988434943
 20
-22880.39699405572
 10
10452.40798159503
 20
-22875.79918466982
 10
10451.33460205726
 20
-22871.43507108619
 10
10449.40315803951
 20
-22867.96905003656
  0
LINE
  5
108C7
330
1F07
100
AcDbEntity
  8
器具
100
AcDbLine
 10
10449.40315803951
 20
-22867.96905003659
 30
0.0
 11
10430.11901051635
 21
-22839.40440560055
 31
0.0
  0
LWPOLYLINE
  5
108C8
330
1F07
100
AcDbEntity
  8
器具
100
AcDbPolyline
 90
       10
 70
   128
 43
0.0
 10
10430.11901051635
 20
-22839.40440560058
 10
10427.26901388133
 20
-22837.4055276401
 10
10424.27364214265
 20
-22837.04537733434
 10
10421.45338589597
 20
-22838.36248906054
 10
10419.10999920899
 20
-22841.21593809989
 10
10417.49421336221
 20
-22845.30041891333
 10
10416.77890979261
 20
-22850.17891139067
 10
10417.04062259462
 20
-22855.32943993254
 10
10418.25134973959
 20
-22860.20092236831
 10
10420.28154915255
 20
-22864.27213314005
  0
LINE
  5
108C9
330
1F07
100
AcDbEntity
  8
器具
100
AcDbLine
 10
10420.28154915246
 20
-22864.27213314004
 30
0.0
 11
10441.9935919226
 21
-22886.69939768866
 31
0.0
  0
LWPOLYLINE
  5
108CA
330
1F07
100
AcDbEntity
  8
器具
100
AcDbPolyline
 90
        9
 70
   128
 43
0.0
 10
10429.55761561715
 20
-22928.62125646655
 10
10432.17526687005
 20
-22929.9900819864
 10
10434.81372908954
 20
-22929.57096940114
 10
10437.07132031952
 20
-22927.42772480291
 10
10438.60434276202
 20
-22923.88663775327
 10
10439.17940764562
 20
-22919.48680665568
 10
10438.70896655491
 20
-22914.89806590969
 10
10437.26463988304
 20
-22910.81900969708
 10
10435.06631327038
 20
-22907.87063734965
  0
LINE
  5
108CB
330
1F07
100
AcDbEntity
  8
器具
100
AcDbLine
 10
10435.06631327033
 20
-22907.8706373496
 30
0.0
 11
10413.66920868368
 21
-22884.48085460233
 31
0.0
  0
LWPOLYLINE
  5
108CC
330
1F07
100
AcDbEntity
  8
器具
100
AcDbPolyline
 90
       10
 70
   128
 43
0.0
 10
10413.66920868373
 20
-22884.48085460238
 10
10410.70991414966
 20
-22883.24915649751
 10
10407.75862906466
 20
-22883.69719001654
 10
10405.13112695966
 20
-22885.77701769458
 10
10403.10853812361
 20
-22889.26610781562
 10
10401.90726998359
 20
-22893.79114425502
 10
10401.65585254579
 20
-22898.86796953613
 10
10402.38118628574
 20
-22903.95338738823
 10
10404.00566392527
 20
-22908.50328217651
 10
10406.35547404868
 20
-22912.03083669838
  0
LINE
  5
108CD
330
1F07
100
AcDbEntity
  8
器具
100
AcDbLine
 10
10406.35547404864
 20
-22912.03083669836
 30
0.0
 11
10429.5576156171
 21
-22928.62125646666
 31
0.0
  0
LWPOLYLINE
  5
108CE
330
1F07
100
AcDbEntity
  8
器具
100
AcDbPolyline
 90
        9
 70
   128
 43
0.0
 10
10421.26952710524
 20
-22973.94514395281
 10
10423.94491069503
 20
-22974.60883173476
 10
10426.47729586557
 20
-22973.47704191717
 10
10428.48114993206
 20
-22970.72207924023
 10
10429.65140427608
 20
-22966.76336179754
 10
10429.80989828369
 20
-22962.20356843362
 10
10428.93250267847
 20
-22957.73688635389
 10
10427.15279298665
 20
-22954.04332741449
 10
10424.74171387717
 20
-22951.68520248128
  0
LINE
  5
108CF
330
1F07
100
AcDbEntity
  8
器具
100
AcDbLine
 10
10424.74171387708
 20
-22951.68520248126
 30
0.0
 11
10401.75851995527
 21
-22934.04621549999
 31
0.0
  0
LWPOLYLINE
  5
108D0
330
1F07
100
AcDbEntity
  8
器具
100
AcDbPolyline
 90
       10
 70
   128
 43
0.0
 10
10401.75851995532
 20
-22934.04621550006
 10
10398.76279517432
 20
-22933.61202574545
 10
10395.92826717646
 20
-22934.85721101744
 10
10393.55821703651
 20
-22937.64854238678
 10
10391.90622889928
 20
-22941.68736061173
 10
10391.14905767518
 20
-22946.54153126244
 10
10391.3677171013
 20
-22951.69168105962
 10
10392.53881165389
 20
-22956.58676835686
 10
10394.53703975848
 20
-22960.7030419875
 10
10397.14860046876
 20
-22963.60008016028
  0
LINE
  5
108D1
330
1F07
100
AcDbEntity
  8
器具
100
AcDbLine
 10
10397.14860046872
 20
-22963.6000801604
 30
0.0
 11
10421.2695271052
 21
-22973.94514395293
 31
0.0
  0
LWPOLYLINE
  5
108D2
330
1F07
100
AcDbEntity
  8
器具
100
AcDbPolyline
 90
        9
 70
   128
 43
0.0
 10
10417.33340663411
 20
-23021.55503561613
 10
10420.00064573741
 20
-23021.4972434648
 10
10422.36459813266
 20
-23019.6806448363
 10
10424.06537349591
 20
-23016.38180040454
 10
10424.84404419737
 20
-23012.10292933022
 10
10424.58206467915
 20
-23007.49545094592
 10
10423.31931894978
 20
-23003.2608120694
 10
10421.24804859962
 20
-23000.0436980823
 10
10418.68358576289
 20
-22998.33388542551
  0
LINE
  5
108D3
330
1F07
100
AcDbEntity
  8
器具
100
AcDbLine
 10
10418.68358576285
 20
-22998.33388542558
 30
0.0
 11
10394.68022501494
 21
-22986.88002461003
 31
0.0
  0
LWPOLYLINE
  5
108D4
330
1F07
100
AcDbEntity
  8
器具
100
AcDbPolyline
 90
       10
 70
   128
 43
0.0
 10
10394.68022501499
 20
-22986.88002461007
 10
10391.72183467546
 20
-22987.25403439882
 10
10389.07385924991
 20
-22989.26571083003
 10
10387.01961957491
 20
-22992.69981404866
 10
10385.77890956861
 20
-22997.18891126829
 10
10385.4844793289
 20
-23002.2526903387
 10
10386.16783149789
 20
-23007.34935087159
 10
10387.75585062756
 20
-23011.9335743191
 10
10390.07862618978
 20
-23015.51487047452
 10
10392.88763219599
 20
-23017.71005760362
  0
LINE
  5
108D5
330
1F07
100
AcDbEntity
  8
器具
100
AcDbLine
 10
10392.88763219595
 20
-23017.71005760355
 30
0.0
 11
10417.33340663401
 21
-23021.55503561615
 31
0.0
  0
LWPOLYLINE
  5
108D6
330
1F07
100
AcDbEntity
  8
器具
100
AcDbPolyline
 90
        9
 70
   128
 43
0.0
 10
10417.84617455252
 20
-23070.27861791584
 10
10420.43959289085
 20
-23069.50076886525
 10
10422.5769041563
 20
-23067.04409211321
 10
10423.93272208357
 20
-23063.28259442512
 10
10424.30063568421
 20
-23058.78892972573
 10
10423.62463344681
 20
-23054.2472177304
 10
10422.00763058501
 20
-23050.34889292011
 10
10419.69580112443
 20
-23047.68743990829
 10
10417.04110014616
 20
-23046.66804079011
  0
LINE
  5
108D7
330
1F07
100
AcDbEntity
  8
器具
100
AcDbLine
 10
10417.04110014611
 20
-23046.66804079018
 30
0.0
 11
10392.60861497766
 21
-23041.68133820736
 31
0.0
  0
LWPOLYLINE
  5
108D8
330
1F07
100
AcDbEntity
  8
器具
100
AcDbPolyline
 90
       10
 70
   128
 43
0.0
 10
10392.60861497771
 20
-23041.68133820732
 10
10389.76040446694
 20
-23042.85433817714
 10
10387.36418355908
 20
-23045.58297161695
 10
10385.67633654621
 20
-23049.57528766656
 10
10384.87745506815
 20
-23054.40412740924
 10
10385.05301566261
 20
-23059.55282785262
 10
10386.18423417625
 20
-23064.47050242444
 10
10388.15007558346
 20
-23068.63098322623
 10
10390.74020415976
 20
-23071.58911850933
 10
10393.67748840992
 20
-23073.02840180217
  0
LINE
  5
108D9
330
1F07
100
AcDbEntity
  8
器具
100
AcDbLine
 10
10393.67748840987
 20
-23073.02840180212
 30
0.0
 11
10417.84617455247
 21
-23070.27861791587
 31
0.0
  0
LWPOLYLINE
  5
108DA
330
1F07
100
AcDbEntity
  8
器具
100
AcDbPolyline
 90
        9
 70
   128
 43
0.0
 10
10422.79520481181
 20
-23118.91615455094
 10
10425.25094381848
 20
-23117.43740182686
 10
10427.10898625851
 20
-23114.40113848591
 10
10428.08646201275
 20
-23110.26960809805
 10
10428.03455925835
 20
-23105.67179871213
 10
10426.96117972058
 20
-23101.30768512812
 10
10425.02973570162
 20
-23097.84166407851
 10
10422.53427204715
 20
-23095.80140584866
 10
10419.85470047563
 20
-23095.49752125851
  0
LINE
  5
108DB
330
1F07
100
AcDbEntity
  8
器具
100
AcDbLine
 10
10419.85470047559
 20
-23095.49752125848
 30
0.0
 11
10395.59469975801
 21
-23097.10076607558
 31
0.0
  0
LWPOLYLINE
  5
108DC
330
1F07
100
AcDbEntity
  8
器具
100
AcDbPolyline
 90
       10
 70
   128
 43
0.0
 10
10395.59469975806
 20
-23097.10076607555
 10
10392.92680147079
 20
-23099.04387307404
 10
10390.84133799094
 20
-23102.42227551146
 10
10389.56144403609
 20
-23106.87450032131
 10
10389.22406220073
 20
-23111.92418052625
 10
10389.86529074349
 20
-23117.03102425048
 10
10391.41652124814
 20
-23121.64862339213
 10
10393.71177939193
 20
-23125.28291670369
 10
10396.50548342079
 20
-23127.54505200616
 10
10399.49872023008
 20
-23128.19299153106
  0
LINE
  5
108DD
330
1F07
100
AcDbEntity
  8
器具
100
AcDbLine
 10
10399.49872023
 20
-23128.19299153113
 30
0.0
 11
10422.79520481181
 21
-23118.91615455106
 31
0.0
  0
LWPOLYLINE
  5
108DE
330
1F07
100
AcDbEntity
  8
器具
100
AcDbPolyline
 90
        9
 70
   128
 43
0.0
 10
10432.05863586316
 20
-23166.27002795129
 10
10434.31622709425
 20
-23164.12678335306
 10
10435.84924953564
 20
-23160.58569630342
 10
10436.42431441924
 20
-23156.18586520583
 10
10435.95387332965
 20
-23151.59712445984
 10
10434.50954665666
 20
-23147.51806824722
 10
10432.311220044
 20
-23144.5696958998
 10
10429.69356879101
 20
-23143.20087038032
 10
10427.05510657151
 20
-23143.6199829652
  0
LINE
  5
108DF
330
1F07
100
AcDbEntity
  8
器具
100
AcDbLine
 10
10427.05510657151
 20
-23143.61998296532
 30
0.0
 11
10403.56495203726
 21
-23151.77369797412
 31
0.0
  0
LWPOLYLINE
  5
108E0
330
1F07
100
AcDbEntity
  8
器具
100
AcDbPolyline
 90
       10
 70
   128
 43
0.0
 10
10403.56495203731
 20
-23151.77369797409
 10
10401.14305848545
 20
-23154.43906625811
 10
10399.41970346398
 20
-23158.38405021314
 10
10398.57927780374
 20
-23163.18655523212
 10
10398.71170307126
 20
-23168.332736014
 10
10399.80281038981
 20
-23173.27197557768
 10
10401.7358564404
 20
-23177.47579867353
 10
10404.30401444878
 20
-23180.49441613169
 10
10407.23250366501
 20
-23182.00485017479
 10
10410.20798960802
 20
-23181.84549151071
  0
LINE
  5
108E1
330
1F07
100
AcDbEntity
  8
器具
100
AcDbLine
 10
10410.20798960797
 20
-23181.84549151069
 30
0.0
 11
10432.05863586307
 21
-23166.27002795132
 31
0.0
  0
LWPOLYLINE
  5
108E2
330
1F07
100
AcDbEntity
  8
器具
100
AcDbPolyline
 90
        9
 70
   128
 43
0.0
 10
10445.40837128994
 20
-23211.17422859483
 10
10447.41222535645
 20
-23208.41926591788
 10
10448.58247970045
 20
-23204.46054847483
 10
10448.74097370797
 20
-23199.90075511128
 10
10447.86357810155
 20
-23195.43407303155
 10
10446.08386841094
 20
-23191.74051409195
 10
10443.67278930146
 20
-23189.38238915894
 10
10440.99740571168
 20
-23188.71870137698
 10
10438.46502053993
 20
-23189.8504911944
  0
LINE
  5
108E3
330
1F07
100
AcDbEntity
  8
器具
100
AcDbLine
 10
10438.46502053989
 20
-23189.85049119437
 30
0.0
 11
10416.32311775255
 21
-23204.35390487087
 31
0.0
  0
LWPOLYLINE
  5
108E4
330
1F07
100
AcDbEntity
  8
器具
100
AcDbPolyline
 90
       10
 70
   128
 43
0.0
 10
10416.3231177526
 20
-23204.35390487089
 10
10414.20686399237
 20
-23207.67590422729
 10
10412.88805215111
 20
-23212.09033110192
 10
10412.50778885458
 20
-23217.1248627183
 10
10413.10676047496
 20
-23222.24082802667
 10
10414.62087988466
 20
-23226.89084295965
 10
10416.88814347406
 20
-23230.57737793308
 10
10419.66596477211
 20
-23232.90599115795
 10
10422.65713005219
 20
-23233.62753204283
 10
10425.54159878996
 20
-23232.66479912875
  0
LINE
  5
108E5
330
1F07
100
AcDbEntity
  8
器具
100
AcDbLine
 10
10425.54159878991
 20
-23232.66479912887
 30
0.0
 11
10445.40837128989
 21
-23211.17422859478
 31
0.0
  0
LWPOLYLINE
  5
108E6
330
1F07
100
AcDbEntity
  8
器具
100
AcDbPolyline
 90
        9
 70
   128
 43
0.0
 10
10462.51569630165
 20
-23252.52306603356
 10
10464.21647166472
 20
-23249.22422160181
 10
10464.99514236507
 20
-23244.94535052731
 10
10464.73316284805
 20
-23240.33787214338
 10
10463.47041711859
 20
-23236.10323326686
 10
10461.39914676843
 20
-23232.88611927956
 10
10458.83468393068
 20
-23231.17630662277
 10
10456.16744482729
 20
-23231.23409877411
 10
10453.80349243195
 20
-23233.0506974028
  0
LINE
  5
108E7
330
1F07
100
AcDbEntity
  8
器具
100
AcDbLine
 10
10453.80349243195
 20
-23233.05069740277
 30
0.0
 11
10433.5550485228
 21
-23253.54668756767
 31
0.0
  0
LWPOLYLINE
  5
108E8
330
1F07
100
AcDbEntity
  8
器具
100
AcDbPolyline
 90
       10
 70
   128
 43
0.0
 10
10433.55504852284
 20
-23253.54668756767
 10
10431.79654374492
 20
-23257.44351934784
 10
10430.91474860829
 20
-23262.21869130217
 10
10431.00401102114
 20
-23267.36128263792
 10
10432.05478032478
 20
-23272.32106042854
 10
10433.95462917948
 20
-23276.56735193059
 10
10436.50028275344
 20
-23279.64582405593
 10
10439.41936816255
 20
-23281.2270948616
 10
10442.39955709036
 20
-23281.1419758566
 10
10445.12198342997
 20
-23279.39957437245
  0
LINE
  5
108E9
330
1F07
100
AcDbEntity
  8
器具
100
AcDbLine
 10
10445.12198342992
 20
-23279.39957437239
 30
0.0
 11
10462.51569630156
 21
-23252.52306603358
 31
0.0
  0
LWPOLYLINE
  5
108EA
330
1F07
100
AcDbEntity
  8
器具
100
AcDbPolyline
 90
        9
 70
   128
 43
0.0
 10
10482.95937177854
 20
-23289.29839466044
 10
10484.31518970581
 20
-23285.53689697235
 10
10484.68310330645
 20
-23281.04323227297
 10
10484.00710106905
 20
-23276.50152027801
 10
10482.39009820726
 20
-23272.60319546735
 10
10480.07826874667
 20
-23269.94174245571
 10
10477.42356776839
 20
-23268.92234333771
 10
10474.83014943007
 20
-23269.70019238794
 10
10472.69283816461
 20
-23272.15686914037
  0
LINE
  5
108EB
330
1F07
100
AcDbEntity
  8
器具
100
AcDbLine
 10
10472.69283816457
 20
-23272.15686914033
 30
0.0
 11
10454.83643702313
 21
-23298.1407564939
 31
0.0
  0
LWPOLYLINE
  5
108EC
330
1F07
100
AcDbEntity
  8
器具
100
AcDbPolyline
 90
       10
 70
   128
 43
0.0
 10
10454.83643702318
 20
-23298.14075649395
 10
10453.47898145106
 20
-23302.51646776582
 10
10453.05591574228
 20
-23307.5348042185
 10
10453.61250592505
 20
-23312.65882760834
 10
10455.08919948598
 20
-23317.34029169114
 10
10457.32799720259
 20
-23321.0783019728
 10
10460.08935832055
 20
-23323.47290904929
 10
10463.07783027062
 20
-23324.26790130042
 10
10465.97366070387
 20
-23323.37821831847
 10
10468.46700947343
 20
-23320.89905197063
  0
LINE
  5
108ED
330
1F07
100
AcDbEntity
  8
器具
100
AcDbLine
 10
10468.46700947338
 20
-23320.89905197071
 30
0.0
 11
10482.95937177849
 21
-23289.29839466046
 31
0.0
  0
LWPOLYLINE
  5
108EE
330
1F07
100
AcDbEntity
  8
器具
100
AcDbPolyline
 90
        9
 70
   128
 43
0.0
 10
10506.23600658298
 20
-23320.59468383504
 10
10507.21348233713
 20
-23316.46315344682
 10
10507.16157958384
 20
-23311.86534406127
 10
10506.08820004496
 20
-23307.50123047727
 10
10504.15675602721
 20
-23304.03520942764
 10
10501.66129237154
 20
-23301.99495119743
 10
10498.98172080011
 20
-23301.69106660764
 10
10496.52598179344
 20
-23303.16981933172
 10
10494.66793935461
 20
-23306.20608267269
  0
LINE
  5
108EF
330
1F07
100
AcDbEntity
  8
器具
100
AcDbLine
 10
10494.66793935452
 20
-23306.2060826728
 30
0.0
 11
10479.64326483877
 21
-23337.03805767287
 31
0.0
  0
LWPOLYLINE
  5
108F0
330
1F07
100
AcDbEntity
  8
器具
100
AcDbPolyline
 90
       10
 70
   128
 43
0.0
 10
10479.64326483882
 20
-23337.03805767275
 10
10478.72028353468
 20
-23341.78490390308
 10
10478.76636453505
 20
-23346.92283675549
 10
10479.77657739155
 20
-23351.90212173776
 10
10481.64283411216
 20
-23356.18999893021
 10
10484.16545406089
 20
-23359.32768577227
 10
10487.07452884744
 20
-23360.9794646267
 10
10490.05880124121
 20
-23360.96860297581
 10
10492.79896822463
 20
-23359.29626296443
 10
10495.00184490186
 20
-23356.14137705708
  0
LINE
  5
108F1
330
1F07
100
AcDbEntity
  8
器具
100
AcDbLine
 10
10495.00184490181
 20
-23356.14137705715
 30
0.0
 11
10506.23600658289
 21
-23320.59468383496
 31
0.0
  0
LWPOLYLINE
  5
108F2
330
1F07
100
AcDbEntity
  8
器具
100
AcDbPolyline
 90
        9
 70
   128
 43
0.0
 10
10531.77245271622
 20
-23345.6413150505
 10
10532.34751759983
 20
-23341.2414839529
 10
10531.87707650912
 20
-23336.6527432069
 10
10530.43274983614
 20
-23332.57368699429
 10
10528.23442322459
 20
-23329.62531464687
 10
10525.61677197168
 20
-23328.25648912739
 10
10522.97830975219
 20
-23328.67560171227
 10
10520.7207185211
 20
-23330.8188463105
 10
10519.18769607851
 20
-23334.35993336015
  0
LINE
  5
108F3
330
1F07
100
AcDbEntity
  8
器具
100
AcDbLine
 10
10519.18769607851
 20
-23334.35993336019
 30
0.0
 11
10507.36470554052
 21
-23369.2808104567
 31
0.0
  0
LWPOLYLINE
  5
108F4
330
1F07
100
AcDbEntity
  8
器具
100
AcDbPolyline
 90
       10
 70
   128
 43
0.0
 10
10507.36470554052
 20
-23369.28081045673
 10
10506.89892536618
 20
-23374.28190853759
 10
10507.41301840895
 20
-23379.41292483061
 10
10508.85197914592
 20
-23384.12486488397
 10
10511.06184559156
 20
-23387.9135734188
 10
10513.80617249874
 20
-23390.37367655846
 10
10516.79132987844
 20
-23391.24195491341
 10
10519.69792002515
 20
-23390.42550681003
 10
10522.21495155147
 20
-23388.01168833075
 10
10524.07311400209
 20
-23384.25876662487
  0
LINE
  5
108F5
330
1F07
100
AcDbEntity
  8
器具
100
AcDbLine
 10
10524.07311400199
 20
-23384.25876662494
 30
0.0
 11
10531.77245271618
 21
-23345.64131505056
 31
0.0
  0
LWPOLYLINE
  5
108F6
330
1F07
100
AcDbEntity
  8
器具
100
AcDbPolyline
 90
        9
 70
   128
 43
0.0
 10
10558.93991812288
 20
-23363.82155712186
 10
10559.09841212938
 20
-23359.2617637583
 10
10558.22101652415
 20
-23354.79508167857
 10
10556.44130683234
 20
-23351.10152273917
 10
10554.03022772286
 20
-23348.74339780596
 10
10551.35484413308
 20
-23348.079710024
 10
10548.82245896245
 20
-23349.21149984142
 10
10546.81860489594
 20
-23351.96646251855
 10
10545.64835055193
 20
-23355.92517996141
  0
LINE
  5
108F7
330
1F07
100
AcDbEntity
  8
器具
100
AcDbLine
 10
10545.64835055193
 20
-23355.92517996138
 30
0.0
 11
10537.31816525502
 21
-23394.07509126455
 31
0.0
  0
LWPOLYLINE
  5
108F8
330
1F07
100
AcDbEntity
  8
器具
100
AcDbPolyline
 90
       10
 70
   128
 43
0.0
 10
10537.31816525507
 20
-23394.07509126448
 10
10537.32105526518
 20
-23399.2072975634
 10
10538.29050167295
 20
-23404.20505464753
 10
10540.12277830217
 20
-23408.53362616977
 10
10542.62184022786
 20
-23411.72987546892
 10
10545.52029965441
 20
-23413.45181900186
 10
10548.50803514649
 20
-23413.51521696247
 10
10551.26537314936
 20
-23411.91328606892
 10
10553.49729155112
 20
-23408.81742534332
 10
10554.96498564839
 20
-23404.55887722671
  0
LINE
  5
108F9
330
1F07
100
AcDbEntity
  8
器具
100
AcDbLine
 10
10554.96498564834
 20
-23404.55887722664
 30
0.0
 11
10558.93991812288
 21
-23363.82155712195
 31
0.0
  0
LWPOLYLINE
  5
108FA
330
1F07
100
AcDbEntity
  8
器具
100
AcDbPolyline
 90
        9
 70
   128
 43
0.0
 10
10587.06944964051
 20
-23374.68775215291
 10
10586.80747012238
 20
-23370.08027376898
 10
10585.54472439291
 20
-23365.84563489209
 10
10583.47345404275
 20
-23362.6285209048
 10
10580.90899120613
 20
-23360.91870824819
 10
10578.24175210162
 20
-23360.97650039989
 10
10575.87779970739
 20
-23362.79309902804
 10
10574.17702434312
 20
-23366.09194345978
 10
10573.39835364277
 20
-23370.37081453447
  0
LINE
  5
108FB
330
1F07
100
AcDbEntity
  8
器具
100
AcDbLine
 10
10573.39835364272
 20
-23370.3708145344
 30
0.0
 11
10568.76609039628
 21
-23410.81038261541
 31
0.0
  0
LWPOLYLINE
  5
108FC
330
1F07
100
AcDbEntity
  8
器具
100
AcDbPolyline
 90
       10
 70
   128
 43
0.0
 10
10568.76609039628
 20
-23410.81038261529
 10
10569.23757942946
 20
-23415.94732518005
 10
10570.63850821313
 20
-23420.68876168941
 10
10572.81898400265
 20
-23424.52738088363
 10
10575.54570620987
 20
-23427.05246868198
 10
10578.52692846649
 20
-23427.9938526436
 10
10581.44367410555
 20
-23427.25080914175
 10
10583.98386515202
 20
-23424.90284031292
 10
10585.87571319075
 20
-23421.2011677068
 10
10586.91679943543
 20
-23416.5418527673
  0
LINE
  5
108FD
330
1F07
100
AcDbEntity
  8
器具
100
AcDbLine
 10
10586.91679943538
 20
-23416.54185276739
 30
0.0
 11
10587.06944964051
 21
-23374.68775215289
 31
0.0
  0
LWPOLYLINE
  5
108FE
330
1F07
100
AcDbEntity
  8
器具
100
AcDbPolyline
 90
        9
 70
   128
 43
0.0
 10
10615.46840484697
 20
-23377.97233835826
 10
10614.79240260965
 20
-23373.4306263633
 10
10613.17539974786
 20
-23369.53230155264
 10
10610.86357028719
 20
-23366.87084854119
 10
10608.20886930891
 20
-23365.85144942301
 10
10605.61545097067
 20
-23366.62929847324
 10
10603.47813970513
 20
-23369.08597522565
 10
10602.12232177786
 20
-23372.84747291374
 10
10601.75440817721
 20
-23377.34113761313
  0
LINE
  5
108FF
330
1F07
100
AcDbEntity
  8
器具
100
AcDbLine
 10
10601.75440817717
 20
-23377.34113761319
 30
0.0
 11
10600.9341286754
 21
-23419.07460609494
 31
0.0
  0
LWPOLYLINE
  5
10900
330
1F07
100
AcDbEntity
  8
器具
100
AcDbPolyline
 90
       10
 70
   128
 43
0.0
 10
10600.93412867549
 20
-23419.07460609487
 10
10601.86260710709
 20
-23424.089796351
 10
10603.66052275165
 20
-23428.45816238294
 10
10606.1355071501
 20
-23431.71230970519
 10
10609.022748688
 20
-23433.50405996011
 10
10612.01332618981
 20
-23433.64170435318
 10
10614.78726201844
 20
-23432.11051558566
 10
10617.04775817543
 20
-23429.07432360705
 10
10618.55295227192
 20
-23424.85798658484
 10
10619.14179566605
 20
-23419.91263261997
  0
LINE
  5
10901
330
1F07
100
AcDbEntity
  8
器具
100
AcDbLine
 10
10619.141795666
 20
-23419.91263262008
 30
0.0
 11
10615.46840484692
 21
-23377.9723383583
 31
0.0
  0
LWPOLYLINE
  5
10902
330
1F07
100
AcDbEntity
  8
器具
100
AcDbPolyline
 90
        9
 70
   128
 43
0.0
 10
10643.43750721506
 20
-23373.59443832553
 10
10642.36412767609
 20
-23369.23032474134
 10
10640.43268365834
 20
-23365.76430369191
 10
10637.93722000266
 20
-23363.72404546169
 10
10635.25764843123
 20
-23363.42016087173
 10
10632.80190942466
 20
-23364.89891359599
 10
10630.94386698463
 20
-23367.93517693695
 10
10629.96639123159
 20
-23372.0667073248
 10
10630.01829398479
 20
-23376.66451671071
  0
LINE
  5
10903
330
1F07
100
AcDbEntity
  8
器具
100
AcDbLine
 10
10630.01829398474
 20
-23376.66451671071
 30
0.0
 11
10633.03019623252
 21
-23418.66426909345
 31
0.0
  0
LWPOLYLINE
  5
10904
330
1F07
100
AcDbEntity
  8
器具
100
AcDbPolyline
 90
       10
 70
   128
 43
0.0
 10
10633.03019623252
 20
-23418.66426909339
 10
10634.39280184043
 20
-23423.43421641263
 10
10636.54343369703
 20
-23427.32194829745
 10
10639.25198437561
 20
-23429.9114958405
 10
10642.2286517748
 20
-23430.92578971486
 10
10645.1549465768
 20
-23430.25630527759
 10
10647.71776908977
 20
-23427.9746741939
 10
10649.64290943855
 20
-23424.32502018793
 10
10650.72438672061
 20
-23419.69783896082
 10
10650.84648798487
 20
-23414.58821699759
  0
LINE
  5
10905
330
1F07
100
AcDbEntity
  8
器具
100
AcDbLine
 10
10650.84648798478
 20
-23414.58821699751
 30
0.0
 11
10643.43750721502
 21
-23373.59443832546
 31
0.0
  0
LWPOLYLINE
  5
10906
330
1F07
100
AcDbEntity
  8
器具
100
AcDbPolyline
 90
        9
 70
   128
 43
0.0
 10
10670.28806461862
 20
-23361.66185048203
 10
10668.84373794684
 20
-23357.58279426942
 10
10666.64541133409
 20
-23354.63442192218
 10
10664.02776008119
 20
-23353.26559640252
 10
10661.38929786169
 20
-23353.68470898777
 10
10659.13170663051
 20
-23355.82795358563
 10
10657.59868418811
 20
-23359.36904063527
 10
10657.02361930441
 20
-23363.76887173305
 10
10657.49406039521
 20
-23368.35761247904
  0
LINE
  5
10907
330
1F07
100
AcDbEntity
  8
器具
100
AcDbLine
 10
10657.49406039512
 20
-23368.35761247897
 30
0.0
 11
10664.26398136208
 21
-23409.58947547017
 31
0.0
  0
LWPOLYLINE
  5
10908
330
1F07
100
AcDbEntity
  8
器具
100
AcDbPolyline
 90
       10
 70
   128
 43
0.0
 10
10664.26398136217
 20
-23409.58947547024
 10
10666.02716227564
 20
-23413.99672791875
 10
10668.47755464846
 20
-23417.30809679449
 10
10671.35297809966
 20
-23419.16928130402
 10
10674.34577593081
 20
-23419.38114351626
 10
10677.1357329439
 20
-23417.92101517707
 10
10679.42433694528
 20
-23414.94512310666
 10
10680.96671814191
 20
-23410.77187366791
 10
10681.59784904832
 20
-23405.84778479407
 10
10681.25020164446
 20
-23400.69971068308
  0
LINE
  5
10909
330
1F07
100
AcDbEntity
  8
器具
100
AcDbLine
 10
10681.25020164437
 20
-23400.6997106831
 30
0.0
 11
10670.28806461858
 21
-23361.66185048206
 31
0.0
  0
LWPOLYLINE
  5
1090A
330
1F07
100
AcDbEntity
  8
器具
100
AcDbPolyline
 90
        9
 70
   128
 43
0.0
 10
10695.35892722531
 20
-23342.46839474319
 10
10693.57921753349
 20
-23338.7748358036
 10
10691.16813842401
 20
-23336.41671087057
 10
10688.49275483432
 20
-23335.75302308843
 10
10685.9603696636
 20
-23336.88481290622
 10
10683.95651559719
 20
-23339.63977558334
 10
10682.78626125318
 20
-23343.59849302603
 10
10682.62776724566
 20
-23348.15828638995
 10
10683.50516285199
 20
-23352.62496846949
  0
LINE
  5
1090B
330
1F07
100
AcDbEntity
  8
器具
100
AcDbLine
 10
10683.50516285195
 20
-23352.62496846946
 30
0.0
 11
10693.86640461601
 21
-23392.07367676153
 31
0.0
  0
LWPOLYLINE
  5
1090C
330
1F07
100
AcDbEntity
  8
器具
100
AcDbPolyline
 90
       10
 70
   128
 43
0.0
 10
10693.86640461611
 20
-23392.07367676141
 10
10695.98674546811
 20
-23396.00971315709
 10
10698.67656156571
 20
-23398.66318213272
 10
10701.64805532151
 20
-23399.75017506893
 10
10704.58329096951
 20
-23399.15438886817
 10
10707.16821219127
 20
-23396.93956983297
 10
10709.12624465584
 20
-23393.34269311498
 10
10710.24788815626
 20
-23388.74860749466
 10
10710.41313214969
 20
-23383.6488583845
 10
10709.60429631078
 20
-23378.58909479586
  0
LINE
  5
1090D
330
1F07
100
AcDbEntity
  8
器具
100
AcDbLine
 10
10709.60429631073
 20
-23378.58909479592
 30
0.0
 11
10695.35892722526
 21
-23342.4683947433
 31
0.0
  0
LWPOLYLINE
  5
1090E
330
1F07
100
AcDbEntity
  8
器具
100
AcDbPolyline
 90
        9
 70
   128
 43
0.0
 10
10718.03276718929
 20
-23316.48667768841
 10
10715.96149683913
 20
-23313.26956370131
 10
10713.39703400249
 20
-23311.55975104452
 10
10710.72979489799
 20
-23311.61754319586
 10
10708.36584250385
 20
-23313.43414182454
 10
10706.66506713958
 20
-23316.73298625631
 10
10705.88639643923
 20
-23321.01185733044
 10
10706.14837595625
 20
-23325.61933571437
 10
10707.41112168571
 20
-23329.85397459125
  0
LINE
  5
1090F
330
1F07
100
AcDbEntity
  8
器具
100
AcDbLine
 10
10707.41112168562
 20
-23329.85397459123
 30
0.0
 11
10721.10855608831
 21
-23366.54817006296
 31
0.0
  0
LWPOLYLINE
  5
10910
330
1F07
100
AcDbEntity
  8
器具
100
AcDbPolyline
 90
       10
 70
   128
 43
0.0
 10
10721.10855608835
 20
-23366.54817006304
 10
10723.53384705092
 20
-23369.91607212709
 10
10726.39685467391
 20
-23371.84630398966
 10
10729.39125069546
 20
-23372.13233997891
 10
10732.1966489165
 20
-23370.7435755985
 10
10734.51288500971
 20
-23367.82860206266
 10
10736.0921326786
 20
-23363.69930773921
 10
10736.76541989768
 20
-23358.79750757241
 10
10736.4607081225
 20
-23353.64767097404
 10
10735.21060007082
 20
-23348.80080607965
  0
LINE
  5
10911
330
1F07
100
AcDbEntity
  8
器具
100
AcDbLine
 10
10735.21060007082
 20
-23348.80080607972
 30
0.0
 11
10718.03276718929
 21
-23316.48667768851
 31
0.0
  0
LWPOLYLINE
  5
10912
330
1F07
100
AcDbEntity
  8
器具
100
AcDbPolyline
 90
        9
 70
   128
 43
0.0
 10
10737.75127932335
 20
-23284.35645541988
 10
10735.43944986268
 20
-23281.69500240842
 10
10732.7847488844
 20
-23280.67560329024
 10
10730.19133054616
 20
-23281.45345234047
 10
10728.05401928062
 20
-23283.91012909288
 10
10726.69820135335
 20
-23287.67162678116
 10
10726.3302877527
 20
-23292.16529148054
 10
10727.00628999002
 20
-23296.7070034755
 10
10728.62329285181
 20
-23300.60532828597
  0
LINE
  5
10913
330
1F07
100
AcDbEntity
  8
器具
100
AcDbLine
 10
10728.62329285181
 20
-23300.60532828609
 30
0.0
 11
10745.31964359815
 21
-23333.64147806406
 31
0.0
  0
LWPOLYLINE
  5
10914
330
1F07
100
AcDbEntity
  8
器具
100
AcDbPolyline
 90
       10
 70
   128
 43
0.0
 10
10745.31964359819
 20
-23333.641478064
 10
10747.99016595967
 20
-23336.35831687002
 10
10750.95586835784
 20
-23337.51778290524
 10
10753.89943467795
 20
-23336.99581879231
 10
10756.50591725826
 20
-23334.84827222077
 10
10758.49643480129
 20
-23331.30492050659
 10
10759.65801135608
 20
-23326.74488550831
 10
10759.86636372763
 20
-23321.65606938306
 10
10759.09919919893
 20
-23316.58295136488
 10
10757.43860074413
 20
-23312.06833106455
  0
LINE
  5
10915
330
1F07
100
AcDbEntity
  8
器具
100
AcDbLine
 10
10757.43860074412
 20
-23312.06833106467
 30
0.0
 11
10737.75127932325
 21
-23284.35645542
 31
0.0
  0
LWPOLYLINE
  5
10916
330
1F07
100
AcDbEntity
  8
器具
100
AcDbPolyline
 90
        9
 70
   128
 43
0.0
 10
10754.02892841336
 20
-23246.86888064423
 10
10751.5334647588
 20
-23244.82862241438
 10
10748.85389318738
 20
-23244.52473782423
 10
10746.3981541808
 20
-23246.00349054831
 10
10744.54011174077
 20
-23249.03975388926
 10
10743.56263598653
 20
-23253.17128427711
 10
10743.61453874093
 20
-23257.76909366303
 10
10744.6879182787
 20
-23262.13320724704
 10
10746.61936229766
 20
-23265.59922829665
  0
LINE
  5
10917
330
1F07
100
AcDbEntity
  8
器具
100
AcDbLine
 10
10746.61936229756
 20
-23265.59922829665
 30
0.0
 11
10765.90350981956
 21
-23294.16387273271
 31
0.0
  0
LWPOLYLINE
  5
10918
330
1F07
100
AcDbEntity
  8
器具
100
AcDbPolyline
 90
       10
 70
   128
 43
0.0
 10
10765.9035098196
 20
-23294.16387273265
 10
10768.75350645583
 20
-23296.16275069275
 10
10771.74887819451
 20
-23296.52290099851
 10
10774.56913443999
 20
-23295.2057892723
 10
10776.91252112697
 20
-23292.35234023315
 10
10778.52830697385
 20
-23288.2678594197
 10
10779.24361054336
 20
-23283.38936694256
 10
10778.98189774143
 20
-23278.23883840069
 10
10777.77117059757
 20
-23273.36735596492
 10
10775.74097118461
 20
-23269.29614519317
  0
LINE
  5
10919
330
1F07
100
AcDbEntity
  8
器具
100
AcDbLine
 10
10775.74097118461
 20
-23269.29614519321
 30
0.0
 11
10754.02892841332
 21
-23246.8688806443
 31
0.0
  0
LWPOLYLINE
  5
1091A
330
1F07
100
AcDbEntity
  8
器具
100
AcDbPolyline
 90
        9
 70
   128
 43
0.0
 10
10766.46490472002
 20
-23204.94702186667
 10
10763.84725346711
 20
-23203.57819634682
 10
10761.20879124762
 20
-23203.99730893208
 10
10758.95120001644
 20
-23206.14055352993
 10
10757.41817757404
 20
-23209.68164057958
 10
10756.84311269034
 20
-23214.08147167754
 10
10757.31355378114
 20
-23218.67021242353
 10
10758.75788045413
 20
-23222.74926863578
 10
10760.95620706678
 20
-23225.6976409834
  0
LINE
  5
1091B
330
1F07
100
AcDbEntity
  8
器具
100
AcDbLine
 10
10760.95620706674
 20
-23225.69764098336
 30
0.0
 11
10782.35331165223
 21
-23249.08742373091
 31
0.0
  0
LWPOLYLINE
  5
1091C
330
1F07
100
AcDbEntity
  8
器具
100
AcDbPolyline
 90
       10
 70
   128
 43
0.0
 10
10782.35331165232
 20
-23249.08742373084
 10
10785.31260618751
 20
-23250.3191218357
 10
10788.26389127251
 20
-23249.87108831631
 10
10790.8913933764
 20
-23247.79126063864
 10
10792.91398221355
 20
-23244.30217051761
 10
10794.11525035247
 20
-23239.77713407783
 10
10794.36666779017
 20
-23234.70030879708
 10
10793.64133405143
 20
-23229.61489094498
 10
10792.01685641069
 20
-23225.06499615671
 10
10789.66704628737
 20
-23221.53744163466
  0
LINE
  5
1091D
330
1F07
100
AcDbEntity
  8
器具
100
AcDbLine
 10
10789.66704628727
 20
-23221.53744163458
 30
0.0
 11
10766.46490471997
 21
-23204.94702186659
 31
0.0
  0
LWPOLYLINE
  5
1091E
330
1F07
100
AcDbEntity
  8
器具
100
AcDbPolyline
 90
        9
 70
   128
 43
0.0
 10
10774.75299323071
 20
-23159.62313438022
 10
10772.07760964102
 20
-23158.95944659809
 10
10769.54522447039
 20
-23160.09123641587
 10
10767.54137040398
 20
-23162.84619909299
 10
10766.37111605997
 20
-23166.80491653567
 10
10766.21262205236
 20
-23171.3647098996
 10
10767.0900176587
 20
-23175.83139197915
 10
10768.8697273494
 20
-23179.52495091874
 10
10771.28080645888
 20
-23181.88307585176
  0
LINE
  5
1091F
330
1F07
100
AcDbEntity
  8
器具
100
AcDbLine
 10
10771.28080645884
 20
-23181.88307585173
 30
0.0
 11
10794.2640003818
 21
-23199.52206283327
 31
0.0
  0
LWPOLYLINE
  5
10920
330
1F07
100
AcDbEntity
  8
器具
100
AcDbPolyline
 90
       10
 70
   128
 43
0.0
 10
10794.26400038185
 20
-23199.52206283315
 10
10797.25972516164
 20
-23199.95625258758
 10
10800.09425316071
 20
-23198.71106731541
 10
10802.46430330065
 20
-23195.91973594607
 10
10804.11629143668
 20
-23191.88091772131
 10
10804.87346266087
 20
-23187.02674707078
 10
10804.65480323475
 20
-23181.87659727341
 10
10803.48370868327
 20
-23176.98150997598
 10
10801.48548057749
 20
-23172.86523634535
 10
10798.87391986729
 20
-23169.96819817257
  0
LINE
  5
10921
330
1F07
100
AcDbEntity
  8
器具
100
AcDbLine
 10
10798.8739198672
 20
-23169.96819817259
 30
0.0
 11
10774.75299323072
 21
-23159.62313438034
 31
0.0
  0
LWPOLYLINE
  5
10922
330
1F07
100
AcDbEntity
  8
器具
100
AcDbPolyline
 90
        9
 70
   128
 43
0.0
 10
10778.68911370194
 20
-23112.01324271672
 10
10776.02187459855
 20
-23112.07103486842
 10
10773.65792220331
 20
-23113.88763349693
 10
10771.95714684015
 20
-23117.18647792849
 10
10771.17847613979
 20
-23121.465349003
 10
10771.44045565681
 20
-23126.07282738693
 10
10772.70320138627
 20
-23130.30746626363
 10
10774.77447173643
 20
-23133.52458025092
 10
10777.33893457427
 20
-23135.23439290772
  0
LINE
  5
10923
330
1F07
100
AcDbEntity
  8
器具
100
AcDbLine
 10
10777.33893457422
 20
-23135.23439290769
 30
0.0
 11
10801.34229532097
 21
-23146.68825372294
 31
0.0
  0
LWPOLYLINE
  5
10924
330
1F07
100
AcDbEntity
  8
器具
100
AcDbPolyline
 90
       10
 70
   128
 43
0.0
 10
10801.34229532107
 20
-23146.68825372296
 10
10804.30068566171
 20
-23146.31424393421
 10
10806.94866108604
 20
-23144.30256750319
 10
10809.00290076226
 20
-23140.86846428455
 10
10810.24361076744
 20
-23136.37936706457
 10
10810.53804100715
 20
-23131.31558799454
 10
10809.85468883816
 20
-23126.21892746126
 10
10808.26666970848
 20
-23121.63470401393
 10
10805.94389414618
 20
-23118.05340785869
 10
10803.13488814006
 20
-23115.85822072959
  0
LINE
  5
10925
330
1F07
100
AcDbEntity
  8
器具
100
AcDbLine
 10
10803.13488813996
 20
-23115.85822072971
 30
0.0
 11
10778.6891137019
 21
-23112.01324271678
 31
0.0
  0
LWPOLYLINE
  5
10926
330
1F07
100
AcDbEntity
  8
器具
100
AcDbPolyline
 90
        9
 70
   128
 43
0.0
 10
10778.17634578465
 20
-23063.28966041737
 10
10775.58292744632
 20
-23064.06750946761
 10
10773.44561617975
 20
-23066.52418622002
 10
10772.08979825239
 20
-23070.28568390811
 10
10771.72188465175
 20
-23074.77934860748
 10
10772.39788688916
 20
-23079.32106060245
 10
10774.01488975215
 20
-23083.2193854131
 10
10776.32671921153
 20
-23085.88083842475
 10
10778.9814201899
 20
-23086.90023754274
  0
LINE
  5
10927
330
1F07
100
AcDbEntity
  8
器具
100
AcDbLine
 10
10778.98142018981
 20
-23086.90023754277
 30
0.0
 11
10803.41390535824
 21
-23091.88694012588
 31
0.0
  0
LWPOLYLINE
  5
10928
330
1F07
100
AcDbEntity
  8
器具
100
AcDbPolyline
 90
       10
 70
   128
 43
0.0
 10
10803.41390535834
 20
-23091.88694012591
 10
10806.26211586912
 20
-23090.71394015608
 10
10808.65833677808
 20
-23087.98530671627
 10
10810.34618379096
 20
-23083.99299066648
 10
10811.14506526791
 20
-23079.16415092398
 10
10810.96950467345
 20
-23074.0154504806
 10
10809.83828616092
 20
-23069.0977759086
 10
10807.87244475371
 20
-23064.93729510661
 10
10805.2823161774
 20
-23061.97915982371
 10
10802.34503192604
 20
-23060.53987653086
  0
LINE
  5
10929
330
1F07
100
AcDbEntity
  8
器具
100
AcDbLine
 10
10802.34503192604
 20
-23060.53987653084
 30
0.0
 11
10778.1763457846
 21
-23063.2896604174
 31
0.0
  0
LWPOLYLINE
  5
1092A
330
1F07
100
AcDbEntity
  8
器具
100
AcDbPolyline
 90
        9
 70
   128
 43
0.0
 10
10773.22731552415
 20
-23014.6521237821
 10
10770.77157651757
 20
-23016.13087650618
 10
10768.91353407865
 20
-23019.16713984732
 10
10767.93605832441
 20
-23023.29867023518
 10
10767.9879610777
 20
-23027.89647962109
 10
10769.06134061659
 20
-23032.26059320491
 10
10770.99278463434
 20
-23035.72661425434
 10
10773.48824829001
 20
-23037.76687248456
 10
10776.16781986153
 20
-23038.07075707454
  0
LINE
  5
1092B
330
1F07
100
AcDbEntity
  8
器具
100
AcDbLine
 10
10776.16781986148
 20
-23038.07075707446
 30
0.0
 11
10800.4278205779
 21
-23036.46751225767
 31
0.0
  0
LWPOLYLINE
  5
1092C
330
1F07
100
AcDbEntity
  8
器具
100
AcDbPolyline
 90
       10
 70
   128
 43
0.0
 10
10800.4278205779
 20
-23036.46751225767
 10
10803.09571886527
 20
-23034.52440525918
 10
10805.18118234622
 20
-23031.14600282178
 10
10806.46107630108
 20
-23026.69377801191
 10
10806.79845813643
 20
-23021.64409780698
 10
10806.15722959256
 20
-23016.53725408273
 10
10804.60599908902
 20
-23011.91965494072
 10
10802.31074094403
 20
-23008.28536162935
 10
10799.51703691526
 20
-23006.02322632705
 10
10796.52380010708
 20
-23005.37528680179
  0
LINE
  5
1092D
330
1F07
100
AcDbEntity
  8
器具
100
AcDbLine
 10
10796.52380010708
 20
-23005.37528680183
 30
0.0
 11
10773.2273155241
 21
-23014.65212378221
 31
0.0
  0
LWPOLYLINE
  5
1092E
330
1F07
100
AcDbEntity
  8
器具
100
AcDbPolyline
 90
        9
 70
   128
 43
0.0
 10
10763.96388447288
 20
-22967.29825038193
 10
10761.7062932429
 20
-22969.4414949798
 10
10760.17327080041
 20
-22972.98258202943
 10
10759.59820591681
 20
-22977.38241312739
 10
10760.06864700752
 20
-22981.97115387338
 10
10761.5129736805
 20
-22986.05021008562
 10
10763.71130029205
 20
-22988.99858243324
 10
10766.32895154496
 20
-22990.3674079529
 10
10768.96741376444
 20
-22989.94829536764
  0
LINE
  5
1092F
330
1F07
100
AcDbEntity
  8
器具
100
AcDbLine
 10
10768.9674137644
 20
-22989.94829536767
 30
0.0
 11
10792.45756829866
 21
-22981.79458035887
 31
0.0
  0
LWPOLYLINE
  5
10930
330
1F07
100
AcDbEntity
  8
器具
100
AcDbPolyline
 90
       10
 70
   128
 43
0.0
 10
10792.45756829875
 20
-22981.79458035876
 10
10794.87946185171
 20
-22979.12921207494
 10
10796.60281687198
 20
-22975.18422812009
 10
10797.44324253232
 20
-22970.38172310111
 10
10797.3108172647
 20
-22965.23554231923
 10
10796.21970994736
 20
-22960.29630275535
 10
10794.28666389564
 20
-22956.0924796595
 10
10791.71850588838
 20
-22953.07386220153
 10
10788.79001667095
 20
-22951.56342815842
 10
10785.81453072915
 20
-22951.72278682233
  0
LINE
  5
10931
330
1F07
100
AcDbEntity
  8
器具
100
AcDbLine
 10
10785.8145307291
 20
-22951.7227868223
 30
0.0
 11
10763.96388447284
 21
-22967.29825038195
 31
0.0
  0
LWPOLYLINE
  5
10932
330
1F07
100
AcDbEntity
  8
器具
100
AcDbPolyline
 90
        9
 70
   128
 43
0.0
 10
10750.61414904611
 20
-22922.39404973821
 10
10748.61029498072
 20
-22925.14901241533
 10
10747.44004063559
 20
-22929.10772985802
 10
10747.28154662919
 20
-22933.66752322194
 10
10748.15894223441
 20
-22938.13420530148
 10
10749.93865192623
 20
-22941.82776424107
 10
10752.34973103571
 20
-22944.18588917428
 10
10755.02511462549
 20
-22944.84957695624
 10
10757.55749979603
 20
-22943.71778713864
  0
LINE
  5
10933
330
1F07
100
AcDbEntity
  8
器具
100
AcDbLine
 10
10757.55749979603
 20
-22943.71778713862
 30
0.0
 11
10779.69940258337
 21
-22929.2143734624
 31
0.0
  0
LWPOLYLINE
  5
10934
330
1F07
100
AcDbEntity
  8
器具
100
AcDbPolyline
 90
       10
 70
   128
 43
0.0
 10
10779.69940258346
 20
-22929.21437346233
 10
10781.81565634479
 20
-22925.89237410593
 10
10783.13446818495
 20
-22921.47794723092
 10
10783.51473148138
 20
-22916.44341561493
 10
10782.915759861
 20
-22911.32745030637
 10
10781.4016404525
 20
-22906.6774353734
 10
10779.13437686311
 20
-22902.99090039977
 10
10776.35655556395
 20
-22900.66228717527
 10
10773.36539028386
 20
-22899.94074629039
 10
10770.480921546
 20
-22900.90347920427
  0
LINE
  5
10935
330
1F07
100
AcDbEntity
  8
器具
100
AcDbLine
 10
10770.480921546
 20
-22900.9034792044
 30
0.0
 11
10750.61414904602
 21
-22922.39404973819
 31
0.0
  0
LWPOLYLINE
  5
10936
330
1F07
100
AcDbEntity
  8
器具
100
AcDbPolyline
 90
        9
 70
   128
 43
0.0
 10
10733.50682403551
 20
-22881.04521229965
 10
10731.80604867124
 20
-22884.34405673123
 10
10731.0273779709
 20
-22888.62292780573
 10
10731.289357488
 20
-22893.23040618966
 10
10732.55210321737
 20
-22897.46504506636
 10
10734.62337356874
 20
-22900.68215905366
 10
10737.18783640537
 20
-22902.39197171026
 10
10739.85507550876
 20
-22902.33417955873
 10
10742.21902790401
 20
-22900.51758093043
  0
LINE
  5
10937
330
1F07
100
AcDbEntity
  8
器具
100
AcDbLine
 10
10742.21902790396
 20
-22900.51758093047
 30
0.0
 11
10762.46747181312
 21
-22880.02159076529
 31
0.0
  0
LWPOLYLINE
  5
10938
330
1F07
100
AcDbEntity
  8
器具
100
AcDbPolyline
 90
       10
 70
   128
 43
0.0
 10
10762.46747181321
 20
-22880.02159076518
 10
10764.22597659224
 20
-22876.12475898538
 10
10765.10777172767
 20
-22871.34958703105
 10
10765.01850931602
 20
-22866.20699569531
 10
10763.96774001238
 20
-22861.24721790469
 10
10762.06789115647
 20
-22857.00092640244
 10
10759.52223758373
 20
-22853.92245427711
 10
10756.6031521734
 20
-22852.34118347163
 10
10753.6229632456
 20
-22852.42630247662
 10
10750.90053690609
 20
-22854.16870396077
  0
LINE
  5
10939
330
1F07
100
AcDbEntity
  8
器具
100
AcDbLine
 10
10750.90053690599
 20
-22854.16870396086
 30
0.0
 11
10733.50682403551
 21
-22881.04521229969
 31
0.0
  0
LWPOLYLINE
  5
1093A
330
1F07
100
AcDbEntity
  8
器具
100
AcDbPolyline
 90
        9
 70
   128
 43
0.0
 10
10713.06314855751
 20
-22844.26988367241
 10
10711.70733063015
 20
-22848.03138136069
 10
10711.33941702951
 20
-22852.52504606007
 10
10712.01541926691
 20
-22857.06675805521
 10
10713.63242212991
 20
-22860.96508286549
 10
10715.94425158929
 20
-22863.62653587752
 10
10718.59895256766
 20
-22864.64593499551
 10
10721.1923709059
 20
-22863.86808594491
 10
10723.32968217255
 20
-22861.41140919287
  0
LINE
  5
1093B
330
1F07
100
AcDbEntity
  8
器具
100
AcDbLine
 10
10723.3296821725
 20
-22861.41140919293
 30
0.0
 11
10741.18608331279
 21
-22835.42752183934
 31
0.0
  0
LWPOLYLINE
  5
1093C
330
1F07
100
AcDbEntity
  8
器具
100
AcDbPolyline
 90
       10
 70
   128
 43
0.0
 10
10741.18608331288
 20
-22835.42752183928
 10
10742.5435388861
 20
-22831.05181056703
 10
10742.96660459377
 20
-22826.03347411471
 10
10742.41001441092
 20
-22820.90945072488
 10
10740.93332085118
 20
-22816.22798664208
 10
10738.69452313346
 20
-22812.48997636043
 10
10735.93316201662
 20
-22810.09536928392
 10
10732.94469006534
 20
-22809.30037703281
 10
10730.04885963209
 20
-22810.19006001475
 10
10727.55551086253
 20
-22812.66922636221
  0
LINE
  5
1093D
330
1F07
100
AcDbEntity
  8
器具
100
AcDbLine
 10
10727.55551086253
 20
-22812.66922636224
 30
0.0
 11
10713.06314855742
 21
-22844.26988367247
 31
0.0
  0
LWPOLYLINE
  5
1093E
330
1F07
100
AcDbEntity
  8
器具
100
AcDbPolyline
 90
       82
 70
   128
 43
0.0
 10
10698.12708156575
 20
-22859.08418844918
 10
10707.88562188321
 20
-22874.47348190671
 10
10716.98336485959
 20
-22891.019354285
 10
10725.36559560074
 20
-22908.62229676092
 10
10732.98190238366
 20
-22927.17644316716
 10
10739.78647984223
 20
-22946.57020668384
 10
10745.73840444757
 20
-22966.68695093552
 10
10750.80188062603
 20
-22987.405691455
 10
10754.94645603502
 20
-23008.60182329913
 10
10758.14720470963
 20
-23030.1478704369
 10
10760.38487697126
 20
-23051.91425240538
 10
10761.6460151965
 20
-23073.77006362277
 10
10761.92303475133
 20
-23095.58386066797
 10
10761.21426960648
 20
-23117.22445279978
 10
10759.52398235963
 20
-23138.56169095038
 10
10756.86233859816
 20
-23159.46725045904
 10
10753.24534575901
 20
-23179.81540283045
 10
10748.69475686355
 20
-23199.4837718829
 10
10743.2379396894
 20
-23218.35406972975
 10
10736.90771217664
 20
-23236.31280817981
 10
10729.74214505781
 20
-23253.25198126737
 10
10721.7843328976
 20
-23269.06971481136
 10
10713.08213491446
 20
-23283.67087910188
 10
10703.68788714979
 20
-23296.96766101866
 10
10693.65808771762
 20
-23308.88009215061
 10
10683.05305700916
 20
-23319.33652973511
 10
10671.93657492922
 20
-23328.27408752643
 10
10660.37549730708
 20
-23335.63901400002
 10
10648.43935382502
 20
-23341.38701562178
 10
10636.19992985404
 20
-23345.48352323376
 10
10623.73083472987
 20
-23347.90389995675
 10
10611.10705905777
 20
-23348.6335893608
 10
10598.40452371075
 20
-23347.66820300738
 10
10585.69962323073
 20
-23345.01354684415
 10
10573.06876638302
 20
-23340.68558628562
 10
10560.58791662918
 20
-23334.71035019523
 10
10548.33213526548
 20
-23327.1237743467
 10
10536.37513000536
 20
-23317.9714852993
 10
10524.7888116833
 20
-23307.30852599656
 10
10513.64286178325
 20
-23295.19902473016
 10
10503.00431335762
 20
-23281.71580946579
 10
10492.9371478891
 20
-23266.93996984634
 10
10483.50191049588
 20
-23250.96036951003
 10
10474.75534580377
 20
-23233.87311165331
 10
10466.75005668512
 20
-23215.78096105561
 10
10459.53418788867
 20
-23196.79272603978
 10
10453.15113649789
 20
-23177.02260408502
 10
10447.63929093648
 20
-23156.58949503066
 10
10443.03180009081
 20
-23135.61628599979
 10
10439.35637395411
 20
-23114.2291123384
 10
10436.63511697172
 20
-23092.55659902604
 10
10434.88439510212
 20
-23070.72908710733
 10
10434.11473739319
 20
-23048.87784980743
 10
10434.33077265722
 20
-23027.13430303908
 10
10435.5312016318
 20
-23005.62921505036
 10
10437.70880479752
 20
-22984.49191997105
 10
10440.850485791
 20
-22963.84953998098
 10
10444.93735017402
 20
-22943.82622078188
 10
10449.94481906321
 20
-22924.54238497178
 10
10455.84277695165
 20
-22906.11400780815
 10
10462.59575282633
 20
-22888.65191972008
 10
10470.1631334955
 20
-22872.26113975913
 10
10478.49940784154
 20
-22857.04024400539
 10
10487.55444052952
 20
-22843.08077271614
 10
10497.27377352801
 20
-22830.46667979487
 10
10507.59895362484
 20
-22819.27382788042
 10
10518.46788397106
 20
-22809.56953210126
 10
10529.81519754045
 20
-22801.4121552338
 10
10541.57265025591
 20
-22794.85075670285
 10
10553.66953141171
 20
-22789.92479753085
 10
10566.03308894177
 20
-22786.66390301562
 10
10578.58896695597
 20
-22785.08768456124
 10
10591.26165292647
 20
-22785.20562173022
 10
10603.97493183011
 20
-22787.01700523491
 10
10616.65234451025
 20
-22790.51094120171
 10
10629.21764751622
 20
-22795.66641668858
 10
10641.59527163606
 20
-22802.45242605909
 10
10653.71077638303
 20
-22810.82815745502
 10
10665.49129768489
 20
-22820.7432382418
 10
10676.86598610219
 20
-22832.13803795701
 10
10687.76643291922
 20
-22844.94402693424
 10
10698.12708156575
 20
-22859.08418844918
  0
LWPOLYLINE
  5
1093F
330
1F07
100
AcDbEntity
  8
器具
100
AcDbPolyline
 90
        3
 70
   128
 43
0.0
 10
10494.09833131975
 20
-23357.71951454425
 10
10493.15446372344
 20
-23356.42371975005
 10
10490.74331063706
 20
-23353.05521270063
  0
LINE
  5
10940
330
1F07
100
AcDbEntity
  8
器具
100
AcDbLine
 10
10469.32809344041
 20
-23319.02145473901
 30
0.0
 11
10463.37779697517
 21
-23308.03808587913
 31
0.0
  0
LINE
  5
10941
330
1F07
100
AcDbEntity
  8
器具
100
AcDbLine
 10
10447.81985900887
 20
-23275.23085685748
 30
0.0
 11
10441.41251994089
 21
-23259.57391066637
 31
0.0
  0
LWPOLYLINE
  5
10942
330
1F07
100
AcDbEntity
  8
器具
100
AcDbPolyline
 90
        3
 70
   128
 43
0.0
 10
10430.1143395708
 20
-23227.71830828501
 10
10425.89630956162
 20
-23213.98312653874
 10
10424.1177292529
 20
-23207.80159813321
  0
LWPOLYLINE
  5
10943
330
1F07
100
AcDbEntity
  8
器具
100
AcDbPolyline
 90
        3
 70
   128
 43
0.0
 10
10416.40048982922
 20
-23177.43138584039
 10
10413.91108976254
 20
-23165.97932583419
 10
10411.46714660912
 20
-23153.59635172113
  0
LWPOLYLINE
  5
10944
330
1F07
100
AcDbEntity
  8
器具
100
AcDbPolyline
 90
        3
 70
   128
 43
0.0
 10
10406.81388947633
 20
-23125.28003561535
 10
10405.59127124013
 20
-23116.20895036171
 10
10403.51534322905
 20
-23097.94466512391
  0
LWPOLYLINE
  5
10945
330
1F07
100
AcDbEntity
  8
器具
100
AcDbPolyline
 90
        3
 70
   128
 43
0.0
 10
10401.38698820809
 20
-23071.10319995509
 10
10401.08221670958
 20
-23065.54158122084
 10
10400.32933111201
 20
-23043.25714659599
  0
LINE
  5
10946
330
1F07
100
AcDbEntity
  8
器具
100
AcDbLine
 10
10400.46252289948
 20
-23014.86945236565
 30
0.0
 11
10401.59248638978
 21
-22990.1783993892
 31
0.0
  0
LWPOLYLINE
  5
10947
330
1F07
100
AcDbEntity
  8
器具
100
AcDbPolyline
 90
        3
 70
   128
 43
0.0
 10
10404.38870751686
 20
-22959.25523602807
 10
10406.83136652278
 20
-22940.75497880353
 10
10407.21116818834
 20
-22938.23097726654
  0
LWPOLYLINE
  5
10948
330
1F07
100
AcDbEntity
  8
器具
100
AcDbPolyline
 90
        3
 70
   128
 43
0.0
 10
10413.78355506625
 20
-22902.83268021756
 10
10415.8342469955
 20
-22893.88283525958
 10
10417.19068727805
 20
-22888.33028287079
  0
LWPOLYLINE
  5
10949
330
1F07
100
AcDbEntity
  8
器具
100
AcDbPolyline
 90
        3
 70
   128
 43
0.0
 10
10428.10284035055
 20
-22851.07503646031
 10
10428.46892760733
 20
-22849.99814910392
 10
10431.49063051066
 20
-22841.43611778167
  0
LINE
  5
1094A
330
1F07
100
AcDbEntity
  8
器具
100
AcDbLine
 10
10447.00589881548
 20
-22804.6147879616
 30
0.0
 11
10449.85768561862
 21
-22798.85558053192
 31
0.0
  0
ARC
  5
1094B
330
1F07
100
AcDbEntity
  8
器具
100
AcDbCircle
 10
10589.44227628985
 20
-22886.16112913839
 30
0.0
 40
95.30395577334557
100
AcDbArc
 50
76.13850343177631
 51
94.0980918736631
  0
ARC
  5
1094C
330
1F07
100
AcDbEntity
  8
器具
100
AcDbCircle
 10
10616.48939152927
 20
-23247.5404309063
 30
0.0
 40
94.4343207669365
100
AcDbArc
 50
274.3587610522808
 51
290.9399141611131
  0
LWPOLYLINE
  5
1094D
330
1F07
100
AcDbEntity
  8
器具
100
AcDbPolyline
 90
        3
 70
   128
 43
0.0
 10
11047.58507756191
 20
-23027.71608485493
 10
11052.58758925426
 20
-23027.72735080008
 10
11057.67171274369
 20
-23028.73215640418
  0
LWPOLYLINE
  5
1094E
330
1F07
100
AcDbEntity
  8
器具
100
AcDbPolyline
 90
        3
 70
   128
 43
0.0
 10
11057.67171274369
 20
-23028.73215640418
 10
11060.74862834797
 20
-23029.72976421479
 10
11061.54466673047
 20
-23029.83547293278
  0
LWPOLYLINE
  5
1094F
330
1F07
100
AcDbEntity
  8
器具
100
AcDbPolyline
 90
        3
 70
   128
 43
0.0
 10
11061.54466673047
 20
-23029.83547293278
 10
11062.12389836252
 20
-23031.65713419718
 10
11062.2149232872
 20
-23032.16234493319
  0
LWPOLYLINE
  5
10950
330
1F07
100
AcDbEntity
  8
器具
100
AcDbPolyline
 90
        9
 70
   128
 43
0.0
 10
11062.2149232872
 20
-23032.16234493319
 10
11039.30574123976
 20
-23033.86856636433
 10
11015.04678363939
 20
-23035.67551176192
 10
10989.47873094792
 20
-23037.58015101317
 10
10962.64445888197
 20
-23039.57929018031
 10
10934.58896651404
 20
-23041.66957685596
 10
10905.35930081379
 20
-23043.84750578494
 10
10875.00447774755
 20
-23046.10942474348
 10
10851.68214157164
 20
-23047.84740729682
  0
LWPOLYLINE
  5
10951
330
1F07
100
AcDbEntity
  8
器具
100
AcDbPolyline
 90
        9
 70
   128
 43
0.0
 10
10851.24941899797
 20
-23042.34360072875
 10
10857.19301199477
 20
-23041.90067947013
 10
10887.95025909699
 20
-23039.60871007709
 10
10917.60161109497
 20
-23037.39929570363
 10
10946.09692580703
 20
-23035.27617259922
 10
10973.38801597489
 20
-23033.24293109057
 10
10999.42873075786
 20
-23031.30300950865
 10
11024.17503377192
 20
-23029.45968837523
 10
11047.58507756191
 20
-23027.71608485493
  0
LWPOLYLINE
  5
10952
330
1F07
100
AcDbEntity
  8
器具
100
AcDbPolyline
 90
        3
 70
   128
 43
0.0
 10
11062.2149232872
 20
-23032.16234493319
 10
11062.13684058665
 20
-23033.36340553104
 10
11061.89722112532
 20
-23034.56298717061
  0
LWPOLYLINE
  5
10953
330
1F07
100
AcDbEntity
  8
器具
100
AcDbPolyline
 90
        3
 70
   128
 43
0.0
 10
11061.89722112532
 20
-23034.56298717061
 10
11059.88936390477
 20
-23035.35320403219
 10
11058.23071964195
 20
-23036.22805805856
  0
ARC
  5
10954
330
1F07
100
AcDbEntity
  8
器具
100
AcDbCircle
 10
11046.77255761186
 20
-23011.75402223489
 30
0.0
 40
27.02346955184053
100
AcDbArc
 50
273.4660026590155
 51
295.0878769044497
  0
LWPOLYLINE
  5
10955
330
1F07
100
AcDbEntity
  8
器具
100
AcDbPolyline
 90
        9
 70
   128
 43
0.0
 10
11048.40629578425
 20
-23038.7280617208
 10
11024.99625199425
 20
-23040.47166524129
 10
11000.2499489802
 20
-23042.31498637471
 10
10974.20923419722
 20
-23044.25490795663
 10
10946.91814402937
 20
-23046.28814946547
 10
10918.42282931731
 20
-23048.41127256969
 10
10888.77147731933
 20
-23050.62068694335
 10
10858.01423021831
 20
-23052.91265633619
 10
10852.07061154025
 20
-23053.35557950844
  0
LWPOLYLINE
  5
10956
330
1F07
100
AcDbEntity
  8
器具
100
AcDbPolyline
 90
        3
 70
   128
 43
0.0
 10
11049.52117995947
 20
-23077.12482481329
 10
11054.48887018259
 20
-23077.13497716245
 10
11059.44752984032
 20
-23078.13516730789
  0
LWPOLYLINE
  5
10957
330
1F07
100
AcDbEntity
  8
器具
100
AcDbPolyline
 90
        3
 70
   128
 43
0.0
 10
11059.44752984032
 20
-23078.13516730789
 10
11062.41080169567
 20
-23079.04601594128
 10
11063.19015084872
 20
-23079.09166322297
  0
LWPOLYLINE
  5
10958
330
1F07
100
AcDbEntity
  8
器具
100
AcDbPolyline
 90
        3
 70
   128
 43
0.0
 10
11063.19015084872
 20
-23079.09166322297
 10
11063.60365089032
 20
-23081.02286895554
 10
11063.64863778848
 20
-23081.53966797316
  0
ARC
  5
10959
330
1F07
100
AcDbEntity
  8
器具
100
AcDbCircle
 10
10663.98849324834
 20
-20733.51923614818
 30
0.0
 40
2381.79096047549
100
AcDbArc
 50
274.5639832518963
 51
279.6598241235982
  0
ARC
  5
1095A
330
1F07
100
AcDbEntity
  8
器具
100
AcDbCircle
 10
10653.05383632258
 20
-20665.53186226047
 30
0.0
 40
2443.965419477929
100
AcDbArc
 50
274.7061580765568
 51
279.3359493159396
  0
ARC
  5
1095B
330
1F07
100
AcDbEntity
  8
器具
100
AcDbCircle
 10
11008.93605749086
 20
-25362.04982542257
 30
0.0
 40
2379.402493228716
100
AcDbArc
 50
88.85919088161964
 51
93.96018252765292
  0
LWPOLYLINE
  5
1095C
330
1F07
100
AcDbEntity
  8
器具
100
AcDbPolyline
 90
        3
 70
   128
 43
0.0
 10
11056.30891346106
 20
-22983.11896528794
 10
11056.34251824657
 20
-22984.34239450769
 10
11056.21860241343
 20
-22985.60794842849
  0
LWPOLYLINE
  5
1095D
330
1F07
100
AcDbEntity
  8
器具
100
AcDbPolyline
 90
        3
 70
   128
 43
0.0
 10
11056.21860241343
 20
-22985.60794842849
 10
11054.25382636733
 20
-22986.27078703822
 10
11052.65921340668
 20
-22987.10846880401
  0
ARC
  5
1095E
330
1F07
100
AcDbEntity
  8
器具
100
AcDbCircle
 10
11041.47214393798
 20
-22963.48287518357
 30
0.0
 40
26.14037484829845
100
AcDbArc
 50
273.3341639803061
 51
295.3382501444803
  0
ARC
  5
1095F
330
1F07
100
AcDbEntity
  8
器具
100
AcDbCircle
 10
11008.19592760427
 20
-25430.84098283592
 30
0.0
 40
2441.509953701839
100
AcDbArc
 50
89.18339003091229
 51
93.81786606536165
  0
LWPOLYLINE
  5
10960
330
1F07
100
AcDbEntity
  8
器具
100
AcDbPolyline
 90
        3
 70
   128
 43
0.0
 10
11044.39626130928
 20
-22978.77876882248
 10
11046.22326130611
 20
-22978.77985018742
 10
11051.43004591904
 20
-22979.75540849214
  0
LWPOLYLINE
  5
10961
330
1F07
100
AcDbEntity
  8
器具
100
AcDbPolyline
 90
        3
 70
   128
 43
0.0
 10
11051.43004591904
 20
-22979.75540849214
 10
11054.62560768766
 20
-22980.80919172903
 10
11055.44339122956
 20
-22980.97052134876
  0
LWPOLYLINE
  5
10962
330
1F07
100
AcDbEntity
  8
器具
100
AcDbPolyline
 90
        3
 70
   128
 43
0.0
 10
11055.44339122956
 20
-22980.97052134876
 10
11056.17409184548
 20
-22982.63778279893
 10
11056.30891346106
 20
-22983.11896528794
  0
ARC
  5
10963
330
1F07
100
AcDbEntity
  8
器具
100
AcDbCircle
 10
11006.38913720434
 20
-25419.88045479412
 30
0.0
 40
2441.351590339934
100
AcDbArc
 50
89.18331213449569
 51
93.81689565296106
  0
LWPOLYLINE
  5
10964
330
1F07
100
AcDbEntity
  8
器具
100
AcDbPolyline
 90
        3
 70
   128
 43
0.0
 10
11063.64863778848
 20
-23081.53966797316
 10
11063.46079025696
 20
-23082.68878585138
 10
11063.11136739469
 20
-23083.79285752915
  0
LWPOLYLINE
  5
10965
330
1F07
100
AcDbEntity
  8
器具
100
AcDbPolyline
 90
        3
 70
   128
 43
0.0
 10
11063.11136739469
 20
-23083.79285752915
 10
11061.04875050589
 20
-23084.69554991644
 10
11059.32261154501
 20
-23085.58933632851
  0
LWPOLYLINE
  5
10966
330
1F07
100
AcDbEntity
  8
器具
100
AcDbPolyline
 90
        3
 70
   128
 43
0.0
 10
11059.32261154501
 20
-23085.58933632851
 10
11055.32180935844
 20
-23087.07326420322
 10
11052.55840611561
 20
-23087.61529716807
  0
ARC
  5
10967
330
1F07
100
AcDbEntity
  8
器具
100
AcDbCircle
 10
10652.89274078587
 20
-20676.63933055509
 30
0.0
 40
2443.807060318389
100
AcDbArc
 50
274.7071264597934
 51
279.3360270535444
  0
LINE
  5
10968
330
1F07
100
AcDbEntity
  8
器具
100
AcDbLine
 10
11048.40629578416
 20
-23038.72806172089
 30
0.0
 11
10947.02938944137
 21
-23046.28346187085
 31
0.0
  0
LINE
  5
10969
330
1F07
100
AcDbEntity
  8
器具
100
AcDbLine
 10
10947.02938944137
 20
-23046.28346187085
 30
0.0
 11
10924.34982326461
 21
-23047.97693038699
 31
0.0
  0
LINE
  5
1096A
330
1F07
100
AcDbEntity
  8
器具
100
AcDbLine
 10
10852.0706115402
 20
-23053.35557950837
 30
0.0
 11
10924.34982326461
 21
-23047.97693038699
 31
0.0
  0
LINE
  5
1096B
330
1F07
100
AcDbEntity
  8
器具
100
AcDbLine
 10
10803.78031953972
 20
-23146.50655308525
 30
0.0
 11
10801.34229532097
 21
-23146.68825372294
 31
0.0
  0
LINE
  5
1096C
330
1F07
100
AcDbEntity
  8
器具
100
AcDbLine
 10
10853.48184187131
 20
-23087.29077237517
 30
0.0
 11
10918.84961103404
 21
-23082.41905483376
 31
0.0
  0
LINE
  5
1096D
330
1F07
100
AcDbEntity
  8
器具
100
AcDbLine
 10
10918.87866139278
 20
-23080.68555148303
 30
0.0
 11
10925.28568250017
 21
-23080.20805014678
 31
0.0
  0
LINE
  5
1096E
330
1F07
100
AcDbEntity
  8
器具
100
AcDbLine
 10
10948.14427361552
 20
-23084.68022496289
 30
0.0
 11
10925.28568250017
 21
-23080.20805014678
 31
0.0
  0
LINE
  5
1096F
330
1F07
100
AcDbEntity
  8
器具
100
AcDbLine
 10
11049.52117995947
 20
-23077.12482481321
 30
0.0
 11
10948.14427361552
 21
-23084.68022496289
 31
0.0
  0
LINE
  5
10970
330
1F07
100
AcDbEntity
  8
器具
100
AcDbLine
 10
10804.37213798382
 20
-23089.21947341188
 30
0.0
 11
10808.00662049528
 21
-23088.94860334182
 31
0.0
  0
LINE
  5
10971
330
1F07
100
AcDbEntity
  8
器具
100
AcDbLine
 10
11042.99244989119
 20
-22989.57900261701
 30
0.0
 11
10941.61554354725
 21
-22997.13440276669
 31
0.0
  0
LINE
  5
10972
330
1F07
100
AcDbEntity
  8
器具
100
AcDbLine
 10
10941.61554354725
 20
-22997.13440276669
 30
0.0
 11
10919.67344849945
 21
-23004.95181580031
 31
0.0
  0
LINE
  5
10973
330
1F07
100
AcDbEntity
  8
器具
100
AcDbLine
 10
10781.13280070311
 20
-23015.27694870161
 30
0.0
 11
10805.25569949779
 21
-23013.47912156562
 31
0.0
  0
LINE
  5
10974
330
1F07
100
AcDbEntity
  8
器具
100
AcDbLine
 10
10847.83967813603
 20
-23010.30543033566
 30
0.0
 11
10919.67344849945
 21
-23004.95181580031
 31
0.0
  0
LINE
  5
10975
330
1F07
100
AcDbEntity
  8
器具
100
AcDbLine
 10
10788.56927595845
 20
-22951.51748165717
 30
0.0
 11
10785.8145307291
 21
-22951.7227868223
 31
0.0
  0
LWPOLYLINE
  5
10976
330
1F07
100
AcDbEntity
  8
器具
100
AcDbPolyline
 90
        3
 70
   128
 43
0.0
 10
11046.9473552256
 20
-23125.7864818787
 10
11051.88028824431
 20
-23125.78614953806
 10
11056.71377069916
 20
-23126.74797511588
  0
LWPOLYLINE
  5
10977
330
1F07
100
AcDbEntity
  8
器具
100
AcDbPolyline
 90
        3
 70
   128
 43
0.0
 10
11056.71377069916
 20
-23126.74797511588
 10
11059.57119950631
 20
-23127.54361711991
 10
11060.3393263033
 20
-23127.52624134248
  0
LWPOLYLINE
  5
10978
330
1F07
100
AcDbEntity
  8
器具
100
AcDbPolyline
 90
        3
 70
   128
 43
0.0
 10
11060.3393263033
 20
-23127.52624134248
 10
11060.57691301145
 20
-23129.51943884846
 10
11060.57475415699
 20
-23130.03510084143
  0
ARC
  5
10979
330
1F07
100
AcDbEntity
  8
器具
100
AcDbCircle
 10
10743.16551621714
 20
-21926.13951671946
 30
0.0
 40
1245.035421904937
100
AcDbArc
 50
274.9256858580329
 51
284.7700254957919
  0
ARC
  5
1097A
330
1F07
100
AcDbEntity
  8
器具
100
AcDbCircle
 10
10707.77831420597
 20
-21680.2744526493
 30
0.0
 40
1485.848232358829
100
AcDbArc
 50
275.5234226142535
 51
280.4157562925324
  0
ARC
  5
1097B
330
1F07
100
AcDbEntity
  8
器具
100
AcDbCircle
 10
10910.58244191988
 20
-24172.68609909071
 30
0.0
 40
1244.467003771158
100
AcDbArc
 50
83.74942761225963
 51
93.59839257213236
  0
LWPOLYLINE
  5
1097C
330
1F07
100
AcDbEntity
  8
器具
100
AcDbPolyline
 90
        3
 70
   128
 43
0.0
 10
11046.07603387297
 20
-22935.61713981025
 10
11046.22049868334
 20
-22936.8328127643
 10
11046.21533769812
 20
-22938.13317682834
  0
LWPOLYLINE
  5
1097D
330
1F07
100
AcDbEntity
  8
器具
100
AcDbPolyline
 90
        3
 70
   128
 43
0.0
 10
11046.21533769812
 20
-22938.13317682834
 10
11044.2809035317
 20
-22938.65687093625
 10
11042.74528181169
 20
-22939.44005587134
  0
ARC
  5
1097E
330
1F07
100
AcDbEntity
  8
器具
100
AcDbCircle
 10
11031.77786400209
 20
-22916.00337404946
 30
0.0
 40
25.87590207606226
100
AcDbArc
 50
273.2158347278748
 51
295.0776902441287
  0
ARC
  5
1097F
330
1F07
100
AcDbEntity
  8
器具
100
AcDbCircle
 10
10911.95655786239
 20
-24418.73771113156
 30
0.0
 40
1482.935715145756
100
AcDbArc
 50
88.0596440324283
 51
93.00231572412688
  0
LINE
  5
10980
330
1F07
100
AcDbEntity
  8
器具
100
AcDbLine
 10
11036.77692832572
 20
-22931.70773645655
 30
0.0
 11
11040.87621991824
 21
-22932.41089364983
 31
0.0
  0
LWPOLYLINE
  5
10981
330
1F07
100
AcDbEntity
  8
器具
100
AcDbPolyline
 90
        3
 70
   128
 43
0.0
 10
11040.87621991828
 20
-22932.41089364986
 10
11044.19250880302
 20
-22933.48888533712
 10
11045.03655799665
 20
-22933.70002575246
  0
LWPOLYLINE
  5
10982
330
1F07
100
AcDbEntity
  8
器具
100
AcDbPolyline
 90
        3
 70
   128
 43
0.0
 10
11045.03655799665
 20
-22933.70002575246
 10
11045.90073532225
 20
-22935.17183387789
 10
11046.07603387297
 20
-22935.61713981025
  0
LWPOLYLINE
  5
10983
330
1F07
100
AcDbEntity
  8
器具
100
AcDbPolyline
 90
        3
 70
   128
 43
0.0
 10
11060.57475415699
 20
-23130.03510084143
 10
11060.28176722398
 20
-23131.10398090354
 10
11059.83114490981
 20
-23132.08535671049
  0
LWPOLYLINE
  5
10984
330
1F07
100
AcDbEntity
  8
器具
100
AcDbPolyline
 90
        3
 70
   128
 43
0.0
 10
11059.83114490981
 20
-23132.08535671049
 10
11057.70343822408
 20
-23133.08285237795
 10
11055.90800311177
 20
-23133.97686512221
  0
LINE
  5
10985
330
1F07
100
AcDbEntity
  8
器具
100
AcDbLine
 10
11055.90800311177
 20
-23133.97686512224
 30
0.0
 11
11052.07469658222
 21
-23135.32520044133
 31
0.0
  0
LINE
  5
10986
330
1F07
100
AcDbEntity
  8
器具
100
AcDbLine
 10
10788.45180793935
 20
-23062.52385259085
 30
0.0
 11
10778.1763457846
 21
-23063.2896604174
 31
0.0
  0
LINE
  5
10987
330
1F07
100
AcDbEntity
  8
器具
100
AcDbLine
 10
10803.32741949643
 20
-23060.83138504327
 30
0.0
 11
10788.45180793935
 21
-23062.52385259085
 31
0.0
  0
LINE
  5
10988
330
1F07
100
AcDbEntity
  8
器具
100
AcDbLine
 10
10786.44328201623
 20
-23037.30494924824
 30
0.0
 11
10776.16781986148
 21
-23038.07075707446
 31
0.0
  0
LINE
  5
10989
330
1F07
100
AcDbEntity
  8
器具
100
AcDbLine
 10
10786.44328201623
 20
-23037.30494924824
 30
0.0
 11
10800.66978036053
 21
-23036.36477781109
 31
0.0
  0
LINE
  5
1098A
330
1F07
100
AcDbEntity
  8
器具
100
AcDbLine
 10
10852.7658742323
 20
-23131.47665666942
 30
0.0
 11
10916.55201166946
 21
-23126.7228146976
 31
0.0
  0
LINE
  5
1098B
330
1F07
100
AcDbEntity
  8
器具
100
AcDbLine
 10
10916.93652123082
 20
-23123.27321289893
 30
0.0
 11
10923.09568720431
 21
-23122.81418366648
 31
0.0
  0
LINE
  5
1098C
330
1F07
100
AcDbEntity
  8
器具
100
AcDbLine
 10
10945.57044888156
 20
-23133.34188202842
 30
0.0
 11
10923.09568720431
 21
-23122.81418366648
 31
0.0
  0
LINE
  5
1098D
330
1F07
100
AcDbEntity
  8
器具
100
AcDbLine
 10
11046.94735522551
 20
-23125.78648187877
 30
0.0
 11
10945.57044888156
 21
-23133.34188202842
 31
0.0
  0
LINE
  5
1098E
330
1F07
100
AcDbEntity
  8
器具
100
AcDbLine
 10
10785.36782617606
 20
-23133.07874133911
 30
0.0
 11
10810.53350638628
 21
-23131.20319797421
 31
0.0
  0
LINE
  5
1098F
330
1F07
100
AcDbEntity
  8
器具
100
AcDbLine
 10
11033.22943586745
 20
-22941.83852931069
 30
0.0
 11
10931.85252952351
 21
-22949.39392946037
 31
0.0
  0
LINE
  5
10990
330
1F07
100
AcDbEntity
  8
器具
100
AcDbLine
 10
10931.85252952351
 20
-22949.39392946037
 30
0.0
 11
10911.18819280546
 21
-22963.14279635762
 31
0.0
  0
LINE
  5
10991
330
1F07
100
AcDbEntity
  8
器具
100
AcDbLine
 10
10770.13689402407
 20
-22973.65504261166
 30
0.0
 11
10797.32340212483
 21
-22971.62889134301
 31
0.0
  0
LINE
  5
10992
330
1F07
100
AcDbEntity
  8
器具
100
AcDbLine
 10
10906.25921529925
 20
-22963.51014232158
 30
0.0
 11
10911.18819280546
 21
-22963.14279635762
 31
0.0
  0
LINE
  5
10993
330
1F07
100
AcDbEntity
  8
器具
100
AcDbLine
 10
10789.25688234456
 20
-23086.13442971626
 30
0.0
 11
10778.98142018981
 21
-23086.90023754277
 31
0.0
  0
LINE
  5
10994
330
1F07
100
AcDbEntity
  8
器具
100
AcDbLine
 10
10789.25688234456
 20
-23086.13442971626
 30
0.0
 11
10807.27557958908
 21
-23089.81206968924
 31
0.0
  0
LINE
  5
10995
330
1F07
100
AcDbEntity
  8
器具
100
AcDbLine
 10
10783.50277768001
 20
-23013.88631595568
 30
0.0
 11
10773.2273155241
 21
-23014.65212378221
 31
0.0
  0
LINE
  5
10996
330
1F07
100
AcDbEntity
  8
器具
100
AcDbLine
 10
10800.93478919236
 20
-23006.94475666285
 30
0.0
 11
10783.50277768001
 21
-23013.88631595568
 31
0.0
  0
LINE
  5
10997
330
1F07
100
AcDbEntity
  8
器具
100
AcDbLine
 10
10799.48810334273
 20
-23199.13272181153
 30
0.0
 11
10794.2640003818
 21
-23199.52206283327
 31
0.0
  0
LINE
  5
10998
330
1F07
100
AcDbEntity
  8
器具
100
AcDbLine
 10
10776.01069105885
 20
-22900.49135752001
 30
0.0
 11
10770.480921546
 21
-22900.9034792044
 31
0.0
  0
LINE
  5
10999
330
1F07
100
AcDbEntity
  8
器具
100
AcDbLine
 10
10787.61439672897
 20
-23134.46858508115
 30
0.0
 11
10777.33893457422
 21
-23135.23439290769
 31
0.0
  0
LINE
  5
1099A
330
1F07
100
AcDbEntity
  8
器具
100
AcDbLine
 10
10787.61439672897
 20
-23134.46858508115
 30
0.0
 11
10807.30548450839
 21
-23143.86472677601
 31
0.0
  0
LINE
  5
1099B
330
1F07
100
AcDbEntity
  8
器具
100
AcDbLine
 10
10774.23934662759
 20
-22966.5324425554
 30
0.0
 11
10763.96388447284
 21
-22967.29825038195
 31
0.0
  0
LINE
  5
1099C
330
1F07
100
AcDbEntity
  8
器具
100
AcDbLine
 10
10792.33866572272
 20
-22953.63098043332
 30
0.0
 11
10774.23934662759
 21
-22966.5324425554
 31
0.0
  0
LWPOLYLINE
  5
1099D
330
1F07
100
AcDbEntity
  8
器具
100
AcDbPolyline
 90
        3
 70
   128
 43
0.0
 10
11039.92697946636
 20
-23172.50284455567
 10
11044.82607538439
 20
-23172.48291459993
 10
11049.53774954213
 20
-23173.3735711629
  0
LWPOLYLINE
  5
1099E
330
1F07
100
AcDbEntity
  8
器具
100
AcDbPolyline
 90
        3
 70
   128
 43
0.0
 10
11049.53774954213
 20
-23173.3735711629
 10
11052.29974220858
 20
-23174.02839585523
 10
11053.06238985586
 20
-23173.94658723263
  0
LWPOLYLINE
  5
1099F
330
1F07
100
AcDbEntity
  8
器具
100
AcDbPolyline
 90
        3
 70
   128
 43
0.0
 10
11053.06238985586
 20
-23173.94658723263
 10
11053.11821305847
 20
-23175.95269737485
 10
11053.06896160843
 20
-23176.45452503282
  0
ARC
  5
109A0
330
1F07
100
AcDbEntity
  8
器具
100
AcDbCircle
 10
10757.79032830524
 20
-22335.40885050874
 30
0.0
 40
891.3738261368077
100
AcDbArc
 50
275.3873811103915
 51
289.3454159716054
  0
ARC
  5
109A1
330
1F07
100
AcDbEntity
  8
器具
100
AcDbCircle
 10
10864.39799830856
 20
-23766.11151176772
 30
0.0
 40
891.1434321783794
100
AcDbArc
 50
79.17469270562946
 51
93.13658287665106
  0
LWPOLYLINE
  5
109A2
330
1F07
100
AcDbEntity
  8
器具
100
AcDbPolyline
 90
        3
 70
   128
 43
0.0
 10
11031.76825198073
 20
-22890.8265210931
 10
11032.02001961281
 20
-22892.0045038786
 10
11032.13374055483
 20
-22893.30765880686
  0
LWPOLYLINE
  5
109A3
330
1F07
100
AcDbEntity
  8
器具
100
AcDbPolyline
 90
        3
 70
   128
 43
0.0
 10
11032.13374055483
 20
-22893.30765880686
 10
11030.21616185642
 20
-22893.68386836275
 10
11028.73303875807
 20
-22894.39657378883
  0
ARC
  5
109A4
330
1F07
100
AcDbEntity
  8
器具
100
AcDbCircle
 10
11017.92405512963
 20
-22870.43019220984
 30
0.0
 40
26.29109303686508
100
AcDbArc
 50
273.1257651027592
 51
294.275663821782
  0
LWPOLYLINE
  5
109A5
330
1F07
100
AcDbEntity
  8
器具
100
AcDbPolyline
 90
        3
 70
   128
 43
0.0
 10
11026.27010496413
 20
-22887.86439096007
 10
11029.70622921439
 20
-22888.93402802904
 10
11030.5804178041
 20
-22889.18794262714
  0
LWPOLYLINE
  5
109A6
330
1F07
100
AcDbEntity
  8
器具
100
AcDbPolyline
 90
        3
 70
   128
 43
0.0
 10
11030.5804178041
 20
-22889.18794262714
 10
11031.55679292662
 20
-22890.42805662736
 10
11031.76825198073
 20
-22890.8265210931
  0
LWPOLYLINE
  5
109A7
330
1F07
100
AcDbEntity
  8
器具
100
AcDbPolyline
 90
        3
 70
   128
 43
0.0
 10
11053.06896160843
 20
-23176.45452503282
 10
11052.67804958473
 20
-23177.4168479049
 10
11052.1373236361
 20
-23178.25136311162
  0
LWPOLYLINE
  5
109A8
330
1F07
100
AcDbEntity
  8
器具
100
AcDbPolyline
 90
        3
 70
   128
 43
0.0
 10
11052.1373236361
 20
-23178.25136311162
 10
11049.93579975213
 20
-23179.32365544151
 10
11048.07097333617
 20
-23180.1991828919
  0
LINE
  5
109A9
330
1F07
100
AcDbEntity
  8
器具
100
AcDbLine
 10
10849.26846434703
 20
-23173.80938543048
 30
0.0
 11
10910.20612153552
 21
-23169.26783449094
 31
0.0
  0
LINE
  5
109AA
330
1F07
100
AcDbEntity
  8
器具
100
AcDbLine
 10
10911.30382211767
 20
-23164.15970829314
 30
0.0
 11
10917.01254410416
 21
-23163.73424967034
 31
0.0
  0
LINE
  5
109AB
330
1F07
100
AcDbEntity
  8
器具
100
AcDbLine
 10
10938.55007312241
 20
-23180.05824470539
 30
0.0
 11
10917.01254410416
 21
-23163.73424967034
 31
0.0
  0
LINE
  5
109AC
330
1F07
100
AcDbEntity
  8
器具
100
AcDbLine
 10
11039.92697946636
 20
-23172.50284455574
 30
0.0
 11
10938.55007312241
 21
-23180.05824470539
 31
0.0
  0
LINE
  5
109AD
330
1F07
100
AcDbEntity
  8
器具
100
AcDbLine
 10
10777.09742980394
 20
-23174.16181856827
 30
0.0
 11
10801.14523302516
 21
-23172.36958814205
 31
0.0
  0
LINE
  5
109AE
330
1F07
100
AcDbEntity
  8
器具
100
AcDbLine
 10
11019.3576515202
 20
-22896.68217069638
 30
0.0
 11
10917.98074517741
 21
-22904.23757084604
 31
0.0
  0
LINE
  5
109AF
330
1F07
100
AcDbEntity
  8
器具
100
AcDbLine
 10
10917.98074517741
 20
-22904.23757084604
 30
0.0
 11
10899.1029913393
 21
-22923.57934887406
 31
0.0
  0
LINE
  5
109B0
330
1F07
100
AcDbEntity
  8
器具
100
AcDbLine
 10
10757.6906873591
 20
-22934.11850005975
 30
0.0
 11
10774.07683114073
 21
-22932.89727643346
 31
0.0
  0
LINE
  5
109B1
330
1F07
100
AcDbEntity
  8
器具
100
AcDbLine
 10
10894.47900046436
 20
-22923.92396484839
 30
0.0
 11
10899.1029913393
 21
-22923.57934887406
 31
0.0
  0
LINE
  5
109B2
330
1F07
100
AcDbEntity
  8
器具
100
AcDbLine
 10
10790.23485860401
 20
-23248.50002919322
 30
0.0
 11
10782.35331165223
 21
-23249.08742373091
 31
0.0
  0
LWPOLYLINE
  5
109B3
330
1F07
100
AcDbEntity
  8
器具
100
AcDbPolyline
 90
        9
 70
   128
 43
0.0
 10
10787.50251020351
 20
-23062.59460168449
 10
10785.85838960111
 20
-23063.30170164101
 10
10783.72107833566
 20
-23065.75837839342
 10
10782.36526040719
 20
-23069.5198760817
 10
10781.99734680765
 20
-23074.01354078089
 10
10782.67334904506
 20
-23078.55525277622
 10
10784.29035190685
 20
-23082.45357758651
 10
10786.60218136632
 20
-23085.11503059816
 10
10789.2568823446
 20
-23086.13442971615
  0
LWPOLYLINE
  5
109B4
330
1F07
100
AcDbEntity
  8
器具
100
AcDbPolyline
 90
        9
 70
   128
 43
0.0
 10
10783.50277768006
 20
-23013.88631595569
 10
10781.04703867237
 20
-23015.36506867995
 10
10779.18899623335
 20
-23018.40133202091
 10
10778.2115204792
 20
-23022.53286240877
 10
10778.2634232325
 20
-23027.13067179449
 10
10779.33680277138
 20
-23031.49478537831
 10
10781.26824678913
 20
-23034.96080642774
 10
10783.76371044481
 20
-23037.00106465796
 10
10785.25471918912
 20
-23037.39353024818
  0
LINE
  5
109B5
330
1F07
100
AcDbEntity
  8
器具
100
AcDbLine
 10
10781.55626861358
 20
-23181.11726802549
 30
0.0
 11
10771.28080645884
 21
-23181.88307585173
 31
0.0
  0
LINE
  5
109B6
330
1F07
100
AcDbEntity
  8
器具
100
AcDbLine
 10
10781.55626861358
 20
-23181.11726802549
 30
0.0
 11
10801.92802338802
 21
-23196.75204526534
 31
0.0
  0
LINE
  5
109B7
330
1F07
100
AcDbEntity
  8
器具
100
AcDbLine
 10
10759.06916942528
 20
-22853.55991356091
 30
0.0
 11
10750.90053690599
 21
-22854.16870396086
 31
0.0
  0
LINE
  5
109B8
330
1F07
100
AcDbEntity
  8
器具
100
AcDbLine
 10
10760.88961120077
 20
-22921.62824191166
 30
0.0
 11
10750.61414904602
 21
-22922.39404973819
 31
0.0
  0
LINE
  5
109B9
330
1F07
100
AcDbEntity
  8
器具
100
AcDbLine
 10
10778.63537328602
 20
-22902.43204123192
 30
0.0
 11
10760.88961120077
 21
-22921.62824191166
 31
0.0
  0
ARC
  5
109BA
330
1F07
100
AcDbEntity
  8
器具
100
AcDbCircle
 10
10795.89004887052
 20
-23122.05996402665
 30
0.0
 40
14.91510291076121
100
AcDbArc
 50
141.9686318990117
 51
236.2995825553702
  0
ARC
  5
109BB
330
1F07
100
AcDbEntity
  8
器具
100
AcDbCircle
 10
10784.52626495413
 20
-22977.50470899635
 30
0.0
 40
15.04032311824647
100
AcDbArc
 50
133.1535529164736
 51
225.3981322192471
  0
LWPOLYLINE
  5
109BC
330
1F07
100
AcDbEntity
  8
器具
100
AcDbPolyline
 90
        3
 70
   128
 43
0.0
 10
11028.63291763238
 20
-23216.12360095238
 10
11033.49992973462
 20
-23216.07544301441
 10
11038.09616382662
 20
-23216.86387853295
  0
LWPOLYLINE
  5
109BD
330
1F07
100
AcDbEntity
  8
器具
100
AcDbPolyline
 90
        3
 70
   128
 43
0.0
 10
11038.09616382662
 20
-23216.86387853295
 10
11040.77547721417
 20
-23217.35574262081
 10
11041.53852383307
 20
-23217.20967791757
  0
LWPOLYLINE
  5
109BE
330
1F07
100
AcDbEntity
  8
器具
100
AcDbPolyline
 90
        3
 70
   128
 43
0.0
 10
11041.53852383307
 20
-23217.20967791757
 10
11041.41120897677
 20
-23219.17930360631
 10
11041.31607766593
 20
-23219.65494026739
  0
ARC
  5
109BF
330
1F07
100
AcDbEntity
  8
器具
100
AcDbCircle
 10
10751.77605329648
 20
-22544.62288709537
 30
0.0
 40
734.5077933702072
100
AcDbArc
 50
275.9609242177475
 51
293.2158392460432
  0
ARC
  5
109C0
330
1F07
100
AcDbEntity
  8
器具
100
AcDbCircle
 10
10827.44153315666
 20
-23560.2249363596
 30
0.0
 40
734.3969447013571
100
AcDbArc
 50
75.30505874210703
 51
92.56292678916762
  0
LWPOLYLINE
  5
109C1
330
1F07
100
AcDbEntity
  8
器具
100
AcDbPolyline
 90
        3
 70
   128
 43
0.0
 10
11013.73787285734
 20
-22849.85000282043
 10
11014.09074395771
 20
-22850.96128959159
 10
11014.3205466404
 20
-22852.23514738499
  0
LWPOLYLINE
  5
109C2
330
1F07
100
AcDbEntity
  8
器具
100
AcDbPolyline
 90
        3
 70
   128
 43
0.0
 10
11014.3205466404
 20
-22852.23514738499
 10
11012.40592195883
 20
-22852.45916389722
 10
11010.96751217033
 20
-22853.0871425764
  0
ARC
  5
109C3
330
1F07
100
AcDbEntity
  8
器具
100
AcDbCircle
 10
11000.23768635483
 20
-22827.70188503075
 30
0.0
 40
27.55976165869253
100
AcDbArc
 50
273.0803890222675
 51
292.9127799262799
  0
LWPOLYLINE
  5
109C4
330
1F07
100
AcDbEntity
  8
器具
100
AcDbPolyline
 90
        3
 70
   128
 43
0.0
 10
11007.97135208099
 20
-22847.21278316078
 10
11011.52346920232
 20
-22848.24170826109
 10
11012.43092880265
 20
-22848.53030718603
  0
LWPOLYLINE
  5
109C5
330
1F07
100
AcDbEntity
  8
器具
100
AcDbPolyline
 90
        3
 70
   128
 43
0.0
 10
11012.43092880265
 20
-22848.53030718603
 10
11013.49546012527
 20
-22849.50819133917
 10
11013.73787285734
 20
-22849.85000282043
  0
LWPOLYLINE
  5
109C6
330
1F07
100
AcDbEntity
  8
器具
100
AcDbPolyline
 90
        3
 70
   128
 43
0.0
 10
11041.31607766593
 20
-23219.65494026739
 10
11040.836866103
 20
-23220.48701036614
 10
11040.21935098804
 20
-23221.15411643811
  0
LWPOLYLINE
  5
109C7
330
1F07
100
AcDbEntity
  8
器具
100
AcDbPolyline
 90
        3
 70
   128
 43
0.0
 10
11040.21935098804
 20
-23221.15411643811
 10
11037.9371001275
 20
-23222.2793570715
 10
11036.00449589835
 20
-23223.11814277066
  0
LINE
  5
109C8
330
1F07
100
AcDbEntity
  8
器具
100
AcDbLine
 10
10927.25601128955
 20
-23223.67900110239
 30
0.0
 11
10918.63389405013
 21
-23214.34873943119
 31
0.0
  0
LINE
  5
109C9
330
1F07
100
AcDbEntity
  8
器具
100
AcDbLine
 10
11028.63291763233
 20
-23216.12360095242
 30
0.0
 11
10927.25601128955
 21
-23223.67900110239
 31
0.0
  0
LINE
  5
109CA
330
1F07
100
AcDbEntity
  8
器具
100
AcDbLine
 10
10767.15051960273
 20
-23212.39720285837
 30
0.0
 11
10775.96541163704
 21
-23211.74024814323
 31
0.0
  0
LINE
  5
109CB
330
1F07
100
AcDbEntity
  8
器具
100
AcDbLine
 10
11001.71866621964
 20
-22855.22182618837
 30
0.0
 11
10900.34175987569
 21
-22862.77722633833
 31
0.0
  0
LINE
  5
109CC
330
1F07
100
AcDbEntity
  8
器具
100
AcDbLine
 10
10900.34175987569
 20
-22862.77722633833
 30
0.0
 11
10893.18935804061
 21
-22873.29887712824
 31
0.0
  0
LINE
  5
109CD
330
1F07
100
AcDbEntity
  8
器具
100
AcDbLine
 10
10743.32209670043
 20
-22897.69886564352
 30
0.0
 11
10745.13735243002
 21
-22897.5635785853
 31
0.0
  0
ARC
  5
109CE
330
1F07
100
AcDbEntity
  8
器具
100
AcDbCircle
 10
10792.05570262051
 20
-23169.16575622614
 30
0.0
 40
15.90838611363185
100
AcDbArc
 50
149.7454640239064
 51
228.7006105845646
  0
ARC
  5
109CF
330
1F07
100
AcDbEntity
  8
器具
100
AcDbCircle
 10
10773.25587418304
 20
-22931.78676831285
 30
0.0
 40
16.00375327112773
100
AcDbArc
 50
140.5978878612922
 51
218.168058623284
  0
LINE
  5
109D0
330
1F07
100
AcDbEntity
  8
器具
100
AcDbLine
 10
10771.23166922149
 20
-23224.93183315684
 30
0.0
 11
10760.95620706674
 21
-23225.69764098336
 31
0.0
  0
LINE
  5
109D1
330
1F07
100
AcDbEntity
  8
器具
100
AcDbLine
 10
10771.23166922149
 20
-23224.93183315684
 30
0.0
 11
10791.45996668617
 21
-23247.04395964311
 31
0.0
  0
LINE
  5
109D2
330
1F07
100
AcDbEntity
  8
器具
100
AcDbLine
 10
10776.17897197431
 20
-23293.39806490619
 30
0.0
 11
10765.90350981956
 21
-23294.16387273271
 31
0.0
  0
LINE
  5
109D3
330
1F07
100
AcDbEntity
  8
器具
100
AcDbLine
 10
10743.78228619026
 20
-22880.27940447313
 30
0.0
 11
10733.50682403551
 21
-22881.04521229969
 31
0.0
  0
LINE
  5
109D4
330
1F07
100
AcDbEntity
  8
器具
100
AcDbLine
 10
10760.33702385943
 20
-22854.69926823075
 30
0.0
 11
10743.78228619026
 21
-22880.27940447313
 31
0.0
  0
LINE
  5
109D5
330
1F07
100
AcDbEntity
  8
器具
100
AcDbLine
 10
10737.83097301844
 20
-22811.90341853574
 30
0.0
 11
10727.55551086253
 21
-22812.66922636224
 31
0.0
  0
LINE
  5
109D6
330
1F07
100
AcDbEntity
  8
器具
100
AcDbLine
 10
10737.98141990664
 20
-22811.68981559055
 30
0.0
 11
10737.83097301844
 21
-22811.90341853574
 31
0.0
  0
ARC
  5
109D7
330
1F07
100
AcDbEntity
  8
器具
100
AcDbCircle
 10
10783.92038958013
 20
-23213.70241418671
 30
0.0
 40
16.94412803190712
100
AcDbArc
 50
154.7379099223243
 51
221.5085790269002
  0
ARC
  5
109D8
330
1F07
100
AcDbEntity
  8
器具
100
AcDbCircle
 10
10758.3175200906
 20
-22889.37150794812
 30
0.0
 40
17.14466010536082
100
AcDbArc
 50
147.9731291380365
 51
213.1625443109046
  0
LWPOLYLINE
  5
109D9
330
1F07
100
AcDbEntity
  8
器具
100
AcDbPolyline
 90
        3
 70
   128
 43
0.0
 10
11013.34326700946
 20
-23255.5746632774
 10
11018.18073859178
 20
-23255.49034205616
 10
11022.67074336522
 20
-23256.14802152244
  0
LWPOLYLINE
  5
109DA
330
1F07
100
AcDbEntity
  8
器具
100
AcDbPolyline
 90
        3
 70
   128
 43
0.0
 10
11022.67074336522
 20
-23256.14802152244
 10
11025.28217017505
 20
-23256.45879434414
 10
11026.05148406147
 20
-23256.25023252269
  0
LWPOLYLINE
  5
109DB
330
1F07
100
AcDbEntity
  8
器具
100
AcDbPolyline
 90
        3
 70
   128
 43
0.0
 10
11026.05148406147
 20
-23256.25023252269
 10
11025.74416606037
 20
-23258.13487503665
 10
11025.60549733796
 20
-23258.57260894713
  0
ARC
  5
109DC
330
1F07
100
AcDbEntity
  8
器具
100
AcDbCircle
 10
10734.29754385857
 20
-22668.92361023357
 30
0.0
 40
657.6824959238495
100
AcDbArc
 50
276.6359930454433
 51
296.2910393648873
  0
ARC
  5
109DD
330
1F07
100
AcDbEntity
  8
器具
100
AcDbCircle
 10
10791.73049155992
 20
-23439.95160036725
 30
0.0
 40
657.6284732340377
100
AcDbArc
 50
72.23070322619335
 51
91.88776168335762
  0
LWPOLYLINE
  5
109DE
330
1F07
100
AcDbEntity
  8
器具
100
AcDbPolyline
 90
        3
 70
   128
 43
0.0
 10
10992.42886427847
 20
-22813.69656286581
 10
10992.87414998816
 20
-22814.71379005439
 10
10993.21437590774
 20
-22815.92698410606
  0
LWPOLYLINE
  5
109DF
330
1F07
100
AcDbEntity
  8
器具
100
AcDbPolyline
 90
        3
 70
   128
 43
0.0
 10
10993.21437590774
 20
-22815.92698410606
 10
10991.2887310539
 20
-22815.99784658081
 10
10989.88614827638
 20
-22816.52893752828
  0
ARC
  5
109E0
330
1F07
100
AcDbEntity
  8
器具
100
AcDbCircle
 10
10979.12392680076
 20
-22788.47196441001
 30
0.0
 40
30.05027706444161
100
AcDbArc
 50
273.0957995979839
 51
290.9860420545324
  0
LWPOLYLINE
  5
109E1
330
1F07
100
AcDbEntity
  8
器具
100
AcDbPolyline
 90
        3
 70
   128
 43
0.0
 10
10991.0349916433
 20
-22812.72824534964
 10
10992.16146687267
 20
-22813.41982090177
 10
10992.42886427847
 20
-22813.69656286581
  0
LWPOLYLINE
  5
109E2
330
1F07
100
AcDbEntity
  8
器具
100
AcDbPolyline
 90
        3
 70
   128
 43
0.0
 10
11025.60549733796
 20
-23258.57260894713
 10
11025.04978601459
 20
-23259.25393794554
 10
11024.37068700341
 20
-23259.73720851791
  0
LINE
  5
109E3
330
1F07
100
AcDbEntity
  8
器具
100
AcDbLine
 10
11013.34326700942
 20
-23255.57466327746
 30
0.0
 11
10911.96636066663
 21
-23263.13006342714
 31
0.0
  0
LINE
  5
109E4
330
1F07
100
AcDbEntity
  8
器具
100
AcDbLine
 10
10980.74681032262
 20
-22818.47838706803
 30
0.0
 11
10879.36990397867
 21
-22826.0337872177
 31
0.0
  0
LINE
  5
109E5
330
1F07
100
AcDbEntity
  8
器具
100
AcDbLine
 10
10756.89482445231
 20
-23264.83342047013
 30
0.0
 11
10746.61936229756
 21
-23265.59922829665
 31
0.0
  0
LINE
  5
109E6
330
1F07
100
AcDbEntity
  8
器具
100
AcDbLine
 10
10756.89482445231
 20
-23264.83342047013
 30
0.0
 11
10776.17897197431
 21
-23293.39806490619
 31
0.0
  0
LINE
  5
109E7
330
1F07
100
AcDbEntity
  8
器具
100
AcDbLine
 10
10723.33861071333
 20
-22843.50407584598
 30
0.0
 11
10713.06314855742
 21
-22844.26988367247
 31
0.0
  0
LINE
  5
109E8
330
1F07
100
AcDbEntity
  8
器具
100
AcDbLine
 10
10737.83097301844
 20
-22811.90341853574
 30
0.0
 11
10723.33861071333
 21
-22843.50407584598
 31
0.0
  0
LINE
  5
109E9
330
1F07
100
AcDbEntity
  8
器具
100
AcDbLine
 10
10755.5951057529
 20
-23332.87567023756
 30
0.0
 11
10745.31964359815
 21
-23333.64147806406
 31
0.0
  0
LINE
  5
109EA
330
1F07
100
AcDbEntity
  8
器具
100
AcDbLine
 10
10755.5951057529
 20
-23332.87567023756
 30
0.0
 11
10756.85355918273
 21
-23334.39286572426
 31
0.0
  0
LINE
  5
109EB
330
1F07
100
AcDbEntity
  8
器具
100
AcDbLine
 10
10711.29613759001
 20
-22776.66109344959
 30
0.0
 11
10701.02067543526
 21
-22777.42690127612
 31
0.0
  0
LINE
  5
109EC
330
1F07
100
AcDbEntity
  8
器具
100
AcDbLine
 10
10712.41606195054
 20
-22774.77231115494
 30
0.0
 11
10711.29613759001
 21
-22776.66109344959
 31
0.0
  0
ARC
  5
109ED
330
1F07
100
AcDbEntity
  8
器具
100
AcDbCircle
 10
10771.29602436301
 20
-23254.62181063597
 30
0.0
 40
17.65422142965729
100
AcDbArc
 50
157.4785628785865
 51
215.3397095370627
  0
LINE
  5
109EE
330
1F07
100
AcDbEntity
  8
器具
100
AcDbLine
 10
10847.92481891486
 20
-23010.96098077993
 30
0.0
 11
10914.6960073289
 21
-23005.98466945693
 31
0.0
  0
LINE
  5
109EF
330
1F07
100
AcDbEntity
  8
器具
100
AcDbLine
 10
10914.6960073289
 20
-23005.98466945693
 30
0.0
 11
10917.04186352466
 21
-23037.44100280613
 31
0.0
  0
LINE
  5
109F0
330
1F07
100
AcDbEntity
  8
器具
100
AcDbLine
 10
10852.24966096179
 20
-23056.13405552488
 30
0.0
 11
10919.37393464926
 21
-23051.13142952485
 31
0.0
  0
LINE
  5
109F1
330
1F07
100
AcDbEntity
  8
器具
100
AcDbLine
 10
10919.37393464926
 20
-23051.13142952485
 30
0.0
 11
10918.84961103404
 21
-23082.41905483376
 31
0.0
  0
LINE
  5
109F2
330
1F07
100
AcDbEntity
  8
器具
100
AcDbLine
 10
10899.56589199459
 20
-22924.96644052223
 30
0.0
 11
10899.06766600508
 21
-22923.58198159447
 31
0.0
  0
ARC
  5
109F3
330
1F07
100
AcDbEntity
  8
器具
100
AcDbCircle
 10
10477.88507187287
 20
-23072.62718917245
 30
0.0
 40
446.8882425601448
100
AcDbArc
 50
11.92332107068687
 51
14.18107968252251
  0
ARC
  5
109F4
330
1F07
100
AcDbEntity
  8
器具
100
AcDbCircle
 10
10450.41626242165
 20
-23077.70333902011
 30
0.0
 40
474.8311573041398
100
AcDbArc
 50
4.922361097238161
 51
8.813027392691788
  0
ARC
  5
109F5
330
1F07
100
AcDbEntity
  8
器具
100
AcDbCircle
 10
10450.41557793387
 20
-23077.86428994267
 30
0.0
 40
474.8438124218969
100
AcDbArc
 50
359.7169066285915
 51
3.608378516522216
  0
ARC
  5
109F6
330
1F07
100
AcDbEntity
  8
器具
100
AcDbCircle
 10
10478.30431727674
 20
-23078.8089410317
 30
0.0
 40
446.9300804247628
100
AcDbArc
 50
354.3491184881743
 51
356.6086587984706
  0
LINE
  5
109F7
330
1F07
100
AcDbEntity
  8
器具
100
AcDbLine
 10
10916.97722155305
 20
-23163.73688218325
 30
0.0
 11
10917.26771084178
 21
-23162.27788828714
 31
0.0
  0
ARC
  5
109F8
330
1F07
100
AcDbEntity
  8
器具
100
AcDbCircle
 10
10739.1748730446
 20
-22851.31759048413
 30
0.0
 40
17.65894152153181
100
AcDbArc
 50
153.7385512863021
 51
210.9349100880102
  0
LINE
  5
109F9
330
1F07
100
AcDbEntity
  8
器具
100
AcDbLine
 10
10840.73553601594
 20
-22966.91731604521
 30
0.0
 11
10906.01549022631
 21
-22962.05214316097
 31
0.0
  0
LINE
  5
109FA
330
1F07
100
AcDbEntity
  8
器具
100
AcDbLine
 10
10906.01549022631
 20
-22962.05214316097
 30
0.0
 11
10909.10664633317
 21
-22980.5438926699
 31
0.0
  0
LINE
  5
109FB
330
1F07
100
AcDbEntity
  8
器具
100
AcDbLine
 10
10918.87829756072
 20
-23105.8526964547
 30
0.0
 11
10916.55201166946
 21
-23126.7228146976
 31
0.0
  0
LINE
  5
109FC
330
1F07
100
AcDbEntity
  8
器具
100
AcDbLine
 10
10919.37393464926
 20
-23051.13142952485
 30
0.0
 11
10912.96567842167
 21
-23049.87768462117
 31
0.0
  0
LINE
  5
109FD
330
1F07
100
AcDbEntity
  8
器具
100
AcDbLine
 10
10912.96567842167
 20
-23049.87768462117
 30
0.0
 11
10852.13995221781
 21
-23054.41089358812
 31
0.0
  0
LWPOLYLINE
  5
109FE
330
1F07
100
AcDbEntity
  8
器具
100
AcDbPolyline
 90
        3
 70
   128
 43
0.0
 10
10994.43450953993
 20
-23289.88461544583
 10
10999.24571128086
 20
-23289.7570861007
 10
11003.64131320416
 20
-23290.25869415465
  0
LWPOLYLINE
  5
109FF
330
1F07
100
AcDbEntity
  8
器具
100
AcDbPolyline
 90
        3
 70
   128
 43
0.0
 10
11003.64131320416
 20
-23290.25869415465
 10
11006.20131772852
 20
-23290.37470411584
 10
11006.98261285843
 20
-23290.10694302525
  0
LWPOLYLINE
  5
10A00
330
1F07
100
AcDbEntity
  8
器具
100
AcDbPolyline
 90
        3
 70
   128
 43
0.0
 10
11006.98261285843
 20
-23290.10694302525
 10
11006.50285890242
 20
-23291.86019621113
 10
11006.32406725151
 20
-23292.24924890953
  0
ARC
  5
10A01
330
1F07
100
AcDbEntity
  8
器具
100
AcDbCircle
 10
10708.84450315998
 20
-22745.45734493646
 30
0.0
 40
622.4752824836509
100
AcDbArc
 50
277.3985461863554
 51
298.5481933829744
  0
ARC
  5
10A02
330
1F07
100
AcDbEntity
  8
器具
100
AcDbCircle
 10
10755.21271036224
 20
-23368.07656952769
 30
0.0
 40
622.4539351453824
100
AcDbArc
 50
69.97438933617499
 51
91.12511946605428
  0
LWPOLYLINE
  5
10A03
330
1F07
100
AcDbEntity
  8
器具
100
AcDbPolyline
 90
        3
 70
   128
 43
0.0
 10
10968.36592475457
 20
-22783.25641890687
 10
10968.89266066172
 20
-22784.15453900355
 10
10969.33493232544
 20
-22785.27719644967
  0
LWPOLYLINE
  5
10A04
330
1F07
100
AcDbEntity
  8
器具
100
AcDbPolyline
 90
        3
 70
   128
 43
0.0
 10
10969.33493232544
 20
-22785.27719644967
 10
10967.38456446754
 20
-22785.19771505435
 10
10966.00804021911
 20
-22785.62214298264
  0
ARC
  5
10A05
330
1F07
100
AcDbEntity
  8
器具
100
AcDbCircle
 10
10955.03946664604
 20
-22752.8687406538
 30
0.0
 40
34.54120684535534
100
AcDbArc
 50
273.1848347953184
 51
288.5148471338518
  0
LINE
  5
10A06
330
1F07
100
AcDbEntity
  8
器具
100
AcDbLine
 10
10994.43450953988
 20
-23289.88461544581
 30
0.0
 11
10942.46203760801
 21
-23293.75801064379
 31
0.0
  0
LINE
  5
10A07
330
1F07
100
AcDbEntity
  8
器具
100
AcDbLine
 10
10956.958480523
 20
-22787.35659875011
 30
0.0
 11
10904.90459404503
 21
-22791.23606159692
 31
0.0
  0
LINE
  5
10A08
330
1F07
100
AcDbEntity
  8
器具
100
AcDbLine
 10
10831.0007273113
 20
-22925.07698768791
 30
0.0
 11
10893.54612647924
 21
-22920.41561523836
 31
0.0
  0
LINE
  5
10A09
330
1F07
100
AcDbEntity
  8
器具
100
AcDbLine
 10
10893.54612647924
 20
-22920.41561523836
 30
0.0
 11
10894.82385560953
 21
-22925.22089501918
 31
0.0
  0
LINE
  5
10A0A
330
1F07
100
AcDbEntity
  8
器具
100
AcDbLine
 10
10738.89875500656
 20
-23299.83952045954
 30
0.0
 11
10728.62329285181
 21
-23300.60532828609
 31
0.0
  0
LINE
  5
10A0B
330
1F07
100
AcDbEntity
  8
器具
100
AcDbLine
 10
10738.89875500656
 20
-23299.83952045954
 30
0.0
 11
10755.5951057529
 21
-23332.87567023756
 31
0.0
  0
LWPOLYLINE
  5
10A0C
330
1F07
100
AcDbEntity
  8
器具
100
AcDbPolyline
 90
        3
 70
   128
 43
0.0
 10
10966.91944530977
 20
-22782.66332269983
 10
10968.08012688769
 20
-22783.0515607656
 10
10968.36592475457
 20
-22783.25641890687
  0
LWPOLYLINE
  5
10A0D
330
1F07
100
AcDbEntity
  8
器具
100
AcDbPolyline
 90
        3
 70
   128
 43
0.0
 10
11006.32406725151
 20
-23292.24924890953
 10
11005.70553962537
 20
-23292.76306022632
 10
11004.98157839094
 20
-23293.05059557357
  0
LINE
  5
10A0E
330
1F07
100
AcDbEntity
  8
器具
100
AcDbLine
 10
10911.58420539527
 20
-23162.85495070312
 30
0.0
 11
10910.20612153552
 21
-23169.26783449094
 31
0.0
  0
LINE
  5
10A0F
330
1F07
100
AcDbEntity
  8
器具
100
AcDbLine
 10
10700.06197590777
 20
-22812.20778667175
 30
0.0
 11
10689.78651375302
 21
-22812.97359449828
 31
0.0
  0
LINE
  5
10A10
330
1F07
100
AcDbEntity
  8
器具
100
AcDbLine
 10
10711.29613759001
 20
-22776.66109344959
 30
0.0
 11
10700.06197590777
 21
-22812.20778667175
 31
0.0
  0
ARC
  5
10A11
330
1F07
100
AcDbEntity
  8
器具
100
AcDbCircle
 10
10755.0509241707
 20
-23290.85171522295
 30
0.0
 40
18.48440455240773
100
AcDbArc
 50
159.407233745616
 51
209.093562663727
  0
ARC
  5
10A12
330
1F07
100
AcDbEntity
  8
器具
100
AcDbCircle
 10
10717.45814582089
 20
-22818.5299665564
 30
0.0
 40
18.50936752446884
100
AcDbArc
 50
160.0276575108121
 51
209.1033155057357
  0
LINE
  5
10A13
330
1F07
100
AcDbEntity
  8
器具
100
AcDbLine
 10
10731.38401824305
 20
-23365.78236223647
 30
0.0
 11
10721.10855608831
 21
-23366.54817006296
 31
0.0
  0
LINE
  5
10A14
330
1F07
100
AcDbEntity
  8
器具
100
AcDbLine
 10
10731.38401824305
 20
-23365.78236223647
 30
0.0
 11
10733.72941718283
 21
-23369.06938608292
 31
0.0
  0
ARC
  5
10A15
330
1F07
100
AcDbEntity
  8
器具
100
AcDbCircle
 10
10809.22801454452
 20
-22936.81127668063
 30
0.0
 40
221.4367016153415
100
AcDbArc
 50
34.86425611226329
 51
52.40369931716669
  0
ARC
  5
10A16
330
1F07
100
AcDbEntity
  8
器具
100
AcDbCircle
 10
10823.50559191217
 20
-23162.2094918885
 30
0.0
 40
224.6086982043863
100
AcDbArc
 50
316.403764219134
 51
333.361585035688
  0
LWPOLYLINE
  5
10A17
330
1F07
100
AcDbEntity
  8
器具
100
AcDbPolyline
 90
        3
 70
   128
 43
0.0
 10
10956.72189966917
 20
-23339.74802605616
 10
10959.23308067155
 20
-23339.4528969012
 10
10960.05416671146
 20
-23339.08234445154
  0
LWPOLYLINE
  5
10A18
330
1F07
100
AcDbEntity
  8
器具
100
AcDbPolyline
 90
        3
 70
   128
 43
0.0
 10
10981.47644106699
 20
-23318.35597846215
 10
10984.00275378872
 20
-23318.26834967759
 10
10984.8014491206
 20
-23317.94614484887
  0
ARC
  5
10A19
330
1F07
100
AcDbEntity
  8
器具
100
AcDbCircle
 10
10834.33369143239
 20
-23179.67093604623
 30
0.0
 40
202.1992328369966
100
AcDbArc
 50
316.6949001566351
 51
325.2492145498383
  0
ARC
  5
10A1A
330
1F07
100
AcDbEntity
  8
器具
100
AcDbCircle
 10
10783.88231721496
 20
-23145.4609721803
 30
0.0
 40
263.1737004470859
100
AcDbArc
 50
326.6193819198183
 51
333.794361805197
  0
ARC
  5
10A1B
330
1F07
100
AcDbEntity
  8
器具
100
AcDbCircle
 10
10721.13655213033
 20
-23115.21613240429
 30
0.0
 40
332.8433052571877
100
AcDbArc
 50
334.9494229407751
 51
341.0839391672352
  0
ARC
  5
10A1C
330
1F07
100
AcDbEntity
  8
器具
100
AcDbCircle
 10
10653.68742812792
 20
-23092.59440900732
 30
0.0
 40
403.996258816392
100
AcDbArc
 50
342.08531244332
 51
347.476178253257
  0
ARC
  5
10A1D
330
1F07
100
AcDbEntity
  8
器具
100
AcDbCircle
 10
10591.09993678029
 20
-23079.03305960269
 30
0.0
 40
468.0441862594261
100
AcDbArc
 50
348.3716109315813
 51
353.2584919834252
  0
ARC
  5
10A1E
330
1F07
100
AcDbEntity
  8
器具
100
AcDbCircle
 10
10542.95450145352
 20
-23073.5213371758
 30
0.0
 40
516.5091109774084
100
AcDbArc
 50
354.0851279727556
 51
358.661188487179
  0
ARC
  5
10A1F
330
1F07
100
AcDbEntity
  8
器具
100
AcDbCircle
 10
10516.8586104579
 20
-23072.91849907689
 30
0.0
 40
542.6139963772491
100
AcDbArc
 50
359.4491522901669
 51
3.877180988853324
  0
ARC
  5
10A20
330
1F07
100
AcDbEntity
  8
器具
100
AcDbCircle
 10
10516.85958587518
 20
-23072.74536795847
 30
0.0
 40
542.6001468478483
100
AcDbArc
 50
4.65268009513261
 51
9.08078417303029
  0
ARC
  5
10A21
330
1F07
100
AcDbEntity
  8
器具
100
AcDbCircle
 10
10542.60273296778
 20
-23068.27426197286
 30
0.0
 40
516.4695749275099
100
AcDbArc
 50
9.868774010492016
 51
14.44506815492222
  0
ARC
  5
10A22
330
1F07
100
AcDbEntity
  8
器具
100
AcDbCircle
 10
10589.41738753122
 20
-23055.67690823699
 30
0.0
 40
467.9846019818647
100
AcDbArc
 50
15.27175883403927
 51
20.15905486797796
  0
ARC
  5
10A23
330
1F07
100
AcDbEntity
  8
器具
100
AcDbCircle
 10
10649.31188905515
 20
-23032.97722009123
 30
0.0
 40
403.9247822546055
100
AcDbArc
 50
21.05457645911616
 51
26.44607853090642
  0
ARC
  5
10A24
330
1F07
100
AcDbEntity
  8
器具
100
AcDbCircle
 10
10712.66115907158
 20
-23000.59833309642
 30
0.0
 40
332.769044570619
100
AcDbArc
 50
27.44758400033988
 51
33.58301336625557
  0
ARC
  5
10A25
330
1F07
100
AcDbEntity
  8
器具
100
AcDbCircle
 10
10770.2203565819
 20
-22961.38178999199
 30
0.0
 40
263.1050561673037
100
AcDbArc
 50
34.73826283067828
 51
41.91449146789349
  0
ARC
  5
10A26
330
1F07
100
AcDbEntity
  8
器具
100
AcDbCircle
 10
10815.02774028377
 20
-22920.07194893094
 30
0.0
 40
202.1425475614156
100
AcDbArc
 50
43.28491798520658
 51
51.8408327951862
  0
LWPOLYLINE
  5
10A27
330
1F07
100
AcDbEntity
  8
器具
100
AcDbPolyline
 90
        3
 70
   128
 43
0.0
 10
10943.27020704826
 20
-22761.04048390908
 10
10941.28202211266
 20
-22760.81717077544
 10
10939.9211462654
 20
-22761.12778679537
  0
LWPOLYLINE
  5
10A28
330
1F07
100
AcDbEntity
  8
器具
100
AcDbPolyline
 90
        3
 70
   128
 43
0.0
 10
10915.66200011528
 20
-22743.8136347834
 10
10913.62383521114
 20
-22743.45654365844
 10
10912.2678123215
 20
-22743.64900130719
  0
LINE
  5
10A29
330
1F07
100
AcDbEntity
  8
器具
100
AcDbLine
 10
10682.22486848867
 20
-22748.54370388178
 30
0.0
 11
10671.94940633392
 21
-22749.30951170831
 31
0.0
  0
LWPOLYLINE
  5
10A2A
330
1F07
100
AcDbEntity
  8
器具
100
AcDbPolyline
 90
        3
 70
   128
 43
0.0
 10
10684.13637912011
 20
-22744.71624073492
 10
10684.0830309392
 20
-22744.79078217605
 10
10682.22486848876
 20
-22748.54370388176
  0
LWPOLYLINE
  5
10A2B
330
1F07
100
AcDbEntity
  8
器具
100
AcDbPolyline
 90
       26
 70
   128
 43
0.0
 10
11047.72837077951
 20
-23241.13259964786
 10
11054.25891275512
 20
-23232.31849198001
 10
11062.51819241334
 20
-23219.25456788221
 10
11070.06113262047
 20
-23204.96602261381
 10
11076.83620744464
 20
-23189.5504614279
 10
11082.797136258
 20
-23173.11318823848
 10
11087.90319987013
 20
-23155.76648628836
 10
11092.11951868943
 20
-23137.62885114166
 10
11095.41729098431
 20
-23118.82418123719
 10
11097.77398962377
 20
-23099.48093153851
 10
11099.17351596858
 20
-23079.73123605504
 10
11099.6063098344
 20
-23059.71000523198
 10
11099.06941479871
 20
-23039.55400437823
 10
11097.56649840012
 20
-23019.40091941673
 10
11095.10782708226
 20
-22999.38841635304
 10
11091.71019606312
 20
-22979.65320087552
 10
11087.39681460579
 20
-22960.33008451677
 10
11082.19714748194
 20
-22941.5510637554
 10
11076.14671368782
 20
-22923.44441834452
 10
11069.28684382321
 20
-22906.13383503254
 10
11061.66439775508
 20
-22889.73756265595
 10
11053.331444518
 20
-22874.36760438043
 10
11044.34490663346
 20
-22860.12895260636
 10
11034.76617126625
 20
-22847.11887176336
 10
11024.66067089219
 20
-22835.42623389489
 10
11016.91607777868
 20
-22827.69917721412
  0
ARC
  5
10A2C
330
1F07
100
AcDbEntity
  8
器具
100
AcDbCircle
 10
10405.4661071377
 20
-23081.2228009358
 30
0.0
 40
542.6891800587837
100
AcDbArc
 50
359.634971265174
 51
3.691362013887929
  0
ARC
  5
10A2D
330
1F07
100
AcDbEntity
  8
器具
100
AcDbCircle
 10
10405.46671887689
 20
-23081.04476967139
 30
0.0
 40
542.6753282302164
100
AcDbArc
 50
4.838502234789689
 51
8.894962033592035
  0
LINE
  5
10A2E
330
1F07
100
AcDbEntity
  8
器具
100
AcDbLine
 10
10972.37224158573
 20
-23318.20863256647
 30
0.0
 11
10949.79609749283
 21
-23319.89118344156
 31
0.0
  0
LINE
  5
10A2F
330
1F07
100
AcDbEntity
  8
器具
100
AcDbLine
 10
10930.93942444945
 20
-22762.6227829511
 30
0.0
 11
10908.32138291903
 21
-22764.30845635067
 31
0.0
  0
LWPOLYLINE
  5
10A30
330
1F07
100
AcDbEntity
  8
器具
100
AcDbPolyline
 90
        3
 70
   128
 43
0.0
 10
10972.37224158577
 20
-23318.20863256641
 10
10977.16109101722
 20
-23318.0319141845
 10
10981.47644106699
 20
-23318.35597846215
  0
LWPOLYLINE
  5
10A31
330
1F07
100
AcDbEntity
  8
器具
100
AcDbPolyline
 90
        3
 70
   128
 43
0.0
 10
10984.8014491206
 20
-23317.94614484887
 10
10984.16107234247
 20
-23319.52483779434
 10
10983.94656020843
 20
-23319.85562951226
  0
ARC
  5
10A32
330
1F07
100
AcDbEntity
  8
器具
100
AcDbCircle
 10
10677.33477559895
 20
-22789.03601996491
 30
0.0
 40
613.0091714990205
100
AcDbArc
 50
278.2622997939839
 51
300.0115701915901
  0
ARC
  5
10A33
330
1F07
100
AcDbEntity
  8
器具
100
AcDbCircle
 10
10717.59029694674
 20
-23329.68048380736
 30
0.0
 40
613.0097883177837
100
AcDbArc
 50
68.51181043657065
 51
90.26123093473666
  0
LWPOLYLINE
  5
10A34
330
1F07
100
AcDbEntity
  8
器具
100
AcDbPolyline
 90
        3
 70
   128
 43
0.0
 10
10942.14156371682
 20
-22759.27910831319
 10
10942.7367798355
 20
-22760.03600662053
 10
10943.27020704826
 20
-22761.04048390908
  0
ARC
  5
10A35
330
1F07
100
AcDbEntity
  8
器具
100
AcDbCircle
 10
10928.43177130483
 20
-22719.82921933424
 30
0.0
 40
42.86697343326171
100
AcDbArc
 50
273.3536310755935
 51
285.546713327346
  0
ARC
  5
10A36
330
1F07
100
AcDbEntity
  8
器具
100
AcDbCircle
 10
10433.29397723254
 20
-23081.97225672337
 30
0.0
 40
514.8456291056086
100
AcDbArc
 50
354.2736849126017
 51
357.7042896909749
  0
ARC
  5
10A37
330
1F07
100
AcDbEntity
  8
器具
100
AcDbCircle
 10
10434.15510740214
 20
-23075.89273219699
 30
0.0
 40
513.5218311620073
100
AcDbArc
 50
10.82225574808779
 51
14.26078813756199
  0
LINE
  5
10A38
330
1F07
100
AcDbEntity
  8
器具
100
AcDbLine
 10
10717.68658384037
 20
-23329.08816676473
 30
0.0
 11
10707.41112168562
 21
-23329.85397459123
 31
0.0
  0
LINE
  5
10A39
330
1F07
100
AcDbEntity
  8
器具
100
AcDbLine
 10
10717.68658384037
 20
-23329.08816676473
 30
0.0
 11
10731.38401824305
 21
-23365.78236223647
 31
0.0
  0
LINE
  5
10A3A
330
1F07
100
AcDbEntity
  8
器具
100
AcDbLine
 10
10674.52552977565
 20
-22787.16115545616
 30
0.0
 11
10664.25006761974
 21
-22787.92696328268
 31
0.0
  0
LINE
  5
10A3B
330
1F07
100
AcDbEntity
  8
器具
100
AcDbLine
 10
10682.22486848867
 20
-22748.54370388178
 30
0.0
 11
10674.52552977565
 21
-22787.16115545616
 31
0.0
  0
ARC
  5
10A3C
330
1F07
100
AcDbEntity
  8
器具
100
AcDbCircle
 10
10734.60272923647
 20
-23321.57127918646
 30
0.0
 40
18.51106625511254
100
AcDbArc
 50
159.3386015943922
 51
203.9585312314068
  0
ARC
  5
10A3D
330
1F07
100
AcDbEntity
  8
器具
100
AcDbCircle
 10
10692.39207639646
 20
-22791.90856949598
 30
0.0
 40
18.48652017658903
100
AcDbArc
 50
165.1194875481048
 51
209.2178424433103
  0
ARC
  5
10A3E
330
1F07
100
AcDbEntity
  8
器具
100
AcDbCircle
 10
10487.99528470642
 20
-23088.84363979814
 30
0.0
 40
459.6952485217689
100
AcDbArc
 50
348.5551816043479
 51
351.2771898298255
  0
ARC
  5
10A3F
330
1F07
100
AcDbEntity
  8
器具
100
AcDbCircle
 10
10486.61906213793
 20
-23061.0477688572
 30
0.0
 40
458.9796725289566
100
AcDbArc
 50
17.25339015855373
 51
19.97740539749735
  0
LINE
  5
10A40
330
1F07
100
AcDbEntity
  8
器具
100
AcDbLine
 10
10704.14186677076
 20
-23391.307868935
 30
0.0
 11
10693.86640461601
 21
-23392.07367676153
 31
0.0
  0
LWPOLYLINE
  5
10A41
330
1F07
100
AcDbEntity
  8
器具
100
AcDbPolyline
 90
        3
 70
   128
 43
0.0
 10
10704.14186677081
 20
-23391.307868935
 10
10706.26220762281
 20
-23395.24390533087
 10
10707.41375873761
 20
-23396.61264995616
  0
LINE
  5
10A42
330
1F07
100
AcDbEntity
  8
器具
100
AcDbLine
 10
10651.33299684348
 20
-22728.24359327979
 30
0.0
 11
10641.05753468757
 21
-22729.00940110632
 31
0.0
  0
LWPOLYLINE
  5
10A43
330
1F07
100
AcDbEntity
  8
器具
100
AcDbPolyline
 90
        3
 70
   128
 43
0.0
 10
10653.83871095396
 20
-22722.2616846838
 10
10652.80069094074
 20
-22723.98504516331
 10
10651.33299684357
 20
-22728.24359327973
  0
ARC
  5
10A44
330
1F07
100
AcDbEntity
  8
器具
100
AcDbCircle
 10
10558.88382341931
 20
-23105.85263681214
 30
0.0
 40
386.7571859943835
100
AcDbArc
 50
342.2627691885245
 51
344.0202988437071
  0
ARC
  5
10A45
330
1F07
100
AcDbEntity
  8
器具
100
AcDbCircle
 10
10553.59690956674
 20
-23033.91299559888
 30
0.0
 40
386.6774401704994
100
AcDbArc
 50
24.51271399948213
 51
26.26862271422642
  0
LWPOLYLINE
  5
10A46
330
1F07
100
AcDbEntity
  8
器具
100
AcDbPolyline
 90
        3
 70
   128
 43
0.0
 10
10947.69970940536
 20
-23339.84928333647
 10
10952.47067444728
 20
-23339.61860620189
 10
10956.72189966917
 20
-23339.74802605616
  0
LWPOLYLINE
  5
10A47
330
1F07
100
AcDbEntity
  8
器具
100
AcDbPolyline
 90
        3
 70
   128
 43
0.0
 10
10960.05416671146
 20
-23339.08234445154
 10
10959.26893531567
 20
-23340.44760449682
 10
10959.02398469789
 20
-23340.71199004443
  0
ARC
  5
10A48
330
1F07
100
AcDbEntity
  8
器具
100
AcDbCircle
 10
10641.07688073902
 20
-22805.91041328782
 30
0.0
 40
622.176090360965
100
AcDbArc
 50
279.3354823650877
 51
300.732082274348
  0
LINE
  5
10A49
330
1F07
100
AcDbEntity
  8
器具
100
AcDbLine
 10
10693.7806250067
 20
-23351.85916064294
 30
0.0
 11
10683.50516285195
 21
-23352.62496846946
 31
0.0
  0
LINE
  5
10A4A
330
1F07
100
AcDbEntity
  8
器具
100
AcDbLine
 10
10693.7806250067
 20
-23351.85916064294
 30
0.0
 11
10704.14186677076
 21
-23391.307868935
 31
0.0
  0
ARC
  5
10A4B
330
1F07
100
AcDbEntity
  8
器具
100
AcDbCircle
 10
10679.23115562702
 20
-23318.39351573446
 30
0.0
 40
622.1940462506356
100
AcDbArc
 50
67.79203621205912
 51
89.18770608930691
  0
LWPOLYLINE
  5
10A4C
330
1F07
100
AcDbEntity
  8
器具
100
AcDbPolyline
 90
        3
 70
   128
 43
0.0
 10
10914.40151196877
 20
-22742.35503204806
 10
10915.05055210297
 20
-22742.95207121718
 10
10915.66200011528
 20
-22743.8136347834
  0
ARC
  5
10A4D
330
1F07
100
AcDbEntity
  8
器具
100
AcDbCircle
 10
10899.53747105309
 20
-22684.57474264771
 30
0.0
 40
60.43037005508348
100
AcDbArc
 50
273.5984726144799
 51
282.1611098436133
  0
ARC
  5
10A4E
330
1F07
100
AcDbEntity
  8
器具
100
AcDbCircle
 10
10711.62312889373
 20
-23345.93944428354
 30
0.0
 40
18.798882593008
100
AcDbArc
 50
159.6956598400037
 51
198.3546107518564
  0
LINE
  5
10A4F
330
1F07
100
AcDbEntity
  8
器具
100
AcDbLine
 10
10647.35806436894
 20
-22768.98091338449
 30
0.0
 11
10637.08260221419
 21
-22769.74672121101
 31
0.0
  0
LINE
  5
10A50
330
1F07
100
AcDbEntity
  8
器具
100
AcDbLine
 10
10651.33299684348
 20
-22728.24359327979
 30
0.0
 11
10647.35806436894
 21
-22768.98091338449
 31
0.0
  0
ARC
  5
10A51
330
1F07
100
AcDbEntity
  8
器具
100
AcDbCircle
 10
10665.8660400516
 20
-22772.00481864648
 30
0.0
 40
18.75337747953322
100
AcDbArc
 50
170.7207797971279
 51
208.8709748586683
  0
LINE
  5
10A52
330
1F07
100
AcDbEntity
  8
器具
100
AcDbLine
 10
10674.53944351683
 20
-23408.82366764367
 30
0.0
 11
10664.26398136208
 21
-23409.58947547017
 31
0.0
  0
LWPOLYLINE
  5
10A53
330
1F07
100
AcDbEntity
  8
器具
100
AcDbPolyline
 90
        3
 70
   128
 43
0.0
 10
10674.53944351687
 20
-23408.82366764365
 10
10676.30262443035
 20
-23413.23092009215
 10
10678.55456268819
 20
-23416.34445077103
  0
LINE
  5
10A54
330
1F07
100
AcDbEntity
  8
器具
100
AcDbLine
 10
10619.38118305644
 20
-22716.26061773905
 30
0.0
 11
10609.10572090053
 21
-22717.02642556558
 31
0.0
  0
LWPOLYLINE
  5
10A55
330
1F07
100
AcDbEntity
  8
器具
100
AcDbPolyline
 90
        3
 70
   128
 43
0.0
 10
10622.26908670507
 20
-22707.96154853981
 10
10620.42226930113
 20
-22711.60130279983
 10
10619.38118305653
 20
-22716.26061773896
  0
LINE
  5
10A56
330
1F07
100
AcDbEntity
  8
器具
100
AcDbLine
 10
10667.76952254987
 20
-23367.59180465244
 30
0.0
 11
10657.49406039512
 21
-23368.35761247897
 31
0.0
  0
ARC
  5
10A57
330
1F07
100
AcDbEntity
  8
器具
100
AcDbCircle
 10
10685.46559484589
 20
-23363.34012538105
 30
0.0
 40
18.19966349531085
100
AcDbArc
 50
159.2062565188642
 51
193.5098821265163
  0
LINE
  5
10A58
330
1F07
100
AcDbEntity
  8
器具
100
AcDbLine
 10
10667.76952254987
 20
-23367.59180465244
 30
0.0
 11
10674.53944351683
 21
-23408.82366764367
 31
0.0
  0
ARC
  5
10A59
330
1F07
100
AcDbEntity
  8
器具
100
AcDbCircle
 10
10601.01160577139
 20
-22798.3153993485
 30
0.0
 40
647.1267862411115
100
AcDbArc
 50
281.0015479844994
 51
298.2867707341276
  0
ARC
  5
10A5A
330
1F07
100
AcDbEntity
  8
器具
100
AcDbCircle
 10
10640.73490499829
 20
-23331.86544421965
 30
0.0
 40
647.1571205467123
100
AcDbArc
 50
70.2521597562972
 51
87.52067163283745
  0
LINE
  5
10A5B
330
1F07
100
AcDbEntity
  8
器具
100
AcDbLine
 10
10619.22853285132
 20
-22758.11471835384
 30
0.0
 11
10608.95307069656
 21
-22758.88052618036
 31
0.0
  0
ARC
  5
10A5C
330
1F07
100
AcDbEntity
  8
器具
100
AcDbCircle
 10
10637.28025424367
 20
-22759.51899555402
 30
0.0
 40
18.1062596827384
100
AcDbArc
 50
175.5518124658544
 51
209.3866935862456
  0
LINE
  5
10A5D
330
1F07
100
AcDbEntity
  8
器具
100
AcDbLine
 10
10619.38118305644
 20
-22716.26061773905
 30
0.0
 11
10619.22853285132
 21
-22758.11471835384
 31
0.0
  0
LINE
  5
10A5E
330
1F07
100
AcDbEntity
  8
器具
100
AcDbLine
 10
10643.30565838727
 20
-23417.89846126693
 30
0.0
 11
10633.03019623252
 21
-23418.66426909345
 31
0.0
  0
ARC
  5
10A5F
330
1F07
100
AcDbEntity
  8
器具
100
AcDbCircle
 10
10661.59191171409
 20
-23415.45601378779
 30
0.0
 40
18.44864792869762
100
AcDbArc
 50
187.6078202562608
 51
221.9096169436669
  0
LINE
  5
10A60
330
1F07
100
AcDbEntity
  8
器具
100
AcDbLine
 10
10587.15618682467
 20
-22712.88983788666
 30
0.0
 11
10576.88072466991
 21
-22713.65564571318
 31
0.0
  0
ARC
  5
10A61
330
1F07
100
AcDbEntity
  8
器具
100
AcDbCircle
 10
10605.83268773526
 20
-22712.40595114242
 30
0.0
 40
18.68276833393318
100
AcDbArc
 50
146.7706563937871
 51
181.4841359879989
  0
LINE
  5
10A62
330
1F07
100
AcDbEntity
  8
器具
100
AcDbLine
 10
10640.29375613949
 20
-23375.89870888418
 30
0.0
 11
10630.01829398474
 21
-23376.66451671071
 31
0.0
  0
ARC
  5
10A63
330
1F07
100
AcDbEntity
  8
器具
100
AcDbCircle
 10
10657.29330147007
 20
-23373.29276320015
 30
0.0
 40
17.19812473309038
100
AcDbArc
 50
158.5331985426988
 51
188.7153123263534
  0
LINE
  5
10A64
330
1F07
100
AcDbEntity
  8
器具
100
AcDbLine
 10
10640.29375613949
 20
-23375.89870888418
 30
0.0
 11
10643.30565838727
 21
-23417.89846126693
 31
0.0
  0
LINE
  5
10A65
330
1F07
100
AcDbEntity
  8
器具
100
AcDbLine
 10
10590.8295776449
 20
-22754.83013214813
 30
0.0
 11
10580.55411548899
 21
-22755.59593997466
 31
0.0
  0
ARC
  5
10A66
330
1F07
100
AcDbEntity
  8
器具
100
AcDbCircle
 10
10607.8929155105
 20
-22754.72561401802
 30
0.0
 40
17.063657965416
100
AcDbArc
 50
180.3509496733543
 51
210.073170839066
  0
LINE
  5
10A67
330
1F07
100
AcDbEntity
  8
器具
100
AcDbLine
 10
10587.15618682467
 20
-22712.88983788666
 30
0.0
 11
10590.8295776449
 21
-22754.83013214813
 31
0.0
  0
LINE
  5
10A68
330
1F07
100
AcDbEntity
  8
器具
100
AcDbLine
 10
10611.20959083131
 20
-23418.30879826844
 30
0.0
 11
10600.9341286754
 21
-23419.07460609494
 31
0.0
  0
ARC
  5
10A69
330
1F07
100
AcDbEntity
  8
器具
100
AcDbCircle
 10
10631.62197723133
 20
-23417.35157685471
 30
0.0
 40
20.43481811519785
100
AcDbArc
 50
182.6848696978011
 51
220.5427552697823
  0
LINE
  5
10A6A
330
1F07
100
AcDbEntity
  8
器具
100
AcDbLine
 10
10612.02987033192
 20
-23376.57532978667
 30
0.0
 11
10601.75440817717
 21
-23377.34113761319
 31
0.0
  0
LWPOLYLINE
  5
10A6B
330
1F07
100
AcDbEntity
  8
器具
100
AcDbPolyline
 90
        3
 70
   128
 43
0.0
 10
10613.17172049446
 20
-23369.52616252657
 10
10612.39778393266
 20
-23372.08166508733
 10
10612.02987033201
 20
-23376.57532978671
  0
LINE
  5
10A6C
330
1F07
100
AcDbEntity
  8
器具
100
AcDbLine
 10
10562.8604752768
 20
-22759.20803218125
 30
0.0
 11
10552.58501312205
 21
-22759.9738400078
 31
0.0
  0
LWPOLYLINE
  5
10A6D
330
1F07
100
AcDbEntity
  8
器具
100
AcDbPolyline
 90
        3
 70
   128
 43
0.0
 10
10562.8604752768
 20
-22759.20803218128
 10
10563.93385481458
 20
-22763.57214576492
 10
10565.0097678691
 20
-22765.80356838039
  0
LINE
  5
10A6E
330
1F07
100
AcDbEntity
  8
器具
100
AcDbLine
 10
10555.45149450704
 20
-22718.21425350921
 30
0.0
 11
10545.17603235114
 21
-22718.98006133573
 31
0.0
  0
ARC
  5
10A6F
330
1F07
100
AcDbEntity
  8
器具
100
AcDbCircle
 10
10575.96433809859
 20
-22715.92185712013
 30
0.0
 40
20.64053859316209
100
AcDbArc
 50
148.1292237558488
 51
186.3765860065679
  0
LINE
  5
10A70
330
1F07
100
AcDbEntity
  8
器具
100
AcDbLine
 10
10612.02987033192
 20
-23376.57532978667
 30
0.0
 11
10611.20959083131
 21
-23418.30879826844
 31
0.0
  0
LINE
  5
10A71
330
1F07
100
AcDbEntity
  8
器具
100
AcDbLine
 10
10555.45149450704
 20
-22718.21425350921
 30
0.0
 11
10562.8604752768
 21
-22759.20803218125
 31
0.0
  0
LINE
  5
10A72
330
1F07
100
AcDbEntity
  8
器具
100
AcDbLine
 10
10583.67381579747
 20
-23369.6050067079
 30
0.0
 11
10573.39835364272
 21
-23370.3708145344
 31
0.0
  0
LWPOLYLINE
  5
10A73
330
1F07
100
AcDbEntity
  8
器具
100
AcDbPolyline
 90
        3
 70
   128
 43
0.0
 10
10584.79421562461
 20
-23364.39870788438
 10
10584.45248649782
 20
-23365.32613563337
 10
10583.67381579747
 20
-23369.60500670787
  0
LINE
  5
10A74
330
1F07
100
AcDbEntity
  8
器具
100
AcDbLine
 10
10536.00991787209
 20
-22771.14062002438
 30
0.0
 11
10525.73445571734
 21
-22771.90642785093
 31
0.0
  0
LWPOLYLINE
  5
10A75
330
1F07
100
AcDbEntity
  8
器具
100
AcDbPolyline
 90
        3
 70
   128
 43
0.0
 10
10536.00991787213
 20
-22771.14062002441
 10
10537.45424454512
 20
-22775.21967623683
 10
10537.84660603911
 20
-22775.92331454726
  0
LINE
  5
10A76
330
1F07
100
AcDbEntity
  8
器具
100
AcDbLine
 10
10579.04155255103
 20
-23410.04457478886
 30
0.0
 11
10568.76609039628
 21
-23410.81038261541
 31
0.0
  0
ARC
  5
10A77
330
1F07
100
AcDbEntity
  8
器具
100
AcDbCircle
 10
10600.03408411563
 20
-23411.20741448796
 30
0.0
 40
21.02471349689032
100
AcDbArc
 50
176.8294539696078
 51
220.4249546584963
  0
LINE
  5
10A78
330
1F07
100
AcDbEntity
  8
器具
100
AcDbLine
 10
10583.67381579747
 20
-23369.6050067079
 30
0.0
 11
10579.04155255103
 21
-23410.04457478886
 31
0.0
  0
LINE
  5
10A79
330
1F07
100
AcDbEntity
  8
器具
100
AcDbLine
 10
10525.04778084745
 20
-22732.10275982334
 30
0.0
 11
10514.77231869154
 21
-22732.86856764986
 31
0.0
  0
ARC
  5
10A7A
330
1F07
100
AcDbEntity
  8
器具
100
AcDbCircle
 10
10545.77414242767
 20
-22727.6193748072
 30
0.0
 40
21.20572577391782
100
AcDbArc
 50
148.2417166831051
 51
192.2057756727356
  0
LINE
  5
10A7B
330
1F07
100
AcDbEntity
  8
器具
100
AcDbLine
 10
10525.04778084745
 20
-22732.10275982334
 30
0.0
 11
10536.00991787209
 21
-22771.14062002438
 31
0.0
  0
LINE
  5
10A7C
330
1F07
100
AcDbEntity
  8
器具
100
AcDbLine
 10
10555.92381270668
 20
-23355.15937213489
 30
0.0
 11
10545.64835055193
 21
-23355.92517996138
 31
0.0
  0
LINE
  5
10A7D
330
1F07
100
AcDbEntity
  8
器具
100
AcDbLine
 10
10556.85444831862
 20
-23351.74279308466
 30
0.0
 11
10555.92381270668
 21
-23355.15937213489
 31
0.0
  0
LINE
  5
10A7E
330
1F07
100
AcDbEntity
  8
器具
100
AcDbLine
 10
10510.93905526656
 20
-22790.33407576343
 30
0.0
 11
10500.66359311181
 21
-22791.09988358996
 31
0.0
  0
LINE
  5
10A7F
330
1F07
100
AcDbEntity
  8
器具
100
AcDbLine
 10
10510.93905526656
 20
-22790.33407576343
 30
0.0
 11
10512.30562350558
 21
-22793.38636441611
 31
0.0
  0
LINE
  5
10A80
330
1F07
100
AcDbEntity
  8
器具
100
AcDbLine
 10
10547.59362741093
 20
-23393.30928343804
 30
0.0
 11
10537.31816525502
 21
-23394.07509126455
 31
0.0
  0
ARC
  5
10A81
330
1F07
100
AcDbEntity
  8
器具
100
AcDbCircle
 10
10569.85066794845
 20
-23396.3272875484
 30
0.0
 40
22.460725775048
100
AcDbArc
 50
172.2779206397666
 51
219.2581612709253
  0
LINE
  5
10A82
330
1F07
100
AcDbEntity
  8
器具
100
AcDbLine
 10
10555.92381270668
 20
-23355.15937213489
 30
0.0
 11
10547.59362741093
 21
-23393.30928343804
 31
0.0
  0
LINE
  5
10A83
330
1F07
100
AcDbEntity
  8
器具
100
AcDbLine
 10
10496.69368618109
 20
-22754.21337571052
 30
0.0
 11
10486.41822402518
 21
-22754.97918353706
 31
0.0
  0
ARC
  5
10A84
330
1F07
100
AcDbEntity
  8
器具
100
AcDbCircle
 10
10518.32851302379
 20
-22747.69792436754
 30
0.0
 40
22.59461968544115
100
AcDbArc
 50
149.380829161689
 51
196.7599739974515
  0
LINE
  5
10A85
330
1F07
100
AcDbEntity
  8
器具
100
AcDbLine
 10
10496.69368618109
 20
-22754.21337571052
 30
0.0
 11
10510.93905526656
 21
-22790.33407576343
 31
0.0
  0
LINE
  5
10A86
330
1F07
100
AcDbEntity
  8
器具
100
AcDbLine
 10
10529.46315823326
 20
-23333.59412553366
 30
0.0
 11
10519.18769607851
 21
-23334.35993336019
 31
0.0
  0
LINE
  5
10A87
330
1F07
100
AcDbEntity
  8
器具
100
AcDbLine
 10
10530.04038837914
 20
-23331.87004874837
 30
0.0
 11
10529.46315823326
 21
-23333.59412553366
 31
0.0
  0
LINE
  5
10A88
330
1F07
100
AcDbEntity
  8
器具
100
AcDbLine
 10
10488.26521530138
 20
-22816.31579281824
 30
0.0
 11
10477.98975314663
 21
-22817.08160064474
 31
0.0
  0
LINE
  5
10A89
330
1F07
100
AcDbEntity
  8
器具
100
AcDbLine
 10
10488.26521530138
 20
-22816.31579281824
 30
0.0
 11
10489.01572410209
 21
-22817.76271987683
 31
0.0
  0
LINE
  5
10A8A
330
1F07
100
AcDbEntity
  8
器具
100
AcDbLine
 10
10517.64016769527
 20
-23368.51500263018
 30
0.0
 11
10507.36470554052
 21
-23369.2808104567
 31
0.0
  0
LINE
  5
10A8B
330
1F07
100
AcDbEntity
  8
器具
100
AcDbLine
 10
10529.46315823326
 20
-23333.59412553366
 30
0.0
 11
10517.64016769527
 21
-23368.51500263018
 31
0.0
  0
ARC
  5
10A8C
330
1F07
100
AcDbEntity
  8
器具
100
AcDbCircle
 10
10539.19603209462
 20
-23373.84296188959
 30
0.0
 40
22.20455898801624
100
AcDbArc
 50
166.1164762306355
 51
219.9005437508157
  0
LINE
  5
10A8D
330
1F07
100
AcDbEntity
  8
器具
100
AcDbLine
 10
10471.08738241984
 20
-22784.00166442672
 30
0.0
 11
10460.81192026509
 21
-22784.76747225327
 31
0.0
  0
LINE
  5
10A8E
330
1F07
100
AcDbEntity
  8
器具
100
AcDbLine
 10
10471.08738241984
 20
-22784.00166442672
 30
0.0
 11
10488.26521530138
 21
-22816.31579281824
 31
0.0
  0
ARC
  5
10A8F
330
1F07
100
AcDbEntity
  8
器具
100
AcDbCircle
 10
10492.19412076368
 20
-22775.35568728386
 30
0.0
 40
22.80893080015926
100
AcDbArc
 50
149.3652285173371
 51
202.2755337445752
  0
LINE
  5
10A90
330
1F07
100
AcDbEntity
  8
器具
100
AcDbLine
 10
10504.94340150927
 20
-23305.44027484625
 30
0.0
 11
10494.66793935452
 21
-23306.2060826728
 31
0.0
  0
LINE
  5
10A91
330
1F07
100
AcDbEntity
  8
器具
100
AcDbLine
 10
10468.54670316856
 20
-22848.44601508645
 30
0.0
 11
10458.27124101382
 21
-22849.211822913
 31
0.0
  0
LINE
  5
10A92
330
1F07
100
AcDbEntity
  8
器具
100
AcDbLine
 10
10489.91872699353
 20
-23336.27224984632
 30
0.0
 11
10479.64326483877
 21
-23337.03805767287
 31
0.0
  0
LINE
  5
10A93
330
1F07
100
AcDbEntity
  8
器具
100
AcDbLine
 10
10504.94340150927
 20
-23305.44027484625
 30
0.0
 11
10489.91872699353
 21
-23336.27224984632
 31
0.0
  0
LINE
  5
10A94
330
1F07
100
AcDbEntity
  8
器具
100
AcDbLine
 10
10448.85938174654
 20
-22820.73413944208
 30
0.0
 11
10438.58391959179
 21
-22821.4999472686
 31
0.0
  0
LINE
  5
10A95
330
1F07
100
AcDbEntity
  8
器具
100
AcDbLine
 10
10448.85938174654
 20
-22820.73413944208
 30
0.0
 11
10468.54670316856
 21
-22848.44601508645
 31
0.0
  0
ARC
  5
10A96
330
1F07
100
AcDbEntity
  8
器具
100
AcDbCircle
 10
10511.70213811687
 20
-23343.54431291536
 30
0.0
 40
22.9651889055105
100
AcDbArc
 50
161.5391907209317
 51
219.1072575839222
  0
LINE
  5
10A97
330
1F07
100
AcDbEntity
  8
器具
100
AcDbLine
 10
10481.63219844493
 20
-23271.49063807803
 30
0.0
 11
10472.69283816457
 21
-23272.15686914033
 31
0.0
  0
ARC
  5
10A98
330
1F07
100
AcDbEntity
  8
器具
100
AcDbCircle
 10
10469.63071910407
 20
-22810.1085443953
 30
0.0
 40
23.331346419049
100
AcDbArc
 50
149.9056230870229
 51
207.0920527690834
  0
LINE
  5
10A99
330
1F07
100
AcDbEntity
  8
器具
100
AcDbLine
 10
10450.75045100989
 20
-22886.0467680432
 30
0.0
 11
10441.9935919226
 21
-22886.69939768866
 31
0.0
  0
LINE
  5
10A9A
330
1F07
100
AcDbEntity
  8
器具
100
AcDbLine
 10
10465.11189917788
 20
-23297.37494866737
 30
0.0
 11
10454.83643702313
 21
-23298.1407564939
 31
0.0
  0
LINE
  5
10A9B
330
1F07
100
AcDbEntity
  8
器具
100
AcDbLine
 10
10482.27009916746
 20
-23272.40705439872
 30
0.0
 11
10465.11189917788
 21
-23297.37494866737
 31
0.0
  0
LINE
  5
10A9C
330
1F07
100
AcDbEntity
  8
器具
100
AcDbLine
 10
10430.55701130721
 20
-22863.50632531354
 30
0.0
 11
10420.28154915246
 21
-22864.27213314004
 31
0.0
  0
LINE
  5
10A9D
330
1F07
100
AcDbEntity
  8
器具
100
AcDbLine
 10
10430.55701130721
 20
-22863.50632531354
 30
0.0
 11
10451.30980308968
 21
-22884.94273994984
 31
0.0
  0
LINE
  5
10A9E
330
1F07
100
AcDbEntity
  8
器具
100
AcDbLine
 10
10461.02435551904
 20
-23232.51254219547
 30
0.0
 11
10453.80349243195
 21
-23233.05069740277
 31
0.0
  0
LINE
  5
10A9F
330
1F07
100
AcDbEntity
  8
器具
100
AcDbLine
 10
10436.57384084604
 20
-22928.09835247336
 30
0.0
 11
10429.5576156171
 21
-22928.62125646666
 31
0.0
  0
ARC
  5
10AA0
330
1F07
100
AcDbEntity
  8
器具
100
AcDbCircle
 10
10485.70016561369
 20
-23306.68064212596
 30
0.0
 40
22.59364170641409
100
AcDbArc
 50
155.6775006328202
 51
219.699741443778
  0
ARC
  5
10AA1
330
1F07
100
AcDbEntity
  8
器具
100
AcDbCircle
 10
10449.42596148422
 20
-22851.05932749452
 30
0.0
 40
22.60453572834638
100
AcDbArc
 50
148.8472918462182
 51
213.4110408489538
  0
LINE
  5
10AA2
330
1F07
100
AcDbEntity
  8
器具
100
AcDbLine
 10
10443.78958481838
 20
-23189.4536630095
 30
0.0
 11
10438.46502053989
 21
-23189.85049119437
 31
0.0
  0
LINE
  5
10AA3
330
1F07
100
AcDbEntity
  8
器具
100
AcDbLine
 10
10443.83051067754
 20
-23252.78087974142
 30
0.0
 11
10433.5550485228
 21
-23253.54668756767
 31
0.0
  0
LINE
  5
10AA4
330
1F07
100
AcDbEntity
  8
器具
100
AcDbLine
 10
10462.33263610822
 20
-23234.05255757693
 30
0.0
 11
10443.83051067754
 21
-23252.78087974142
 31
0.0
  0
LINE
  5
10AA5
330
1F07
100
AcDbEntity
  8
器具
100
AcDbLine
 10
10426.3723557259
 20
-22973.56484124378
 30
0.0
 11
10421.2695271052
 21
-22973.94514395293
 31
0.0
  0
LINE
  5
10AA6
330
1F07
100
AcDbEntity
  8
器具
100
AcDbLine
 10
10416.63093620455
 20
-22911.26502887186
 30
0.0
 11
10406.35547404864
 21
-22912.03083669836
 31
0.0
  0
LINE
  5
10AA7
330
1F07
100
AcDbEntity
  8
器具
100
AcDbLine
 10
10416.63093620455
 20
-22911.26502887186
 30
0.0
 11
10437.7012711959
 21
-22926.33112529891
 31
0.0
  0
LWPOLYLINE
  5
10AA8
330
1F07
100
AcDbEntity
  8
器具
100
AcDbPolyline
 90
        3
 70
   128
 43
0.0
 10
10424.35833429735
 20
-23015.36199740555
 10
10423.31781939747
 20
-23015.4259206593
 10
10402.76018819037
 20
-23016.73580579776
  0
LINE
  5
10AA9
330
1F07
100
AcDbEntity
  8
器具
100
AcDbLine
 10
10430.35226359857
 20
-23143.37425302948
 30
0.0
 11
10427.05510657151
 21
-23143.61998296532
 31
0.0
  0
ARC
  5
10AAA
330
1F07
100
AcDbEntity
  8
器具
100
AcDbCircle
 10
10463.43813554719
 20
-23263.88200953885
 30
0.0
 40
22.53206683319366
100
AcDbArc
 50
150.4830261684762
 51
219.1352766882314
  0
LINE
  5
10AAB
330
1F07
100
AcDbEntity
  8
器具
100
AcDbLine
 10
10420.3971900706
 20
-23021.32669850599
 30
0.0
 11
10417.33340663401
 21
-23021.55503561615
 31
0.0
  0
ARC
  5
10AAC
330
1F07
100
AcDbEntity
  8
器具
100
AcDbCircle
 10
10434.18933896414
 20
-22897.21452889425
 30
0.0
 40
22.48808700387276
100
AcDbArc
 50
149.3743911569863
 51
218.6673242015485
  0
LINE
  5
10AAD
330
1F07
100
AcDbEntity
  8
器具
100
AcDbLine
 10
10426.5985799073
 20
-23203.58809704434
 30
0.0
 11
10416.32311775255
 21
-23204.35390487087
 31
0.0
  0
LINE
  5
10AAE
330
1F07
100
AcDbEntity
  8
器具
100
AcDbLine
 10
10445.62428349989
 20
-23191.12585961492
 30
0.0
 11
10426.5985799073
 21
-23203.58809704434
 31
0.0
  0
LINE
  5
10AAF
330
1F07
100
AcDbEntity
  8
器具
100
AcDbLine
 10
10407.42406262462
 20
-22962.83427233385
 30
0.0
 11
10397.14860046872
 21
-22963.6000801604
 31
0.0
  0
LINE
  5
10AB0
330
1F07
100
AcDbEntity
  8
器具
100
AcDbLine
 10
10407.42406262462
 20
-22962.83427233385
 30
0.0
 11
10427.98387411503
 21
-22971.65203313712
 31
0.0
  0
LINE
  5
10AB1
330
1F07
100
AcDbEntity
  8
器具
100
AcDbLine
 10
10421.04326330159
 20
-23095.40894025824
 30
0.0
 11
10419.85470047559
 21
-23095.49752125848
 31
0.0
  0
LINE
  5
10AB2
330
1F07
100
AcDbEntity
  8
器具
100
AcDbLine
 10
10418.79547228725
 20
-23070.20786882198
 30
0.0
 11
10417.84617455247
 21
-23070.27861791587
 31
0.0
  0
LINE
  5
10AB3
330
1F07
100
AcDbEntity
  8
器具
100
AcDbLine
 10
10413.84041419201
 20
-23151.00789014757
 30
0.0
 11
10403.56495203726
 21
-23151.77369797412
 31
0.0
  0
LINE
  5
10AB4
330
1F07
100
AcDbEntity
  8
器具
100
AcDbLine
 10
10432.33267543151
 20
-23144.58900397988
 30
0.0
 11
10413.84041419201
 21
-23151.00789014757
 31
0.0
  0
LINE
  5
10AB5
330
1F07
100
AcDbEntity
  8
器具
100
AcDbLine
 10
10403.1630943507
 20
-23016.94424977703
 30
0.0
 11
10392.88763219595
 21
-23017.71005760355
 31
0.0
  0
LINE
  5
10AB6
330
1F07
100
AcDbEntity
  8
器具
100
AcDbLine
 10
10403.1630943507
 20
-23016.94424977703
 30
0.0
 11
10422.15616605596
 21
-23019.93159400228
 31
0.0
  0
ARC
  5
10AB7
330
1F07
100
AcDbEntity
  8
器具
100
AcDbCircle
 10
10444.39428651122
 20
-23216.2933977967
 30
0.0
 40
21.86576869757586
100
AcDbArc
 50
144.4749414545238
 51
220.0752480448002
  0
ARC
  5
10AB8
330
1F07
100
AcDbEntity
  8
器具
100
AcDbCircle
 10
10422.90542998402
 20
-22947.50291594421
 30
0.0
 40
21.78814411709747
100
AcDbArc
 50
148.2893712827802
 51
224.7210591425452
  0
ARC
  5
10AB9
330
1F07
100
AcDbEntity
  8
器具
100
AcDbCircle
 10
10429.70787168195
 20
-23165.0229510335
 30
0.0
 40
21.17069056048483
100
AcDbArc
 50
138.5471867471762
 51
221.9365990853618
  0
ARC
  5
10ABA
330
1F07
100
AcDbEntity
  8
器具
100
AcDbCircle
 10
10415.93156625931
 20
-23000.72904359157
 30
0.0
 40
20.63896282567003
100
AcDbArc
 50
145.1581906706634
 51
231.7817554083324
  0
ARC
  5
10ABB
330
1F07
100
AcDbEntity
  8
器具
100
AcDbCircle
 10
10419.31762243332
 20
-23111.27220801079
 30
0.0
 40
20.18571457425189
100
AcDbArc
 50
132.7010921456933
 51
226.2667211773202
  0
ARC
  5
10ABC
330
1F07
100
AcDbEntity
  8
器具
100
AcDbCircle
 10
10415.1713114869
 20
-23055.549646859
 30
0.0
 40
20.45780803488877
100
AcDbArc
 50
142.127262865039
 51
233.3885062288536
  0
LWPOLYLINE
  5
10ACA
330
1F07
100
AcDbEntity
  8
器具
100
AcDbPolyline
 90
       25
 70
   128
 43
0.0
 10
11076.17542195376
 20
-23197.60219458333
 10
11079.91294534117
 20
-23193.2705868477
 10
11087.66200595333
 20
-23182.77606328107
 10
11094.74124925559
 20
-23170.9914202227
 10
11101.08846260587
 20
-23158.02022153947
 10
11106.64786646317
 20
-23143.97645859235
 10
11111.37060458767
 20
-23128.98354847411
 10
11115.21517338617
 20
-23113.17324941895
 10
11118.1477866515
 20
-23096.68450290291
 10
11120.14267247041
 20
-23079.66221262318
 10
11121.18229971583
 20
-23062.25597107903
 10
11121.25753210484
 20
-23044.61874494683
 10
11120.36770849483
 20
-23026.90553080429
 10
11118.52064868745
 20
-23009.27199301396
 10
11115.73258470859
 20
-22991.87309574007
 10
11112.02801816628
 20
-22974.86174111722
 10
11107.43950492305
 20
-22958.38742554167
 10
11102.00736900064
 20
-22942.59492589137
 10
11095.77934820297
 20
-22927.6230272207
 10
11088.81017460228
 20
-22913.6033031136
 10
11081.16109354555
 20
-22900.65895940945
 10
11072.89932543171
 20
-22888.90375146632
 10
11064.09747497635
 20
-22878.44098447445
 10
11054.83289315939
 20
-22869.36260560605
 10
11051.50147441235
 20
-22866.53191115437
  0
ARC
  5
10ACC
330
1F07
100
AcDbEntity
  8
器具
100
AcDbCircle
 10
11240.30360099737
 20
-23134.00003889512
 30
0.0
 40
74.56252461587027
100
AcDbArc
 50
275.8278346146174
 51
284.4963674904012
  0
LWPOLYLINE
  5
10ACE
330
1F07
100
AcDbEntity
  8
器具
100
AcDbPolyline
 90
       35
 70
   128
 43
0.0
 10
10744.81929803732
 20
-22775.0614410666
 10
10756.42402456095
 20
-22793.15873934636
 10
10767.37790399785
 20
-22812.42569402913
 10
10777.63403015692
 20
-22832.77980105718
 10
10787.14848472988
 20
-22854.13390101933
 10
10795.88052536212
 20
-22876.39655238123
 10
10803.79276011484
 20
-22899.47242305181
 10
10810.85130758357
 20
-22923.26269861042
 10
10817.02594198593
 20
-22947.66550544443
 10
10822.29022258808
 20
-22972.57634698902
 10
10826.62160693227
 20
-22997.88855119587
 10
10830.00154736757
 20
-23023.49372732083
 10
10832.4155704671
 20
-23049.28223006878
 10
10833.85333901603
 20
-23075.1436291116
 10
10834.30869626747
 20
-23100.96718196877
 10
10833.77969231318
 20
-23126.64230822172
 10
10832.26859242646
 20
-23152.05906303865
 10
10829.78186737158
 20
-23177.10860797341
 10
10826.33016568584
 20
-23201.68367702825
 10
10821.92826808622
 20
-23225.67903598559
 10
10816.59502417433
 20
-23248.99193303386
 10
10810.35327171818
 20
-23271.52253876931
 10
10803.22973886177
 20
-23293.17437367881
 10
10795.25492966448
 20
-23313.85472128132
 10
10786.46299348472
 20
-23333.4750251537
 10
10776.89157874323
 20
-23351.95126814255
 10
10766.58167170557
 20
-23369.20433213852
 10
10755.57742097959
 20
-23385.16033687346
 10
10743.92594845313
 20
-23399.75095628501
 10
10731.67714752318
 20
-23412.91371110091
 10
10718.88346943366
 20
-23424.59223638435
 10
10705.5996986785
 20
-23434.73652289713
 10
10691.88271840449
 20
-23443.30313124692
 10
10677.79126682608
 20
-23450.25537790192
 10
10667.81004832602
 20
-23454.11991720207
  0
ARC
  5
10ACF
330
1F07
100
AcDbEntity
  8
器具
100
AcDbCircle
 10
10554.99742450112
 20
-22887.05103073677
 30
0.0
 40
220.395126687321
100
AcDbArc
 50
30.53941464577065
 51
76.20580330884199
  0
ARC
  5
10AD0
330
1F07
100
AcDbEntity
  8
器具
100
AcDbCircle
 10
10802.62040617786
 20
-22203.39854813202
 30
0.0
 40
954.1986996175193
100
AcDbArc
 50
280.4935844188474
 51
284.8360830602621
  0
ARC
  5
10AD1
330
1F07
100
AcDbEntity
  8
器具
100
AcDbCircle
 10
10928.44639819839
 20
-23888.13834861134
 30
0.0
 40
952.0834170343732
100
AcDbArc
 50
83.68142326111073
 51
87.9702628239797
  0
ARC
  5
10AD2
330
1F07
100
AcDbEntity
  8
器具
100
AcDbCircle
 10
10751.83118472817
 20
-22310.83174533825
 30
0.0
 40
908.5572465024606
100
AcDbArc
 50
275.7624389183172
 51
288.4871229803097
  0
ARC
  5
10AD3
330
1F07
100
AcDbEntity
  8
器具
100
AcDbCircle
 10
10862.14825412689
 20
-23791.29219833511
 30
0.0
 40
908.3181690248849
100
AcDbArc
 50
80.03320273244293
 51
92.76142823371554
  0
ARC
  5
10AD4
330
1F07
100
AcDbEntity
  8
器具
100
AcDbCircle
 10
10747.35882748375
 20
-22526.20058431326
 30
0.0
 40
745.056294972202
100
AcDbArc
 50
276.4197537125591
 51
292.180186454591
  0
ARC
  5
10AD5
330
1F07
100
AcDbEntity
  8
器具
100
AcDbCircle
 10
10825.80466861168
 20
-23579.09321705376
 30
0.0
 40
744.9399472894141
100
AcDbArc
 50
76.34086161939743
 51
92.10401916587377
  0
ARC
  5
10AD6
330
1F07
100
AcDbEntity
  8
器具
100
AcDbCircle
 10
10731.37043727406
 20
-22654.74364069643
 30
0.0
 40
663.7067081213083
100
AcDbArc
 50
277.1663340083609
 51
295.1408865062218
  0
ARC
  5
10AD7
330
1F07
100
AcDbEntity
  8
器具
100
AcDbCircle
 10
10790.93859798393
 20
-23454.40478804732
 30
0.0
 40
663.6486607638538
100
AcDbArc
 50
73.38094429731476
 51
91.3573481631708
  0
ARC
  5
10AD8
330
1F07
100
AcDbEntity
  8
器具
100
AcDbCircle
 10
10710.58193357885
 20
-22744.68619287327
 30
0.0
 40
614.6654414029168
100
AcDbArc
 50
277.8389749828083
 51
297.5033272337766
  0
ARC
  5
10AD9
330
1F07
100
AcDbEntity
  8
器具
100
AcDbCircle
 10
10755.37344538484
 20
-23378.96783881087
 30
0.0
 40
625.0123084849576
100
AcDbArc
 50
71.18402012930308
 51
90.51987688697854
  0
ARC
  5
10ADA
330
1F07
100
AcDbEntity
  8
器具
100
AcDbCircle
 10
10592.19227601906
 20
-23067.17992742713
 30
0.0
 40
474.3477645118225
100
AcDbArc
 50
335.6292269763049
 51
32.79875620552078
  0
ARC
  5
10ADB
330
1F07
100
AcDbEntity
  8
器具
100
AcDbCircle
 10
10869.48568940638
 20
-23214.14402321397
 30
0.0
 40
152.9265245500222
100
AcDbArc
 50
304.7812805625957
 51
313.4070812316755
  0
ARC
  5
10ADC
330
1F07
100
AcDbEntity
  8
器具
100
AcDbCircle
 10
10845.36282983451
 20
-22879.59195501387
 30
0.0
 40
151.5148947927172
100
AcDbArc
 50
55.09285067691666
 51
63.79567173881278
  0
ARC
  5
10ADD
330
1F07
100
AcDbEntity
  8
器具
100
AcDbCircle
 10
10679.4143932202
 20
-22787.35510032193
 30
0.0
 40
606.3248086759577
100
AcDbArc
 50
278.8598347014623
 51
298.8926333969013
  0
ARC
  5
10ADE
330
1F07
100
AcDbEntity
  8
器具
100
AcDbCircle
 10
10718.72564058954
 20
-23337.44469147026
 30
0.0
 40
612.743760942123
100
AcDbArc
 50
69.73677194437716
 51
89.55754679034082
  0
ARC
  5
10ADF
330
1F07
100
AcDbEntity
  8
器具
100
AcDbCircle
 10
10643.4137603518
 20
-22803.60265800752
 30
0.0
 40
616.5633641142952
100
AcDbArc
 50
280.1314387075598
 51
299.5721617350931
  0
ARC
  5
10AE0
330
1F07
100
AcDbEntity
  8
器具
100
AcDbCircle
 10
10681.28478696878
 20
-23323.32391723378
 30
0.0
 40
619.592348600467
100
AcDbArc
 50
68.99965419474908
 51
88.34385620081821
  0
ARC
  5
10AE1
330
1F07
100
AcDbEntity
  8
器具
100
AcDbCircle
 10
10603.08189282498
 20
-22793.94297126461
 30
0.0
 40
644.2980790410918
100
AcDbArc
 50
281.9877149465463
 51
287.8328602273137
  0
ARC
  5
10AE2
330
1F07
100
AcDbEntity
  8
器具
100
AcDbCircle
 10
10643.43225816024
 20
-23335.87152836801
 30
0.0
 40
644.317996577065
100
AcDbArc
 50
80.70590234596147
 51
86.53448494209667
  0
LINE
  5
10AE3
330
1F07
100
AcDbEntity
  8
器具
100
AcDbLine
 10
10551.70779211853
 20
-23409.69332907786
 30
0.0
 11
10553.12156018614
 21
-23409.51444095486
 31
0.0
  0
LINE
  5
10AE4
330
1F07
100
AcDbEntity
  8
器具
100
AcDbLine
 10
10518.58923295387
 20
-23381.97311462719
 30
0.0
 11
10524.67742744112
 21
-23381.22772125743
 31
0.0
  0
LINE
  5
10AE5
330
1F07
100
AcDbEntity
  8
器具
100
AcDbLine
 10
10474.80934060869
 20
-22766.82619839014
 30
0.0
 11
10470.87777114786
 21
-22766.94565687528
 31
0.0
  0
LINE
  5
10AE6
330
1F07
100
AcDbEntity
  8
器具
100
AcDbLine
 10
10489.0583377078
 20
-23346.31093675731
 30
0.0
 11
10498.45735836718
 21
-23345.20757704901
 31
0.0
  0
LINE
  5
10AE7
330
1F07
100
AcDbEntity
  8
器具
100
AcDbLine
 10
10453.95650224122
 20
-22806.36456987884
 30
0.0
 11
10446.56626202834
 21
-22806.62489153275
 31
0.0
  0
LINE
  5
10AE8
330
1F07
100
AcDbEntity
  8
器具
100
AcDbLine
 10
10463.47531185411
 20
-23303.64295520717
 30
0.0
 11
10477.07924971516
 21
-23302.12002569267
 31
0.0
  0
LINE
  5
10AE9
330
1F07
100
AcDbEntity
  8
器具
100
AcDbLine
 10
10438.74726877517
 20
-22852.18501355616
 30
0.0
 11
10427.10443793628
 21
-22852.65545864155
 31
0.0
  0
LINE
  5
10AEA
330
1F07
100
AcDbEntity
  8
器具
100
AcDbLine
 10
10442.66764045199
 20
-23255.01431914225
 30
0.0
 11
10462.24553292248
 21
-23252.94051849785
 31
0.0
  0
LINE
  5
10AEB
330
1F07
100
AcDbEntity
  8
器具
100
AcDbLine
 10
10430.68051806541
 20
-22903.07640004588
 30
0.0
 11
10412.84134529457
 21
-22903.89931759465
 31
0.0
  0
LWPOLYLINE
  5
10AEC
330
1F07
100
AcDbEntity
  8
器具
100
AcDbPolyline
 90
        3
 70
   128
 43
0.0
 10
10429.96895025876
 20
-23201.38043332562
 10
10445.5294170427
 20
-23199.87055381577
 10
10448.70994237052
 20
-23199.54938414393
  0
LWPOLYLINE
  5
10AED
330
1F07
100
AcDbEntity
  8
器具
100
AcDbPolyline
 90
        3
 70
   128
 43
0.0
 10
10428.93946474186
 20
-22957.7583145329
 10
10427.47918271456
 20
-22957.82920911073
 10
10404.28441439845
 20
-22959.07520499061
  0
LWPOLYLINE
  5
10AFD
330
1F07
100
AcDbEntity
  8
器具
370
    -3
100
AcDbPolyline
 90
       15
 70
   128
 43
0.0
 10
11425.81268485688
 20
-22057.90863981682
 10
11423.12590366788
 20
-22053.9071849945
 10
11416.31431847361
 20
-22050.12164615803
 10
11405.69643954377
 20
-22046.72902730694
 10
11391.76872842056
 20
-22043.88796797498
 10
11375.18244332371
 20
-22041.73131014727
 10
11356.71314355938
 20
-22040.3598964878
 10
11337.22440678291
 20
-22039.83785576952
 10
11317.62754749621
 20
-22040.18959365359
 10
11298.83884257523
 20
-22041.39866872936
 10
11281.73687169796
 20
-22043.4085420717
 10
11267.12129248402
 20
-22046.12523382952
 10
11255.67550347516
 20
-22049.42171631898
 10
11247.93470571937
 20
-22053.14385061948
 10
11244.26085014123
 20
-22057.11759025179
  0
LINE
  5
10AFE
330
1F07
100
AcDbEntity
  8
器具
370
    -3
100
AcDbLine
 10
11244.5432859398
 20
-22059.13736090791
 30
0.0
 11
11244.5432859398
 21
-22155.15287720612
 31
0.0
  0
LINE
  5
10AFF
330
1F07
100
AcDbEntity
  8
器具
370
    -3
100
AcDbLine
 10
11425.81268485799
 20
-22059.13736090791
 30
0.0
 11
11425.81268485799
 21
-22121.45916758279
 31
0.0
  0
LINE
  5
10B00
330
1F07
100
AcDbEntity
  8
器具
370
    -3
100
AcDbLine
 10
13454.14637934382
 20
-21087.17113818176
 30
0.0
 11
11609.0695789831
 21
-21507.00291862744
 31
0.0
  0
LINE
  5
10B01
330
1F07
100
AcDbEntity
  8
器具
370
    -3
100
AcDbLine
 10
9438.476466173293
 20
-21953.29543861359
 30
0.0
 11
11053.94644720513
 21
-21580.87346931049
 31
0.0
  0
LINE
  5
10B02
330
1F07
100
AcDbEntity
  8
器具
370
    -3
100
AcDbLine
 10
13373.80334204664
 20
-21014.64719549481
 30
0.0
 11
11523.25139602134
 21
-21444.87284269315
 31
0.0
  0
LINE
  5
10B03
330
1F07
100
AcDbEntity
  8
器具
370
    -3
100
AcDbLine
 10
9421.556688278631
 20
-21839.08645253038
 30
0.0
 11
11086.88788241876
 21
-21450.52403983439
 31
0.0
  0
LINE
  5
10B04
330
1F07
100
AcDbEntity
  8
器具
370
    -3
100
AcDbLine
 10
13380.73895235843
 20
-20841.58175039293
 30
0.0
 11
9418.09489636469
 21
-21780.24908568986
 31
0.0
  0
LINE
  5
10B05
330
1F07
100
AcDbEntity
  8
器具
370
    -3
100
AcDbLine
 10
9416.510875784899
 20
-21643.78668475808
 30
0.0
 11
13373.8154075774
 21
-20685.83575583139
 31
0.0
  0
SPLINE
  5
10B06
330
1F07
100
AcDbEntity
  8
器具
370
    -3
100
AcDbSpline
210
0.0
220
0.0
230
1.0
 70
     8
 71
     3
 72
    11
 73
     7
 74
     5
 42
0.0000000001
 43
0.0000000001
 44
0.0000000001
 40
0.0
 40
0.0
 40
0.0
 40
0.0
 40
61.06993760183311
 40
155.2470365972706
 40
207.4102009563758
 40
245.3349925455683
 40
245.3349925455683
 40
245.3349925455683
 40
245.3349925455683
 10
11086.88788241885
 20
-21892.04471823387
 30
0.0
 10
11106.06153391763
 20
-21885.05782987675
 30
0.0
 10
11154.80323389025
 20
-21867.29632961861
 30
0.0
 10
11223.81557625282
 20
-21858.73308149083
 30
0.0
 10
11284.6180488455
 20
-21849.94388189263
 30
0.0
 10
11314.66313855857
 20
-21849.11253767702
 30
0.0
 10
11327.31137498099
 20
-21848.76256241357
 30
0.0
 11
11086.88788241885
 21
-21892.04471823387
 31
0.0
 11
11144.8597869454
 21
-21872.84066750864
 31
0.0
 11
11237.62770408921
 21
-21856.60984732006
 31
0.0
 11
11289.42311147854
 21
-21850.42668556178
 31
0.0
 11
11327.31137498099
 21
-21848.76256241357
 31
0.0
  0
LINE
  5
10B07
330
1F07
100
AcDbEntity
  8
器具
370
    -3
100
AcDbLine
 10
11086.88788241876
 20
-21440.67367475367
 30
0.0
 11
11086.88788241876
 21
-21892.04471823421
 31
0.0
  0
LINE
  5
10B08
330
1F07
100
AcDbEntity
  8
器具
370
    -3
100
AcDbLine
 10
11053.94644720513
 20
-22078.77708270306
 30
0.0
 11
11053.94644720513
 21
-21526.34956527533
 31
0.0
  0
SPLINE
  5
10B09
330
1F07
100
AcDbEntity
  8
器具
370
    -3
100
AcDbSpline
210
0.0
220
0.0
230
1.0
 70
     8
 71
     3
 72
    20
 73
    16
 74
     0
 42
0.0000000001
 43
0.0000000001
 40
0.0
 40
0.0
 40
0.0
 40
0.0
 40
0.5502580217537205
 40
0.5502580217537205
 40
1.311041762261449
 40
1.311041762261449
 40
2.071825502769178
 40
2.071825502769178
 40
3.546203600809137
 40
3.546203600809137
 40
4.979220180243038
 40
4.979220180243038
 40
6.132410377072599
 40
6.132410377072599
 40
6.764968721780732
 40
6.764968721780732
 40
6.764968721780732
 40
6.764968721780732
 10
11090.0950438814
 20
-21836.58782368429
 30
0.0
 10
11094.94589784806
 20
-21832.64513688103
 30
0.0
 10
11099.7104270432
 20
-21828.77556688707
 30
0.0
 10
11111.17128613778
 20
-21820.19902417747
 30
0.0
 10
11117.95821444302
 20
-21815.83710273961
 30
0.0
 10
11132.48642318768
 20
-21807.99937146405
 30
0.0
 10
11140.11372331686
 20
-21804.51528441877
 30
0.0
 10
11162.94087863898
 20
-21795.25988568
 30
0.0
 10
11178.52077652697
 20
-21790.50086818283
 30
0.0
 10
11209.89125502543
 20
-21783.45292545171
 30
0.0
 10
11225.65599675463
 20
-21781.0793936977
 30
0.0
 10
11254.41776043665
 20
-21778.0366038084
 30
0.0
 10
11267.45716761943
 20
-21777.04755177898
 30
0.0
 10
11287.66930633152
 20
-21775.25823716616
 30
0.0
 10
11294.81935463958
 20
-21774.60418323711
 30
0.0
 10
11301.9613838792
 20
-21773.9501380045
 30
0.0
  0
SPLINE
  5
10B0A
330
1F07
100
AcDbEntity
  8
器具
370
    -3
100
AcDbSpline
210
0.0
220
0.0
230
1.0
 70
     8
 71
     3
 72
    13
 73
     9
 74
     0
 42
0.0000000001
 43
0.0000000001
 40
0.0814907822531284
 40
0.0814907822531284
 40
0.0814907822531284
 40
0.0814907822531284
 40
0.8387668281030514
 40
1.925963611181897
 40
3.320126309175867
 40
4.812549118869389
 40
5.9025546786142
 40
6.78786243594572
 40
6.78786243594572
 40
6.78786243594572
 40
6.78786243594572
 10
11086.88788241885
 20
-21828.23874294246
 30
0.0
 10
11093.56799721833
 20
-21822.81897760109
 30
0.0
 10
11109.93525248229
 20
-21809.75943852392
 30
0.0
 10
11142.9311675092
 20
-21793.04458242511
 30
0.0
 10
11185.86198277496
 20
-21778.92280767672
 30
0.0
 10
11230.47752593606
 20
-21771.47172393623
 30
0.0
 10
11269.66557268307
 20
-21768.36963607614
 30
0.0
 10
11291.96644521317
 20
-21766.32730961995
 30
0.0
 10
11301.9613838792
 20
-21765.41196751241
 30
0.0
  0
SPLINE
  5
10B0B
330
1F07
100
AcDbEntity
  8
器具
370
    -3
100
AcDbSpline
210
0.0
220
0.0
230
1.0
 70
     8
 71
     3
 72
    13
 73
     9
 74
     0
 42
0.0000000001
 43
0.0000000001
 40
0.0814907822531284
 40
0.0814907822531284
 40
0.0814907822531284
 40
0.0814907822531284
 40
0.8387668281030514
 40
1.925963611181897
 40
3.320126309175867
 40
4.812549118869389
 40
5.9025546786142
 40
6.78786243594572
 40
6.78786243594572
 40
6.78786243594572
 40
6.78786243594572
 10
11086.88788241885
 20
-21794.2891588376
 30
0.0
 10
11093.56799721833
 20
-21788.86939349658
 30
0.0
 10
11109.93525248229
 20
-21775.80985441998
 30
0.0
 10
11142.9311675092
 20
-21759.09499832136
 30
0.0
 10
11185.86198277496
 20
-21744.97322357222
 30
0.0
 10
11230.47752593606
 20
-21737.52213983247
 30
0.0
 10
11269.66557268307
 20
-21734.42005197127
 30
0.0
 10
11291.96644521317
 20
-21732.37772551564
 30
0.0
 10
11301.9613838792
 20
-21731.4623834081
 30
0.0
  0
SPLINE
  5
10B0C
330
1F07
100
AcDbEntity
  8
器具
370
    -3
100
AcDbSpline
210
0.0
220
0.0
230
1.0
 70
     8
 71
     3
 72
    20
 73
    16
 74
     0
 42
0.0000000001
 43
0.0000000001
 40
0.0
 40
0.0
 40
0.0
 40
0.0
 40
0.5502580217537205
 40
0.5502580217537205
 40
1.311041762261449
 40
1.311041762261449
 40
2.071825502769178
 40
2.071825502769178
 40
3.546203600809137
 40
3.546203600809137
 40
4.979220180243038
 40
4.979220180243038
 40
6.132410377072599
 40
6.132410377072599
 40
6.764968721780732
 40
6.764968721780732
 40
6.764968721780732
 40
6.764968721780732
 10
11090.0950438814
 20
-21802.63823958036
 30
0.0
 10
11094.94589784806
 20
-21798.69555277654
 30
0.0
 10
11099.7104270432
 20
-21794.82598278312
 30
0.0
 10
11111.17128613778
 20
-21786.24944007316
 30
0.0
 10
11117.95821444302
 20
-21781.88751863605
 30
0.0
 10
11132.48642318768
 20
-21774.04978736012
 30
0.0
 10
11140.11372331686
 20
-21770.56570031465
 30
0.0
 10
11162.94087863898
 20
-21761.31030157625
 30
0.0
 10
11178.52077652697
 20
-21756.55128407853
 30
0.0
 10
11209.89125502543
 20
-21749.50334134685
 30
0.0
 10
11225.65599675463
 20
-21747.12980959339
 30
0.0
 10
11254.41776043665
 20
-21744.08701970354
 30
0.0
 10
11267.45716761943
 20
-21743.09796767468
 30
0.0
 10
11287.66930633152
 20
-21741.30865306184
 30
0.0
 10
11294.81935463958
 20
-21740.65459913335
 30
0.0
 10
11301.9613838792
 20
-21740.0005539002
 30
0.0
  0
SPLINE
  5
10B0D
330
1F07
100
AcDbEntity
  8
器具
370
    -3
100
AcDbSpline
210
0.0
220
0.0
230
1.0
 70
     8
 71
     3
 72
    20
 73
    16
 74
     0
 42
0.0000000001
 43
0.0000000001
 40
0.0
 40
0.0
 40
0.0
 40
0.0
 40
0.5502580217537205
 40
0.5502580217537205
 40
1.311041762261449
 40
1.311041762261449
 40
2.071825502769178
 40
2.071825502769178
 40
3.546203600809137
 40
3.546203600809137
 40
4.979220180243038
 40
4.979220180243038
 40
6.132410377072599
 40
6.132410377072599
 40
6.764968721780732
 40
6.764968721780732
 40
6.764968721780732
 40
6.764968721780732
 10
11090.0950438814
 20
-21773.1466790588
 30
0.0
 10
11094.94589784806
 20
-21769.20399225498
 30
0.0
 10
11099.7104270432
 20
-21765.33442226157
 30
0.0
 10
11111.17128613778
 20
-21756.75787955216
 30
0.0
 10
11117.95821444302
 20
-21752.39595811448
 30
0.0
 10
11132.48642318768
 20
-21744.55822683856
 30
0.0
 10
11140.11372331686
 20
-21741.0741397931
 30
0.0
 10
11162.94087863898
 20
-21731.8187410547
 30
0.0
 10
11178.52077652697
 20
-21727.05972355771
 30
0.0
 10
11209.89125502543
 20
-21720.01178082603
 30
0.0
 10
11225.65599675463
 20
-21717.63824907202
 30
0.0
 10
11254.41776043665
 20
-21714.59545918254
 30
0.0
 10
11267.45716761943
 20
-21713.60640715368
 30
0.0
 10
11287.66930633152
 20
-21711.81709254067
 30
0.0
 10
11294.81935463958
 20
-21711.1630386118
 30
0.0
 10
11301.9613838792
 20
-21710.50899337938
 30
0.0
  0
SPLINE
  5
10B0E
330
1F07
100
AcDbEntity
  8
器具
370
    -3
100
AcDbSpline
210
0.0
220
0.0
230
1.0
 70
     8
 71
     3
 72
    13
 73
     9
 74
     0
 42
0.0000000001
 43
0.0000000001
 40
0.0814907822531284
 40
0.0814907822531284
 40
0.0814907822531284
 40
0.0814907822531284
 40
0.8387668281030514
 40
1.925963611181897
 40
3.320126309175867
 40
4.812549118869389
 40
5.9025546786142
 40
6.78786243594572
 40
6.78786243594572
 40
6.78786243594572
 40
6.78786243594572
 10
11086.88788241885
 20
-21764.7975983166
 30
0.0
 10
11093.56799721833
 20
-21759.37783297503
 30
0.0
 10
11109.93525248229
 20
-21746.31829389843
 30
0.0
 10
11142.9311675092
 20
-21729.60343779962
 30
0.0
 10
11185.86198277496
 20
-21715.48166305067
 30
0.0
 10
11230.47752593606
 20
-21708.03057931055
 30
0.0
 10
11269.66557268307
 20
-21704.92849145009
 30
0.0
 10
11291.96644521317
 20
-21702.88616499391
 30
0.0
 10
11301.9613838792
 20
-21701.97082288674
 30
0.0
  0
SPLINE
  5
10B0F
330
1F07
100
AcDbEntity
  8
器具
370
    -3
100
AcDbSpline
210
0.0
220
0.0
230
1.0
 70
     8
 71
     3
 72
    13
 73
     9
 74
     0
 42
0.0000000001
 43
0.0000000001
 40
0.0814907822531284
 40
0.0814907822531284
 40
0.0814907822531284
 40
0.0814907822531284
 40
0.8387668281030514
 40
1.925963611181897
 40
3.320126309175867
 40
4.812549118869389
 40
5.9025546786142
 40
6.78786243594572
 40
6.78786243594572
 40
6.78786243594572
 40
6.78786243594572
 10
11086.88788241885
 20
-21735.30603779579
 30
0.0
 10
11093.56799721833
 20
-21729.88627245403
 30
0.0
 10
11109.93525248229
 20
-21716.82673337705
 30
0.0
 10
11142.9311675092
 20
-21700.11187727806
 30
0.0
 10
11185.86198277496
 20
-21685.99010252966
 30
0.0
 10
11230.47752593606
 20
-21678.53901878918
 30
0.0
 10
11269.66557268307
 20
-21675.43693092909
 30
0.0
 10
11291.96644521317
 20
-21673.3946044729
 30
0.0
 10
11301.9613838792
 20
-21672.47926236536
 30
0.0
  0
SPLINE
  5
10B10
330
1F07
100
AcDbEntity
  8
器具
370
    -3
100
AcDbSpline
210
0.0
220
0.0
230
1.0
 70
     8
 71
     3
 72
    20
 73
    16
 74
     0
 42
0.0000000001
 43
0.0000000001
 40
0.0
 40
0.0
 40
0.0
 40
0.0
 40
0.5502580217537205
 40
0.5502580217537205
 40
1.311041762261449
 40
1.311041762261449
 40
2.071825502769178
 40
2.071825502769178
 40
3.546203600809137
 40
3.546203600809137
 40
4.979220180243038
 40
4.979220180243038
 40
6.132410377072599
 40
6.132410377072599
 40
6.764968721780732
 40
6.764968721780732
 40
6.764968721780732
 40
6.764968721780732
 10
11090.0950438814
 20
-21743.65511853743
 30
0.0
 10
11094.94589784806
 20
-21739.71243173398
 30
0.0
 10
11099.7104270432
 20
-21735.84286174002
 30
0.0
 10
11111.17128613778
 20
-21727.2663190306
 30
0.0
 10
11117.95821444302
 20
-21722.90439759293
 30
0.0
 10
11132.48642318768
 20
-21715.06666631775
 30
0.0
 10
11140.11372331686
 20
-21711.58257927191
 30
0.0
 10
11162.94087863898
 20
-21702.32718053295
 30
0.0
 10
11178.52077652697
 20
-21697.56816303616
 30
0.0
 10
11209.89125502543
 20
-21690.52022030504
 30
0.0
 10
11225.65599675463
 20
-21688.14668855066
 30
0.0
 10
11254.41776043665
 20
-21685.10389866154
 30
0.0
 10
11267.45716761943
 20
-21684.11484663193
 30
0.0
 10
11287.66930633152
 20
-21682.32553201985
 30
0.0
 10
11294.81935463958
 20
-21681.67147809024
 30
0.0
 10
11301.9613838792
 20
-21681.01743285783
 30
0.0
  0
SPLINE
  5
10B11
330
1F07
100
AcDbEntity
  8
器具
370
    -3
100
AcDbSpline
210
0.0
220
0.0
230
1.0
 70
     8
 71
     3
 72
    20
 73
    16
 74
     0
 42
0.0000000001
 43
0.0000000001
 40
0.0
 40
0.0
 40
0.0
 40
0.0
 40
0.5502580217537205
 40
0.5502580217537205
 40
1.311041762261449
 40
1.311041762261449
 40
2.071825502769178
 40
2.071825502769178
 40
3.546203600809137
 40
3.546203600809137
 40
4.979220180243038
 40
4.979220180243038
 40
6.132410377072599
 40
6.132410377072599
 40
6.764968721780732
 40
6.764968721780732
 40
6.764968721780732
 40
6.764968721780732
 10
11090.0950438814
 20
-21713.47772089538
 30
0.0
 10
11094.94589784806
 20
-21709.53503409138
 30
0.0
 10
11099.7104270432
 20
-21705.66546409797
 30
0.0
 10
11111.17128613778
 20
-21697.08892138781
 30
0.0
 10
11117.95821444302
 20
-21692.72699995051
 30
0.0
 10
11132.48642318768
 20
-21684.88926867495
 30
0.0
 10
11140.11372331686
 20
-21681.40518162912
 30
0.0
 10
11162.94087863898
 20
-21672.1497828909
 30
0.0
 10
11178.52077652697
 20
-21667.39076539318
 30
0.0
 10
11209.89125502543
 20
-21660.34282266187
 30
0.0
 10
11225.65599675463
 20
-21657.96929090805
 30
0.0
 10
11254.41776043665
 20
-21654.92650101856
 30
0.0
 10
11267.45716761943
 20
-21653.93744898933
 30
0.0
 10
11287.66930633152
 20
-21652.1481343765
 30
0.0
 10
11294.81935463958
 20
-21651.49408044801
 30
0.0
 10
11301.9613838792
 20
-21650.84003521485
 30
0.0
  0
SPLINE
  5
10B12
330
1F07
100
AcDbEntity
  8
器具
370
    -3
100
AcDbSpline
210
0.0
220
0.0
230
1.0
 70
     8
 71
     3
 72
    13
 73
     9
 74
     0
 42
0.0000000001
 43
0.0000000001
 40
0.0814907822531097
 40
0.0814907822531097
 40
0.0814907822531097
 40
0.0814907822531097
 40
0.8387668281030514
 40
1.925963611181897
 40
3.320126309175867
 40
4.812549118869389
 40
5.9025546786142
 40
6.78786243594572
 40
6.78786243594572
 40
6.78786243594572
 40
6.78786243594572
 10
11086.88788241885
 20
-21705.12864015245
 30
0.0
 10
11093.56799721833
 20
-21699.70887481143
 30
0.0
 10
11109.93525248229
 20
-21686.64933573464
 30
0.0
 10
11142.9311675092
 20
-21669.93447963601
 30
0.0
 10
11185.86198277496
 20
-21655.81270488706
 30
0.0
 10
11230.47752593606
 20
-21648.36162114712
 30
0.0
 10
11269.66557268307
 20
-21645.25953328593
 30
0.0
 10
11291.96644521317
 20
-21643.2172068303
 30
0.0
 10
11301.9613838792
 20
-21642.30186472275
 30
0.0
  0
SPLINE
  5
10B13
330
1F07
100
AcDbEntity
  8
器具
370
    -3
100
AcDbSpline
210
0.0
220
0.0
230
1.0
 70
     8
 71
     3
 72
    13
 73
     9
 74
     0
 42
0.0000000001
 43
0.0000000001
 40
0.0814907822531284
 40
0.0814907822531284
 40
0.0814907822531284
 40
0.0814907822531284
 40
0.8387668281030514
 40
1.925963611181897
 40
3.320126309175867
 40
4.812549118869389
 40
5.9025546786142
 40
6.78786243594572
 40
6.78786243594572
 40
6.78786243594572
 40
6.78786243594572
 10
11086.88788241885
 20
-21673.2366144379
 30
0.0
 10
11093.56799721833
 20
-21667.81684909615
 30
0.0
 10
11109.93525248229
 20
-21654.75731001917
 30
0.0
 10
11142.9311675092
 20
-21638.04245392017
 30
0.0
 10
11185.86198277496
 20
-21623.92067917196
 30
0.0
 10
11230.47752593606
 20
-21616.46959543129
 30
0.0
 10
11269.66557268307
 20
-21613.36750757139
 30
0.0
 10
11291.96644521317
 20
-21611.32518111501
 30
0.0
 10
11301.9613838792
 20
-21610.40983900766
 30
0.0
  0
SPLINE
  5
10B14
330
1F07
100
AcDbEntity
  8
器具
370
    -3
100
AcDbSpline
210
0.0
220
0.0
230
1.0
 70
     8
 71
     3
 72
    20
 73
    16
 74
     0
 42
0.0000000001
 43
0.0000000001
 40
0.0
 40
0.0
 40
0.0
 40
0.0
 40
0.5502580217537205
 40
0.5502580217537205
 40
1.311041762261449
 40
1.311041762261449
 40
2.071825502769178
 40
2.071825502769178
 40
3.546203600809137
 40
3.546203600809137
 40
4.979220180243038
 40
4.979220180243038
 40
6.132410377072599
 40
6.132410377072599
 40
6.764968721780732
 40
6.764968721780732
 40
6.764968721780732
 40
6.764968721780732
 10
11090.0950438814
 20
-21681.58569517954
 30
0.0
 10
11094.94589784806
 20
-21677.6430083761
 30
0.0
 10
11099.7104270432
 20
-21673.77343838232
 30
0.0
 10
11111.17128613778
 20
-21665.1968956729
 30
0.0
 10
11117.95821444302
 20
-21660.83497423505
 30
0.0
 10
11132.48642318768
 20
-21652.99724295985
 30
0.0
 10
11140.11372331686
 20
-21649.51315591403
 30
0.0
 10
11162.94087863898
 20
-21640.25775717544
 30
0.0
 10
11178.52077652697
 20
-21635.49873967827
 30
0.0
 10
11209.89125502543
 20
-21628.45079694715
 30
0.0
 10
11225.65599675463
 20
-21626.07726519313
 30
0.0
 10
11254.41776043665
 20
-21623.03447530383
 30
0.0
 10
11267.45716761943
 20
-21622.04542327442
 30
0.0
 10
11287.66930633152
 20
-21620.25610866196
 30
0.0
 10
11294.81935463958
 20
-21619.60205473254
 30
0.0
 10
11301.9613838792
 20
-21618.94800949994
 30
0.0
  0
SPLINE
  5
10B15
330
1F07
100
AcDbEntity
  8
器具
370
    -3
100
AcDbSpline
210
0.0
220
0.0
230
1.0
 70
     8
 71
     3
 72
    20
 73
    16
 74
     0
 42
0.0000000001
 43
0.0000000001
 40
0.0
 40
0.0
 40
0.0
 40
0.0
 40
0.5502580217537205
 40
0.5502580217537205
 40
1.311041762261449
 40
1.311041762261449
 40
2.071825502769178
 40
2.071825502769178
 40
3.546203600809137
 40
3.546203600809137
 40
4.979220180243038
 40
4.979220180243038
 40
6.132410377072599
 40
6.132410377072599
 40
6.764968721780732
 40
6.764968721780732
 40
6.764968721780732
 40
6.764968721780732
 10
11090.0950438814
 20
-21653.46585592652
 30
0.0
 10
11094.94589784806
 20
-21649.5231691227
 30
0.0
 10
11099.7104270432
 20
-21645.65359912929
 30
0.0
 10
11111.17128613778
 20
-21637.07705641932
 30
0.0
 10
11117.95821444302
 20
-21632.71513498221
 30
0.0
 10
11132.48642318768
 20
-21624.87740370627
 30
0.0
 10
11140.11372331686
 20
-21621.39331666063
 30
0.0
 10
11162.94087863898
 20
-21612.13791792241
 30
0.0
 10
11178.52077652697
 20
-21607.37890042469
 30
0.0
 10
11209.89125502543
 20
-21600.33095769301
 30
0.0
 10
11225.65599675463
 20
-21597.95742593956
 30
0.0
 10
11254.41776043665
 20
-21594.91463605025
 30
0.0
 10
11267.45716761943
 20
-21593.9255840214
 30
0.0
 10
11287.66930633152
 20
-21592.13626940801
 30
0.0
 10
11294.81935463958
 20
-21591.48221547952
 30
0.0
 10
11301.9613838792
 20
-21590.82817024691
 30
0.0
  0
SPLINE
  5
10B16
330
1F07
100
AcDbEntity
  8
器具
370
    -3
100
AcDbSpline
210
0.0
220
0.0
230
1.0
 70
     8
 71
     3
 72
    13
 73
     9
 74
     0
 42
0.0000000001
 43
0.0000000001
 40
0.0814907822531284
 40
0.0814907822531284
 40
0.0814907822531284
 40
0.0814907822531284
 40
0.8387668281030514
 40
1.925963611181897
 40
3.320126309175867
 40
4.812549118869389
 40
5.9025546786142
 40
6.78786243594572
 40
6.78786243594572
 40
6.78786243594572
 40
6.78786243594572
 10
11086.88788241885
 20
-21645.11677518376
 30
0.0
 10
11093.56799721833
 20
-21639.69700984257
 30
0.0
 10
11109.93525248229
 20
-21626.63747076614
 30
0.0
 10
11142.9311675092
 20
-21609.92261466751
 30
0.0
 10
11185.86198277496
 20
-21595.80083991838
 30
0.0
 10
11230.47752593606
 20
-21588.34975617863
 30
0.0
 10
11269.66557268307
 20
-21585.24766831781
 30
0.0
 10
11291.96644521317
 20
-21583.2053418618
 30
0.0
 10
11301.9613838792
 20
-21582.28999975426
 30
0.0
  0
SPLINE
  5
10B17
330
1F07
100
AcDbEntity
  8
器具
370
    -3
100
AcDbSpline
210
0.0
220
0.0
230
1.0
 70
     8
 71
     3
 72
    13
 73
     9
 74
     0
 42
0.0000000001
 43
0.0000000001
 40
0.0814907822531284
 40
0.0814907822531284
 40
0.0814907822531284
 40
0.0814907822531284
 40
0.8387668281030514
 40
1.925963611181897
 40
3.320126309175867
 40
4.812549118869389
 40
5.9025546786142
 40
6.78786243594572
 40
6.78786243594572
 40
6.78786243594572
 40
6.78786243594572
 10
11086.88788241885
 20
-21618.36863368651
 30
0.0
 10
11093.56799721833
 20
-21612.94886834476
 30
0.0
 10
11109.93525248229
 20
-21599.88932926759
 30
0.0
 10
11142.9311675092
 20
-21583.17447316878
 30
0.0
 10
11185.86198277496
 20
-21569.05269842039
 30
0.0
 10
11230.47752593606
 20
-21561.60161467991
 30
0.0
 10
11269.66557268307
 20
-21558.49952681982
 30
0.0
 10
11291.96644521317
 20
-21556.45720036363
 30
0.0
 10
11301.9613838792
 20
-21555.54185825608
 30
0.0
  0
SPLINE
  5
10B18
330
1F07
100
AcDbEntity
  8
器具
370
    -3
100
AcDbSpline
210
0.0
220
0.0
230
1.0
 70
     8
 71
     3
 72
    20
 73
    16
 74
     0
 42
0.0000000001
 43
0.0000000001
 40
0.0
 40
0.0
 40
0.0
 40
0.0
 40
0.5502580217537205
 40
0.5502580217537205
 40
1.311041762261449
 40
1.311041762261449
 40
2.071825502769178
 40
2.071825502769178
 40
3.546203600809137
 40
3.546203600809137
 40
4.979220180243038
 40
4.979220180243038
 40
6.132410377072599
 40
6.132410377072599
 40
6.764968721780732
 40
6.764968721780732
 40
6.764968721780732
 40
6.764968721780732
 10
11090.0950438814
 20
-21626.71771442816
 30
0.0
 10
11094.94589784806
 20
-21622.77502762471
 30
0.0
 10
11099.7104270432
 20
-21618.90545763075
 30
0.0
 10
11111.17128613778
 20
-21610.32891492133
 30
0.0
 10
11117.95821444302
 20
-21605.96699348366
 30
0.0
 10
11132.48642318768
 20
-21598.12926220847
 30
0.0
 10
11140.11372331686
 20
-21594.64517516245
 30
0.0
 10
11162.94087863898
 20
-21585.38977642405
 30
0.0
 10
11178.52077652697
 20
-21580.63075892688
 30
0.0
 10
11209.89125502543
 20
-21573.58281619576
 30
0.0
 10
11225.65599675463
 20
-21571.20928444175
 30
0.0
 10
11254.41776043665
 20
-21568.16649455226
 30
0.0
 10
11267.45716761943
 20
-21567.17744252304
 30
0.0
 10
11287.66930633152
 20
-21565.38812791039
 30
0.0
 10
11294.81935463958
 20
-21564.73407398097
 30
0.0
 10
11301.9613838792
 20
-21564.08002874855
 30
0.0
  0
SPLINE
  5
10B19
330
1F07
100
AcDbEntity
  8
器具
370
    -3
100
AcDbSpline
210
0.0
220
0.0
230
1.0
 70
     8
 71
     3
 72
    20
 73
    16
 74
     0
 42
0.0000000001
 43
0.0000000001
 40
0.0
 40
0.0
 40
0.0
 40
0.0
 40
0.5502580217537205
 40
0.5502580217537205
 40
1.311041762261449
 40
1.311041762261449
 40
2.071825502769178
 40
2.071825502769178
 40
3.546203600809137
 40
3.546203600809137
 40
4.979220180243038
 40
4.979220180243038
 40
6.132410377072599
 40
6.132410377072599
 40
6.764968721780732
 40
6.764968721780732
 40
6.764968721780732
 40
6.764968721780732
 10
11090.0950438814
 20
-21601.34127068614
 30
0.0
 10
11094.94589784806
 20
-21597.39858388232
 30
0.0
 10
11099.7104270432
 20
-21593.5290138889
 30
0.0
 10
11111.17128613778
 20
-21584.95247117838
 30
0.0
 10
11117.95821444302
 20
-21580.59054974126
 30
0.0
 10
11132.48642318768
 20
-21572.75281846589
 30
0.0
 10
11140.11372331686
 20
-21569.26873142005
 30
0.0
 10
11162.94087863898
 20
-21560.0133326811
 30
0.0
 10
11178.52077652697
 20
-21555.25431518375
 30
0.0
 10
11209.89125502543
 20
-21548.20637245263
 30
0.0
 10
11225.65599675463
 20
-21545.83284069899
 30
0.0
 10
11254.41776043665
 20
-21542.79005080931
 30
0.0
 10
11267.45716761943
 20
-21541.80099878026
 30
0.0
 10
11287.66930633152
 20
-21540.01168416744
 30
0.0
 10
11294.81935463958
 20
-21539.35763023858
 30
0.0
 10
11301.9613838792
 20
-21538.70358500597
 30
0.0
  0
SPLINE
  5
10B1A
330
1F07
100
AcDbEntity
  8
器具
370
    -3
100
AcDbSpline
210
0.0
220
0.0
230
1.0
 70
     8
 71
     3
 72
    13
 73
     9
 74
     0
 42
0.0000000001
 43
0.0000000001
 40
0.0814907822531284
 40
0.0814907822531284
 40
0.0814907822531284
 40
0.0814907822531284
 40
0.8387668281030514
 40
1.925963611181897
 40
3.320126309175867
 40
4.812549118869389
 40
5.9025546786142
 40
6.78786243594572
 40
6.78786243594572
 40
6.78786243594572
 40
6.78786243594572
 10
11086.88788241885
 20
-21592.99218994338
 30
0.0
 10
11093.56799721833
 20
-21587.57242460218
 30
0.0
 10
11109.93525248229
 20
-21574.51288552519
 30
0.0
 10
11142.9311675092
 20
-21557.7980294262
 30
0.0
 10
11185.86198277496
 20
-21543.67625467799
 30
0.0
 10
11230.47752593606
 20
-21536.22517093732
 30
0.0
 10
11269.66557268307
 20
-21533.12308307667
 30
0.0
 10
11291.96644521317
 20
-21531.08075662104
 30
0.0
 10
11301.9613838792
 20
-21530.1654145137
 30
0.0
  0
SPLINE
  5
10B1B
330
1F07
100
AcDbEntity
  8
器具
370
    -3
100
AcDbSpline
210
0.0
220
0.0
230
1.0
 70
     8
 71
     3
 72
    15
 73
    11
 74
     0
 42
0.0000000001
 43
0.0000000001
 40
0.2168505381615997
 40
0.2168505381615997
 40
0.2168505381615997
 40
0.2168505381615997
 40
0.9782935812537868
 40
1.921464552346721
 40
3.180054360905292
 40
4.383568573069117
 40
5.486557814243409
 40
6.568319298921677
 40
7.24344861550794
 40
7.954134164778619
 40
7.954134164778619
 40
7.954134164778619
 40
7.954134164778619
 10
11086.88788241885
 20
-21462.5106271454
 30
0.0
 10
11092.24705835938
 20
-21455.73793422027
 30
0.0
 10
11104.51886068063
 20
-21440.80765231223
 30
0.0
 10
11130.66918822983
 20
-21418.91784287595
 30
0.0
 10
11168.1789366466
 20
-21406.63689885052
 30
0.0
 10
11208.41678180883
 20
-21402.66869124155
 30
0.0
 10
11246.90239201224
 20
-21401.99779115932
 30
0.0
 10
11279.19841348569
 20
-21404.9824095215
 30
0.0
 10
11306.81902896024
 20
-21410.70608569464
 30
0.0
 10
11320.7755974771
 20
-21418.09386358115
 30
0.0
 10
11327.9329254943
 20
-21421.88252764797
 30
0.0
  0
SPLINE
  5
10B1C
330
1F07
100
AcDbEntity
  8
器具
370
    -3
100
AcDbSpline
210
0.0
220
0.0
230
1.0
 70
     8
 71
     3
 72
    15
 73
    11
 74
     9
 42
0.0000000001
 43
0.0000000001
 44
0.0000000001
 40
0.0
 40
0.0
 40
0.0
 40
0.0
 40
27.08175424109848
 40
51.2840554329017
 40
81.67133807264233
 40
126.4553873081661
 40
169.5814852984745
 40
210.1557305333263
 40
245.8820479836818
 40
266.28452559906
 40
266.28452559906
 40
266.28452559906
 40
266.28452559906
 10
11086.88788241885
 20
-21440.6736747536
 30
0.0
 10
11091.57800174438
 20
-21432.94925098055
 30
0.0
 10
11100.45956596419
 20
-21418.32169866478
 30
0.0
 10
11119.64375876833
 20
-21398.41803080646
 30
0.0
 10
11150.07399448723
 20
-21383.99055895767
 30
0.0
 10
11188.80983663939
 20
-21375.49492955391
 30
0.0
 10
11231.67043111904
 20
-21373.2250128212
 30
0.0
 10
11271.61288904047
 20
-21375.62241396245
 30
0.0
 10
11302.88613087917
 20
-21383.88341880412
 30
0.0
 10
11320.79984735863
 20
-21389.25560131535
 30
0.0
 10
11327.31137498099
 20
-21391.20835717449
 30
0.0
 11
11086.88788241885
 21
-21440.6736747536
 31
0.0
 11
11101.84078367304
 21
-21418.09421158775
 31
0.0
 11
11118.95626524463
 21
-21400.98247077768
 31
0.0
 11
11145.92612209466
 21
-21386.98197908216
 31
0.0
 11
11189.4928379604
 21
-21376.61123491388
 31
0.0
 11
11232.54093126822
 21
-21374.01855475027
 31
0.0
 11
11272.99571654308
 21
-21377.1297803517
 31
0.0
 11
11307.74534129603
 21
-21385.42636628164
 31
0.0
 11
11327.31137498099
 21
-21391.20835717449
 31
0.0
  0
LINE
  5
10B1D
330
1F07
100
AcDbEntity
  8
器具
370
    -3
100
AcDbLine
 10
11327.31137498321
 20
-21391.20835717456
 30
0.0
 11
11327.31137498321
 21
-21848.76256241369
 31
0.0
  0
LINE
  5
10B1E
330
1F07
100
AcDbEntity
  8
器具
370
    -3
100
AcDbLine
 10
11301.961383878
 20
-21642.3018647228
 30
0.0
 11
11301.961383878
 21
-21650.84003521487
 31
0.0
  0
LINE
  5
10B1F
330
1F07
100
AcDbEntity
  8
器具
370
    -3
100
AcDbLine
 10
11301.961383878
 20
-21765.41196751248
 30
0.0
 11
11301.961383878
 21
-21773.95013800452
 31
0.0
  0
LINE
  5
10B20
330
1F07
100
AcDbEntity
  8
器具
370
    -3
100
AcDbLine
 10
11301.961383878
 20
-21731.46238340822
 30
0.0
 11
11301.961383878
 21
-21740.00055390026
 31
0.0
  0
LINE
  5
10B21
330
1F07
100
AcDbEntity
  8
器具
370
    -3
100
AcDbLine
 10
11301.961383878
 20
-21701.97082288669
 30
0.0
 11
11301.961383878
 21
-21710.50899337903
 31
0.0
  0
LINE
  5
10B22
330
1F07
100
AcDbEntity
  8
器具
370
    -3
100
AcDbLine
 10
11301.961383878
 20
-21672.47926236545
 30
0.0
 11
11301.961383878
 21
-21681.0174328578
 31
0.0
  0
LINE
  5
10B23
330
1F07
100
AcDbEntity
  8
器具
370
    -3
100
AcDbLine
 10
11301.961383878
 20
-21610.40983900764
 30
0.0
 11
11301.961383878
 21
-21618.94800950026
 31
0.0
  0
LINE
  5
10B24
330
1F07
100
AcDbEntity
  8
器具
370
    -3
100
AcDbLine
 10
11301.961383878
 20
-21582.28999975463
 30
0.0
 11
11301.961383878
 21
-21590.82817024671
 31
0.0
  0
LINE
  5
10B25
330
1F07
100
AcDbEntity
  8
器具
370
    -3
100
AcDbLine
 10
11301.961383878
 20
-21555.54185825615
 30
0.0
 11
11301.961383878
 21
-21564.08002874853
 31
0.0
  0
LINE
  5
10B26
330
1F07
100
AcDbEntity
  8
器具
370
    -3
100
AcDbLine
 10
11301.961383878
 20
-21530.16541451366
 30
0.0
 11
11301.961383878
 21
-21538.70358500574
 31
0.0
  0
LINE
  5
10B27
330
1F07
100
AcDbEntity
  8
器具
370
    -3
100
AcDbLine
 10
11613.36494524506
 20
-22078.77708270306
 30
0.0
 11
11613.36494524506
 21
-21526.34956527533
 31
0.0
  0
ELLIPSE
  5
10B28
330
1F07
100
AcDbEntity
  8
器具
370
    -3
100
AcDbEllipse
 10
11333.65569622572
 20
-21526.34956527507
 30
0.0
 11
-279.7092490199714
 21
0.0
 31
0.0
210
0.0
220
0.0
230
1.0
 40
0.3961967754116691
 41
3.141592653589793
 42
4.735072768571687
  0
ELLIPSE
  5
10B29
330
1F07
100
AcDbEntity
  8
器具
370
    -3
100
AcDbEllipse
 10
11333.65569622572
 20
-21526.34956527507
 30
0.0
 11
-279.7092490199714
 21
0.0
 31
0.0
210
0.0
220
0.0
230
1.0
 40
0.3961967754116691
 41
5.792966210517038
 42
6.283185307179586
  0
ELLIPSE
  5
10B2A
330
1F07
100
AcDbEntity
  8
器具
370
    -3
100
AcDbEllipse
 10
11333.65569622572
 20
-22078.77708270332
 30
0.0
 11
-279.7092490199714
 21
0.0
 31
0.0
210
0.0
220
0.0
230
1.0
 40
0.3540670310655662
 41
3.043987975530825
 42
7.3308063959164
  0
LINE
  5
10B2D
330
1F07
100
AcDbEntity
  8
器具
370
    -3
100
AcDbLine
 10
11053.94644720513
 20
-21553.9792235066
 30
0.0
 11
9410.782208951991
 21
-21935.9903307193
 31
0.0
  0
LINE
  5
10B2E
330
1F07
100
AcDbEntity
  8
器具
370
    -3
100
AcDbLine
 10
11563.75969894326
 20
-21463.3437984293
 30
0.0
 11
13405.68140968457
 21
-21038.71683607767
 31
0.0
  0
LINE
  5
10B2F
330
1F07
100
AcDbEntity
  8
器具
370
    -3
100
AcDbLine
 10
11053.94644720513
 20
-21633.31654022575
 30
0.0
 11
9480.009847364726
 21
-21991.45263780734
 31
0.0
  0
LINE
  5
10B30
330
1F07
100
AcDbEntity
  8
器具
370
    -3
100
AcDbLine
 10
11327.31137498321
 20
-21394.4273710947
 30
0.0
 11
13370.3415501327
 21
-20917.73856777404
 31
0.0
  0
LWPOLYLINE
  5
10B38
330
1F07
100
AcDbEntity
  8
器具
100
AcDbPolyline
 90
        5
 70
   128
 43
0.0
 10
11244.87137576147
 20
-22833.40683670802
 10
11243.99108918479
 20
-22833.09491135887
 10
11233.71232280248
 20
-22831.00563338197
 10
11223.47997749322
 20
-22830.44633273796
 10
11221.24903434189
 20
-22830.65617908051
  0
TEXT
  5
11414
330
1F07
100
AcDbEntity
  8
0
 62
     7
100
AcDbText
 10
11188.49602176186
 20
-19312.46630038664
 30
0.0
 40
299.9999947731441
  1
LED5.5W  (3000K)
  7
WMF-ＭＳ Ｐゴシック0
100
AcDbText
  0
TEXT
  5
11415
330
1F07
100
AcDbEntity
  8
0
 62
     7
100
AcDbText
 10
9484.11852929061
 20
-18822.08169354594
 30
0.0
 40
299.9999947731441
  1
BSSL-34046W
  7
WMF-ＭＳ Ｐゴシック0
100
AcDbText
  0
TEXT
  5
11416
330
1F07
100
AcDbEntity
  8
0
 62
     7
100
AcDbText
 10
9484.11852929061
 20
-18331.69708670521
 30
0.0
 40
299.9999947731441
  1
LEDｽﾎﾟｯﾄﾗｲﾄ
  7
WMF-ＭＳ Ｐゴシック0
100
AcDbText
  0
MTEXT
  5
11419
330
1F07
100
AcDbEntity
  8
記号
 62
     2
100
AcDbMText
 10
8326.908160530454
 20
-25078.6569421868
 30
0.0
 40
250.0
 41
6533.332686219465
 71
     4
 72
     5
  1
幅:50　長さ:93　高さ:137(mm)
  7
スタイル1
 73
     1
 44
1.0
1001
ACAD
1000
MTEXTBEGIN
1070
    73
1070
     1
1070
    44
1040
1.0
1070
    74
1070
     0
1000
MTEXTEND
  0
MTEXT
  5
1256A
330
1F07
100
AcDbEntity
  8
記号
 62
     2
100
AcDbMText
 10
13571.59740290212
 20
-19838.35685304101
 30
0.0
 40
250.0
 41
2900.001845935049
 71
     5
 72
     5
  1
Re:ray
  7
スタイル1
 73
     1
 44
1.0
1001
ACAD
1000
MTEXTBEGIN
1070
    73
1070
     1
1070
    44
1040
1.0
1070
    74
1070
     0
1000
MTEXTEND
  0
ENDSEC
  0
SECTION
  2
OBJECTS
  0
DICTIONARY
  5
1EF5
330
0
100
AcDbDictionary
281
     1
  3
ACAD_COLOR
350
8C47
  3
ACAD_GROUP
350
1EF6
  3
ACAD_LAYOUT
350
1F02
  3
ACAD_MATERIAL
350
8C46
  3
ACAD_MLINESTYLE
350
1EFF
  3
ACAD_PLOTSETTINGS
350
1F01
  3
ACAD_PLOTSTYLENAME
350
1EF7
  3
ACAD_TABLESTYLE
350
8C48
  3
ACDBHEADERROUNDTRIPXREC
350
1521C
  3
AcDbVariableDictionary
350
4454
  0
DICTIONARY
  5
9A3A
330
1EEB
100
AcDbDictionary
280
     1
281
     1
  3
ACAD_LAYERFILTERS
360
A52F
  3
ACAD_LAYERSTATES
360
9A3B
  0
DICTIONARY
  5
980C
330
1F07
100
AcDbDictionary
280
     1
281
     1
  3
ACAD_SORTENTS
360
980D
  0
DICTIONARY
  5
8C47
102
{ACAD_REACTORS
330
1EF5
102
}
330
1EF5
100
AcDbDictionary
281
     1
  0
DICTIONARY
  5
1EF6
102
{ACAD_REACTORS
330
1EF5
102
}
330
1EF5
100
AcDbDictionary
281
     1
  0
DICTIONARY
  5
1F02
102
{ACAD_REACTORS
330
1EF5
102
}
330
1EF5
100
AcDbDictionary
281
     1
  3
Model
350
1F0A
  3
ﾚｲｱｳﾄ1
350
1F06
  0
DICTIONARY
  5
8C46
102
{ACAD_REACTORS
330
1EF5
102
}
330
1EF5
100
AcDbDictionary
281
     1
  0
DICTIONARY
  5
1EFF
102
{ACAD_REACTORS
330
1EF5
102
}
330
1EF5
100
AcDbDictionary
281
     1
  3
Standard
350
1F00
  0
DICTIONARY
  5
1F01
102
{ACAD_REACTORS
330
1EF5
102
}
330
1EF5
100
AcDbDictionary
281
     1
  0
ACDBDICTIONARYWDFLT
  5
1EF7
102
{ACAD_REACTORS
330
1EF5
102
}
330
1EF5
100
AcDbDictionary
281
     1
  3
Normal
350
1EF8
100
AcDbDictionaryWithDefault
340
1EF8
  0
DICTIONARY
  5
8C48
102
{ACAD_REACTORS
330
1EF5
102
}
330
1EF5
100
AcDbDictionary
281
     1
  3
Standard
350
8C49
  0
DICTIONARY
  5
1521C
102
{ACAD_REACTORS
330
1EF5
102
}
330
1EF5
100
AcDbDictionary
281
     1
  0
DICTIONARY
  5
4454
102
{ACAD_REACTORS
330
1EF5
102
}
330
1EF5
100
AcDbDictionary
281
     1
  3
CTABLESTYLE
350
8CAE
  3
DIMASSOC
350
8CAF
  3
PROJECTNAME
350
8CB0
  3
SORTENTS
350
4455
  0
DICTIONARY
  5
A52F
102
{ACAD_REACTORS
330
9A3A
102
}
330
9A3A
100
AcDbDictionary
280
     1
281
     1
  0
DICTIONARY
  5
9A3B
102
{ACAD_REACTORS
330
9A3A
102
}
330
9A3A
100
AcDbDictionary
281
     1
  0
SORTENTSTABLE
  5
980D
102
{ACAD_REACTORS
330
980C
102
}
330
980C
100
AcDbSortentsTable
330
1F07
331
1091E
  5
10927
331
10937
  5
10940
331
10950
  5
10959
331
10969
  5
10972
331
109DD
  5
109E6
331
109F6
  5
109FF
331
10A07
  5
10A10
331
10A20
  5
10A29
331
10A39
  5
10A42
331
10ACE
  5
10AD8
331
10AAD
  5
10AB6
331
10AE7
  5
10B00
331
1082A
  5
10832
331
108CF
  5
108D8
331
108E8
  5
108F1
331
10901
  5
1090A
331
10960
  5
10969
331
10947
  5
10950
331
10979
  5
10982
331
1098A
  5
10993
331
109A3
  5
109AC
331
10A49
  5
10A52
331
10A17
  5
10A20
331
10A30
  5
10A39
331
10A62
  5
10A6B
331
10A73
  5
10A7C
331
10B02
  5
10B0C
331
10B1B
  5
10B25
331
1086C
  5
10893
331
1083A
  5
10846
331
10853
  5
1085C
331
10895
  5
1089E
331
1010D
  5
10115
331
1090D
  5
10916
331
109B3
  5
109BC
331
1099A
  5
109A3
331
109CC
  5
109D5
331
109E5
  5
109EE
331
10AB5
  5
10ACB
331
10A83
  5
10A8C
331
10A9C
  5
10AA5
331
10B12
  5
10B1C
331
108F0
  5
108F9
331
108A5
  5
108AE
331
108BE
  5
108C7
331
108D7
  5
108E0
331
1091D
  5
10926
331
10936
  5
1093F
331
1094F
  5
10958
331
10968
  5
10971
331
109DC
  5
109E5
331
109F5
  5
109FE
331
10A06
  5
10A0F
331
10A1F
  5
10A28
331
10A38
  5
10A41
331
10AAC
  5
10AB5
331
10AE6
  5
10AFF
331
10829
  5
10831
331
108CE
  5
108D7
331
108E7
  5
108F0
331
10900
  5
10909
331
11416
  5
11423
331
1095F
  5
10968
331
10946
  5
1094F
331
10978
  5
10981
331
10989
  5
10992
331
109A2
  5
109AB
331
10A48
  5
10A51
331
10A2F
  5
10A38
331
10A16
  5
10A1F
331
10A61
  5
10A6A
331
10A72
  5
10A7B
331
10B01
  5
10B0B
331
10B1A
  5
10B24
331
1086B
  5
10892
331
10852
  5
1085B
331
10839
  5
10843
331
10894
  5
1089D
331
1090C
  5
10915
331
109B2
  5
109BB
331
10999
  5
109A2
331
109CB
  5
109D4
331
109E4
  5
109ED
331
10A82
  5
10A8B
331
10A9B
  5
10AA4
331
10AB4
  5
10ABD
331
10B2A
  5
10E70
331
10B11
  5
10B1B
331
108A4
  5
108AD
331
108BD
  5
108C6
331
108D6
  5
108DF
331
1091C
  5
10925
331
10935
  5
1093E
331
1094E
  5
10957
331
109DB
  5
109E4
331
109F4
  5
109FD
331
10A05
  5
10A0E
331
10A1E
  5
10A27
331
10ACC
  5
10AD7
331
10AAB
  5
10AB4
331
10AE5
  5
10AEF
331
10828
  5
10830
331
108FF
  5
10908
331
108E6
  5
108EF
331
108CD
  5
108D6
331
11415
  5
11422
331
1095E
  5
10967
331
10945
  5
1094E
331
10977
  5
10980
331
10988
  5
10991
331
109A1
  5
109AA
331
10A2E
  5
10A37
331
10A15
  5
10A1E
331
10A47
  5
10A50
331
10A60
  5
10A69
331
10A71
  5
10A7A
331
10B00
  5
10B0A
331
10B19
  5
10B23
331
10893
  5
1089C
331
10851
  5
1085A
331
1081F
  5
10827
331
10838
  5
10840
331
1086A
  5
10890
331
1090B
  5
10914
331
109B1
  5
109BA
331
10998
  5
109A1
331
109CA
  5
109D3
331
109E3
  5
109EC
331
10A81
  5
10A8A
331
10A57
  5
10A60
331
10A9A
  5
10AA3
331
10AB3
  5
10ABC
331
10B29
  5
10E6F
331
10B10
  5
10B1A
331
108D5
  5
108DE
331
108BC
  5
108C5
331
108A3
  5
108AC
331
1091B
  5
10924
331
10934
  5
1093D
331
1094D
  5
10956
331
109DA
  5
109E3
331
109F3
  5
109FC
331
10A04
  5
10A0D
331
10A1D
  5
10A26
331
10AAA
  5
10AB3
331
10AE4
  5
10AEE
331
10827
  5
1082F
331
10840
  5
1084C
331
108E5
  5
108EE
331
108CC
  5
108D5
331
108FE
  5
10907
331
11414
  5
11421
331
1095D
  5
10966
331
10944
  5
1094D
331
10976
  5
1097F
331
10987
  5
10990
331
109A0
  5
109A9
331
10A2D
  5
10A36
331
10A14
  5
10A1D
331
10A46
  5
10A4F
331
10A5F
  5
10A68
331
10A70
  5
10A79
331
10AFF
  5
10B09
331
10B18
  5
10B22
331
10850
  5
10859
331
10837
  5
1083F
331
1081E
  5
10826
331
10869
  5
1088F
331
10892
  5
1089B
331
1090A
  5
10913
331
109B0
  5
109B9
331
10997
  5
109A0
331
109C9
  5
109D2
331
109E2
  5
109EB
331
10A80
  5
10A89
331
10A56
  5
10A5F
331
10A6F
  5
10A78
331
10A99
  5
10AA2
331
10AB2
  5
10ABB
331
10B0F
  5
10B19
331
10B28
  5
10E6E
331
108A2
  5
108AB
331
108BB
  5
108C4
331
108D4
  5
108DD
331
1091A
  5
10923
331
10933
  5
1093C
331
1094C
  5
10955
331
109D9
  5
109E2
331
109F2
  5
109FB
331
10A03
  5
10A0C
331
10A1C
  5
10A25
331
10ACA
  5
10AD6
331
10AA9
  5
10AB2
331
10AE3
  5
10AED
331
10826
  5
1082E
331
108E4
  5
108ED
331
108CB
  5
108D4
331
108FD
  5
10906
331
1095C
  5
10965
331
10943
  5
1094C
331
10975
  5
1097E
331
10986
  5
1098F
331
10A2C
  5
10A35
331
10A13
  5
10A1C
331
10A45
  5
10A4E
331
10A5E
  5
10A67
331
10AFE
  5
10B08
331
10836
  5
1083E
331
1081D
  5
10825
331
1084F
  5
10858
331
10868
  5
1088E
331
10891
  5
1089A
331
10909
  5
10912
331
10996
  5
1099F
331
109AF
  5
109B8
331
109C8
  5
109D1
331
109E1
  5
109EA
331
10AB1
  5
10ABA
331
10A55
  5
10A5E
331
10A6E
  5
10A77
331
10A7F
  5
10A88
331
10A98
  5
10AA1
331
10B0E
  5
10B18
331
10B27
  5
10E6D
331
108A1
  5
108AA
331
1085F
  5
10868
331
108BA
  5
108C3
331
108D3
  5
108DC
331
10919
  5
10922
331
10932
  5
1093B
331
1094B
  5
10954
331
109D8
  5
109E1
331
109BF
  5
109C8
331
109F1
  5
109FA
331
10A02
  5
10A0B
331
10A1B
  5
10A24
331
10A8F
  5
10A98
331
10AA8
  5
10AB1
331
10AE2
  5
10AEC
331
10825
  5
1082D
331
108E3
  5
108EC
331
108CA
  5
108D3
331
108FC
  5
10905
331
1095B
  5
10964
331
10942
  5
1094B
331
10974
  5
1097D
331
10985
  5
1098E
331
1256A
  5
12572
331
10A2B
  5
10A34
331
10A12
  5
10A1B
331
10A44
  5
10A4D
331
10A5D
  5
10A66
331
10AFD
  5
10B07
331
10835
  5
1083D
331
1081C
  5
10824
331
1084E
  5
10857
331
10867
  5
1088D
331
100D6
  5
100EA
331
10908
  5
10911
331
109E0
  5
109E9
331
10995
  5
1099E
331
109AE
  5
109B7
331
109C7
  5
109D0
331
10A54
  5
10A5D
331
10A6D
  5
10A76
331
10A7E
  5
10A87
331
10A97
  5
10AA0
331
10AB0
  5
10AB9
331
10B0D
  5
10B17
331
10B26
  5
10B39
331
108A0
  5
108A9
331
1085E
  5
10867
331
1088F
  5
10899
331
108B9
  5
108C2
331
108D2
  5
108DB
331
10918
  5
10921
331
10931
  5
1093A
331
1094A
  5
10953
331
109D7
  5
109E0
331
109BE
  5
109C7
331
109F0
  5
109F9
331
10A01
  5
10A0A
331
10A1A
  5
10A23
331
10AE1
  5
10AEB
331
10AA7
  5
10AB0
331
10A8E
  5
10A97
331
10824
  5
1082C
331
108E2
  5
108EB
331
108C9
  5
108D2
331
108FB
  5
10904
331
10973
  5
1097C
331
10941
  5
1094A
331
1095A
  5
10963
331
10984
  5
1098D
331
10A5C
  5
10A65
331
10A11
  5
10A1A
331
10A2A
  5
10A33
331
10A43
  5
10A4C
331
10834
  5
1083C
331
1081B
  5
10823
331
1084D
  5
10856
331
10866
  5
1086F
331
10994
  5
1099D
331
109AD
  5
109B6
331
109C6
  5
109CF
331
10A53
  5
10A5C
331
10A6C
  5
10A75
331
10A7D
  5
10A86
331
10A96
  5
10A9F
331
10B0C
  5
10B16
331
10B25
  5
10B38
331
1085D
  5
10866
331
1088E
  5
10898
331
1089F
  5
108A8
331
108B8
  5
108C1
331
108D1
  5
108DA
331
11419
  5
11425
331
10917
  5
10920
331
10930
  5
10939
331
10949
  5
10952
331
109EF
  5
109F8
331
109BD
  5
109C6
331
109D6
  5
109DF
331
10A00
  5
10A09
331
10A19
  5
10A22
331
10AE0
  5
10AEA
331
10A8D
  5
10A96
331
10AA6
  5
10AAF
331
10823
  5
1082B
331
108E1
  5
108EA
331
108AF
  5
108B8
331
108C8
  5
108D1
331
108FA
  5
10903
331
10972
  5
1097B
331
10927
  5
10930
331
10940
  5
10949
331
10959
  5
10962
331
10983
  5
1098C
331
10A5B
  5
10A64
331
10A10
  5
10A19
331
10A29
  5
10A32
331
10A42
  5
10A4B
331
10AD7
  5
10AE1
331
10833
  5
1083B
331
1081A
  5
10822
331
1084C
  5
10855
331
10865
  5
1086E
331
10993
  5
1099C
331
109AC
  5
109B5
331
109C5
  5
109CE
331
10A52
  5
10A5B
331
10A6B
  5
10A74
331
10A7C
  5
10A85
331
10A95
  5
10A9E
331
10B0B
  5
10B15
331
10B24
  5
10B30
331
1085C
  5
10865
331
1088D
  5
10897
331
1089E
  5
108A7
331
108B7
  5
108C0
331
108D0
  5
108D9
331
10916
  5
1091F
331
1092F
  5
10938
331
10948
  5
10951
331
109EE
  5
109F7
331
109BC
  5
109C5
331
109D5
  5
109DE
331
109FF
  5
10A08
331
10A18
  5
10A21
331
10ADF
  5
10AE9
331
10A8C
  5
10A95
331
10AA5
  5
10AAE
331
10822
  5
1082A
331
108E0
  5
108E9
331
108C7
  5
108D0
331
108AE
  5
108B7
331
108F9
  5
10902
331
10971
  5
1097A
331
10926
  5
1092F
331
1093F
  5
10948
331
10958
  5
10961
331
10982
  5
1098B
331
10A5A
  5
10A63
331
10A0F
  5
10A18
331
10A28
  5
10A31
331
10A41
  5
10A4A
331
10AD6
  5
10AE0
331
10832
  5
1083A
331
10819
  5
10821
331
1084B
  5
10854
331
10864
  5
1086D
331
10992
  5
1099B
331
109AB
  5
109B4
331
109C4
  5
109CD
331
10A51
  5
10A5A
331
10A6A
  5
10A73
331
10A7B
  5
10A84
331
10A94
  5
10A9D
331
10B0A
  5
10B14
331
10B23
  5
10B2F
331
1085B
  5
10864
331
1088C
  5
10896
331
1089D
  5
108A6
331
108B6
  5
108BF
331
10915
  5
1091E
331
1092E
  5
10937
331
109ED
  5
109F6
331
109BB
  5
109C4
331
109D4
  5
109DD
331
109FE
  5
10A07
331
10ADE
  5
10AE8
331
10A8B
  5
10A94
331
10AA4
  5
10AAD
331
10821
  5
10829
331
108C6
  5
108CF
331
108AD
  5
108B6
331
108DF
  5
108E8
331
108F8
  5
10901
331
10970
  5
10979
331
10925
  5
1092E
331
1093E
  5
10947
331
10957
  5
10960
331
10981
  5
1098A
331
10A59
  5
10A62
331
10A0E
  5
10A17
331
10A27
  5
10A30
331
10A40
  5
10A49
331
10AD5
  5
10ADF
331
10831
  5
10839
331
10818
  5
10820
331
1084A
  5
10853
331
10863
  5
1086C
331
108EF
  5
108F8
331
10967
  5
10970
331
10991
  5
1099A
331
109AA
  5
109B3
331
109C3
  5
109CC
331
10A37
  5
10A40
331
10A50
  5
10A59
331
10A69
  5
10A72
331
10A7A
  5
10A83
331
10A93
  5
10A9C
331
10B09
  5
10B13
331
10B22
  5
10B2E
331
1085A
  5
10863
331
1089C
  5
108A5
331
108B5
  5
108BE
331
10914
  5
1091D
331
1092D
  5
10936
331
109EC
  5
109F5
331
109BA
  5
109C3
331
109D3
  5
109DC
331
109FD
  5
10A06
331
10ADD
  5
10AE7
331
10A8A
  5
10A93
331
10AA3
  5
10AAC
331
10ABC
  5
10AD5
331
10820
  5
10828
331
108F7
  5
10900
331
108C5
  5
108CE
331
108AC
  5
108B5
331
108DE
  5
108E7
331
1096F
  5
10978
331
10924
  5
1092D
331
1093D
  5
10946
331
10956
  5
1095F
331
10980
  5
10989
331
10A58
  5
10A61
331
10A0D
  5
10A16
331
10A26
  5
10A2F
331
10A3F
  5
10A48
331
10AD4
  5
10ADE
331
10AED
  5
10B06
331
10862
  5
1086B
331
10830
  5
10838
331
10817
  5
1081F
331
10849
  5
10852
331
108EE
  5
108F7
331
10907
  5
10910
331
10966
  5
1096F
331
1097F
  5
10988
331
10990
  5
10999
331
109A9
  5
109B2
331
109C2
  5
109CB
331
10A36
  5
10A3F
331
10A4F
  5
10A58
331
10A68
  5
10A71
331
10A79
  5
10A82
331
10A92
  5
10A9B
331
10B08
  5
10B12
331
10B21
  5
10B2D
331
10859
  5
10862
331
1089B
  5
108A4
331
108B4
  5
108BD
331
10913
  5
1091C
331
1092C
  5
10935
331
109EB
  5
109F4
331
109B9
  5
109C2
331
109D2
  5
109DB
331
109FC
  5
10A05
331
10ADC
  5
10AE6
331
10ABB
  5
10AD4
331
10A89
  5
10A92
331
10AA2
  5
10AAB
331
108F6
  5
108FF
331
108AB
  5
108B4
331
108C4
  5
108CD
331
108DD
  5
108E6
331
1096E
  5
10977
331
10923
  5
1092C
331
1093C
  5
10945
331
10955
  5
1095E
331
10A0C
  5
10A15
331
10A25
  5
10A2E
331
10A3E
  5
10A47
331
10AD3
  5
10ADD
331
10AEC
  5
10B05
331
10861
  5
1086A
331
10816
  5
1081E
331
1082F
  5
10837
331
10848
  5
10851
331
108ED
  5
108F6
331
10906
  5
1090F
331
10965
  5
1096E
331
1097E
  5
10987
331
1098F
  5
10998
331
109A8
  5
109B1
331
109C1
  5
109CA
331
10A67
  5
10A70
331
10A35
  5
10A3E
331
10A4E
  5
10A57
331
10A78
  5
10A81
331
10A91
  5
10A9A
331
10B07
  5
10B11
331
10B20
  5
10B2A
331
1083F
  5
1084B
331
10858
  5
10861
331
1089A
  5
108A3
331
108B3
  5
108BC
331
10912
  5
1091B
331
1092B
  5
10934
331
109EA
  5
109F3
331
1099F
  5
109A8
331
109B8
  5
109C1
331
109D1
  5
109DA
331
109FB
  5
10A04
331
10ADB
  5
10AE5
331
10ABA
  5
10AD3
331
10A88
  5
10A91
331
10AA1
  5
10AAA
331
10B17
  5
10B21
331
10B30
  5
10E74
331
108F5
  5
108FE
331
108AA
  5
108B3
331
108C3
  5
108CC
331
108DC
  5
108E5
331
1096D
  5
10976
331
10922
  5
1092B
331
1093B
  5
10944
331
10954
  5
1095D
331
10A0B
  5
10A14
331
10A24
  5
10A2D
331
10A3D
  5
10A46
331
10AD2
  5
10ADC
331
10AEB
  5
10B04
331
10860
  5
10869
331
10815
  5
1081D
331
1082E
  5
10836
331
10847
  5
10850
331
108EC
  5
108F5
331
10905
  5
1090E
331
10964
  5
1096D
331
1097D
  5
10986
331
1098E
  5
10997
331
109A7
  5
109B0
331
109C0
  5
109C9
331
10A66
  5
10A6F
331
10A34
  5
10A3D
331
10A4D
  5
10A56
331
10A77
  5
10A80
331
10A90
  5
10A99
331
10B06
  5
10B10
331
10B1F
  5
10B29
331
10B38
  5
1084D
331
1083E
  5
1084A
331
10857
  5
10860
331
10899
  5
108A2
331
108B2
  5
108BB
331
10911
  5
1091A
331
1092A
  5
10933
331
109E9
  5
109F2
331
1099E
  5
109A7
331
109B7
  5
109C0
331
109D0
  5
109D9
331
109FA
  5
10A03
331
10ADA
  5
10AE4
331
10AB9
  5
10AD2
331
10AA0
  5
10AA9
331
10A87
  5
10A90
331
10B16
  5
10B20
331
10B2F
  5
10E73
331
108F4
  5
108FD
331
108A9
  5
108B2
331
108C2
  5
108CB
331
108DB
  5
108E4
331
1096C
  5
10975
331
10921
  5
1092A
331
1093A
  5
10943
331
10953
  5
1095C
331
10A0A
  5
10A13
331
10A23
  5
10A2C
331
10A3C
  5
10A45
331
10AEA
  5
10B03
331
10AD1
  5
10ADB
331
10814
  5
1081C
331
1082D
  5
10835
331
10846
  5
1084F
331
108EB
  5
108F4
331
10904
  5
1090D
331
1097C
  5
10985
331
10963
  5
1096C
331
1098D
  5
10996
331
109A6
  5
109AF
331
10A65
  5
10A6E
331
10A4C
  5
10A55
331
10A33
  5
10A3C
331
10A76
  5
10A7F
331
10B05
  5
10B0F
331
10B1E
  5
10B28
331
1083D
  5
10849
331
10856
  5
1085F
331
10898
  5
108A1
331
108B1
  5
108BA
331
10929
  5
10932
331
10910
  5
10919
331
109F9
  5
10A02
331
109E8
  5
109F1
331
109CF
  5
109D8
331
109B6
  5
109BF
331
1099D
  5
109A6
331
10AD9
  5
10AE3
331
10AB8
  5
10AD1
331
10A9F
  5
10AA8
331
10A86
  5
10A8F
331
10B15
  5
10B1F
331
10B2E
  5
10E72
331
108F3
  5
108FC
331
108A8
  5
108B1
331
108C1
  5
108CA
331
108DA
  5
108E3
331
1096B
  5
10974
331
10952
  5
1095B
331
10939
  5
10942
331
10920
  5
10929
331
10A3B
  5
10A44
331
10A22
  5
10A2B
331
10A09
  5
10A12
331
109DF
  5
109E8
331
10AD0
  5
10ADA
331
10AAF
  5
10AB8
331
10AE9
  5
10B02
331
1082C
  5
10834
331
10845
  5
1084E
331
108EA
  5
108F3
331
10903
  5
1090C
331
109A5
  5
109AE
331
1098C
  5
10995
331
10962
  5
1096B
331
1097B
  5
10984
331
10A75
  5
10A7E
331
10A4B
  5
10A54
331
10A32
  5
10A3B
331
10A64
  5
10A6D
331
10B04
  5
10B0E
331
10B1D
  5
10B27
331
1086E
  5
10895
331
1083C
  5
10848
331
10855
  5
1085E
331
10897
  5
108A0
331
108B0
  5
108B9
331
1010F
  5
10117
331
1090F
  5
10918
331
10928
  5
10931
331
109B5
  5
109BE
331
1099C
  5
109A5
331
109CE
  5
109D7
331
109E7
  5
109F0
331
109F8
  5
10A01
331
10A85
  5
10A8E
331
10A9E
  5
10AA7
331
10AB7
  5
10AD0
331
10AD8
  5
10AE2
331
10B14
  5
10B1E
331
10B2D
  5
10E71
331
108F2
  5
108FB
331
108A7
  5
108B0
331
108C0
  5
108C9
331
108D9
  5
108E2
331
10938
  5
10941
331
1091F
  5
10928
331
10951
  5
1095A
331
1096A
  5
10973
331
10A08
  5
10A11
331
109DE
  5
109E7
331
109F7
  5
10A00
331
10A21
  5
10A2A
331
10A3A
  5
10A43
331
10ACF
  5
10AD9
331
10AAE
  5
10AB7
331
10AE8
  5
10B01
331
1082B
  5
10833
331
108E9
  5
108F2
331
10902
  5
1090B
331
10961
  5
1096A
331
1097A
  5
10983
331
1098B
  5
10994
331
109A4
  5
109AD
331
10A4A
  5
10A53
331
10A31
  5
10A3A
331
10A63
  5
10A6C
331
10A74
  5
10A7D
331
10B03
  5
10B0D
331
10B1C
  5
10B26
331
1086D
  5
10894
331
1083B
  5
10847
331
10854
  5
1085D
331
10896
  5
1089F
331
1010E
  5
10116
331
1090E
  5
10917
331
109B4
  5
109BD
331
1099B
  5
109A4
331
109CD
  5
109D6
331
109E6
  5
109EF
331
10AB6
  5
10ACD
331
10A84
  5
10A8D
331
10A9D
  5
10AA6
331
10B13
  5
10B1D
331
108F1
  5
108FA
331
108A6
  5
108AF
331
108BF
  5
108C8
331
108D8
  5
108E1
  0
LAYOUT
  5
1F0A
102
{ACAD_XDICTIONARY
360
1521F
102
}
102
{ACAD_REACTORS
330
1F02
102
}
330
1F02
100
AcDbPlotSettings
  1

  2
HP DesignJet 430 (D / A1)
  4
User270
  6

 40
4.995333194732666
 41
16.93330574035644
 42
4.995330810546875
 43
16.933349609375
 44
419.9466552734374
 45
593.8519897460937
 46
0.0
 47
0.0
 48
59336.11708285688
 49
-20537.1530523113
140
115469.3951683314
141
19749.53857783539
142
1.0
143
100.0
 70
 11936
 72
     1
 73
     1
 74
     4
  7

 75
     0
147
0.01
148
-59336.11708285688
149
20537.1530523113
100
AcDbLayout
  1
Model
 70
     1
 71
     0
 10
0.0
 20
0.0
 11
12.0
 21
9.0
 12
0.0
 22
0.0
 32
0.0
 14
0.0
 24
0.0
 34
0.0
 15
0.0
 25
0.0
 35
0.0
146
0.0
 13
0.0
 23
0.0
 33
0.0
 16
1.0
 26
0.0
 36
0.0
 17
0.0
 27
1.0
 37
0.0
 76
     0
330
1F07
  0
LAYOUT
  5
1F06
102
{ACAD_XDICTIONARY
360
1521D
102
}
102
{ACAD_REACTORS
330
1F02
102
}
330
1F02
100
AcDbPlotSettings
  1

  2
HP DesignJet 430 (D / A1)
  4

  6

 40
0.0
 41
0.0
 42
0.0
 43
0.0
 44
0.0
 45
0.0
 46
0.0
 47
0.0
 48
0.0
 49
0.0
140
0.0
141
0.0
142
1.0
143
1.0
 70
   688
 72
     0
 73
     0
 74
     5
  7

 75
    16
147
1.0
148
0.0
149
0.0
100
AcDbLayout
  1
ﾚｲｱｳﾄ1
 70
     0
 71
     1
 10
0.0
 20
0.0
 11
12.0
 21
9.0
 12
0.0
 22
0.0
 32
0.0
 14
1.000000000000000E+20
 24
1.000000000000000E+20
 34
1.000000000000000E+20
 15
-1.000000000000000E+20
 25
-1.000000000000000E+20
 35
-1.000000000000000E+20
146
0.0
 13
0.0
 23
0.0
 33
0.0
 16
1.0
 26
0.0
 36
0.0
 17
0.0
 27
1.0
 37
0.0
 76
     0
330
1F03
  0
MLINESTYLE
  5
1F00
102
{ACAD_REACTORS
330
1EFF
102
}
330
1EFF
100
AcDbMlineStyle
  2
STANDARD
 70
     0
  3

 62
   256
 51
90.0
 52
90.0
 71
     2
 49
0.5
 62
   256
  6
BYLAYER
 49
-0.5
 62
   256
  6
BYLAYER
  0
ACDBPLACEHOLDER
  5
1EF8
102
{ACAD_REACTORS
330
1EF7
102
}
330
1EF7
  0
TABLESTYLE
  5
8C49
102
{ACAD_REACTORS
330
8C48
102
}
330
8C48
100
AcDbTableStyle
  3
Standard
 70
     0
 71
     0
 40
0.06
 41
0.06
280
     0
281
     0
  7
STANDARD
140
0.18
170
     2
 62
     0
 63
     7
283
     0
274
    -2
284
     1
 64
     0
275
    -2
285
     1
 65
     0
276
    -2
286
     1
 66
     0
277
    -2
287
     1
 67
     0
278
    -2
288
     1
 68
     0
279
    -2
289
     1
 69
     0
  7
STANDARD
140
0.25
170
     5
 62
     0
 63
     7
283
     0
274
    -2
284
     1
 64
     0
275
    -2
285
     1
 65
     0
276
    -2
286
     1
 66
     0
277
    -2
287
     1
 67
     0
278
    -2
288
     1
 68
     0
279
    -2
289
     1
 69
     0
  7
STANDARD
140
0.18
170
     5
 62
     0
 63
     7
283
     0
274
    -2
284
     1
 64
     0
275
    -2
285
     1
 65
     0
276
    -2
286
     1
 66
     0
277
    -2
287
     1
 67
     0
278
    -2
288
     1
 68
     0
279
    -2
289
     1
 69
     0
  0
DICTIONARYVAR
  5
8CAE
102
{ACAD_REACTORS
330
4454
102
}
330
4454
100
DictionaryVariables
280
     0
  1
STANDARD
  0
DICTIONARYVAR
  5
8CAF
102
{ACAD_REACTORS
330
4454
102
}
330
4454
100
DictionaryVariables
280
     0
  1
1
  0
DICTIONARYVAR
  5
8CB0
102
{ACAD_REACTORS
330
4454
102
}
330
4454
100
DictionaryVariables
280
     0
  1

  0
DICTIONARYVAR
  5
4455
102
{ACAD_REACTORS
330
4454
102
}
330
4454
100
DictionaryVariables
280
     0
  1
96
  0
DICTIONARY
  5
1521F
330
1F0A
100
AcDbDictionary
280
     1
281
     1
  3
ACAD_XREC_ROUNDTRIP
360
15220
  0
DICTIONARY
  5
1521D
330
1F06
100
AcDbDictionary
280
     1
281
     1
  3
ACAD_XREC_ROUNDTRIP
360
1521E
  0
XRECORD
  5
15220
102
{ACAD_REACTORS
330
1521F
102
}
330
1521F
100
AcDbXrecord
280
     1
102
SHADEPLOT
 70
     0
102
SHADEPLOTRESLEVEL
 70
     2
102
SHADEPLOTCUSTOMDPI
 70
   300
  0
XRECORD
  5
1521E
102
{ACAD_REACTORS
330
1521D
102
}
330
1521D
100
AcDbXrecord
280
     1
102
SHADEPLOT
 70
     0
102
SHADEPLOTRESLEVEL
 70
     2
102
SHADEPLOTCUSTOMDPI
 70
   300
  0
ENDSEC
  0
EOF
