  0
SECTION
  2
HEADER
  9
$ACADVER
  1
AC1015
  9
$ACADMAINTVER
 70
    20
  9
$DWGCODEPAGE
  3
ANSI_932
  9
$INSBASE
 10
0.0
 20
0.0
 30
0.0
  9
$EXTMIN
 10
2934.832905389878
 20
-85081.92248114285
 30
-0.0000000349181948
  9
$EXTMAX
 10
42534.22863429205
 20
-77789.95537543972
 30
0.0000000814935746
  9
$LIMMIN
 10
0.0
 20
0.0
  9
$LIMMAX
 10
59400.0
 20
42000.0
  9
$ORTHOMODE
 70
     0
  9
$REGENMODE
 70
     1
  9
$FILLMODE
 70
     1
  9
$QTEXTMODE
 70
     0
  9
$MIRRTEXT
 70
     1
  9
$LTSCALE
 40
100.0
  9
$ATTMODE
 70
     1
  9
$TEXTSIZE
 40
300.0
  9
$TRACEWID
 40
0.05
  9
$TEXTSTYLE
  7
スタイル1
  9
$CLAYER
  8
器具
  9
$CELTYPE
  6
ByLayer
  9
$CECOLOR
 62
   256
  9
$CELTSCALE
 40
1.0
  9
$DISPSILH
 70
     0
  9
$DIMSCALE
 40
100.0
  9
$DIMASZ
 40
2.0
  9
$DIMEXO
 40
2.0
  9
$DIMDLI
 40
0.38
  9
$DIMRND
 40
0.0
  9
$DIMDLE
 40
0.0
  9
$DIMEXE
 40
0.18
  9
$DIMTP
 40
0.0
  9
$DIMTM
 40
0.0
  9
$DIMTXT
 40
2.0
  9
$DIMCEN
 40
0.09
  9
$DIMTSZ
 40
0.0
  9
$DIMTOL
 70
     0
  9
$DIMLIM
 70
     0
  9
$DIMTIH
 70
     0
  9
$DIMTOH
 70
     1
  9
$DIMSE1
 70
     0
  9
$DIMSE2
 70
     0
  9
$DIMTAD
 70
     1
  9
$DIMZIN
 70
     0
  9
$DIMBLK
  1
Open30
  9
$DIMASO
 70
     1
  9
$DIMSHO
 70
     1
  9
$DIMPOST
  1

  9
$DIMAPOST
  1

  9
$DIMALT
 70
     0
  9
$DIMALTD
 70
     2
  9
$DIMALTF
 40
25.4
  9
$DIMLFAC
 40
1.0
  9
$DIMTOFL
 70
     0
  9
$DIMTVP
 40
0.0
  9
$DIMTIX
 70
     0
  9
$DIMSOXD
 70
     0
  9
$DIMSAH
 70
     0
  9
$DIMBLK1
  1

  9
$DIMBLK2
  1

  9
$DIMSTYLE
  2
STANDARD
  9
$DIMCLRD
 70
     0
  9
$DIMCLRE
 70
     0
  9
$DIMCLRT
 70
     0
  9
$DIMTFAC
 40
1.0
  9
$DIMGAP
 40
1.0
  9
$DIMJUST
 70
     0
  9
$DIMSD1
 70
     0
  9
$DIMSD2
 70
     0
  9
$DIMTOLJ
 70
     1
  9
$DIMTZIN
 70
     0
  9
$DIMALTZ
 70
     0
  9
$DIMALTTZ
 70
     0
  9
$DIMUPT
 70
     0
  9
$DIMDEC
 70
     1
  9
$DIMTDEC
 70
     1
  9
$DIMALTU
 70
     2
  9
$DIMALTTD
 70
     2
  9
$DIMTXSTY
  7
STANDARD
  9
$DIMAUNIT
 70
     0
  9
$DIMADEC
 70
     0
  9
$DIMALTRND
 40
0.0
  9
$DIMAZIN
 70
     0
  9
$DIMDSEP
 70
    46
  9
$DIMATFIT
 70
     3
  9
$DIMFRAC
 70
     0
  9
$DIMLDRBLK
  1
Open30
  9
$DIMLUNIT
 70
     2
  9
$DIMLWD
 70
    -2
  9
$DIMLWE
 70
    -2
  9
$DIMTMOVE
 70
     0
  9
$LUNITS
 70
     2
  9
$LUPREC
 70
     4
  9
$SKETCHINC
 40
0.1
  9
$FILLETRAD
 40
0.0
  9
$AUNITS
 70
     0
  9
$AUPREC
 70
     0
  9
$MENU
  1
acad
  9
$ELEVATION
 40
0.0
  9
$PELEVATION
 40
0.0
  9
$THICKNESS
 40
0.0
  9
$LIMCHECK
 70
     0
  9
$CHAMFERA
 40
0.0
  9
$CHAMFERB
 40
0.0
  9
$CHAMFERC
 40
0.0
  9
$CHAMFERD
 40
0.0
  9
$SKPOLY
 70
     0
  9
$TDCREATE
 40
2426945.499536991
  9
$TDUCREATE
 40
2426945.124536991
  9
$TDUPDATE
 40
2456245.624347326
  9
$TDUUPDATE
 40
2456245.249347326
  9
$TDINDWG
 40
1.7153713426
  9
$TDUSRTIMER
 40
1.7153694907
  9
$USRTIMER
 70
     1
  9
$ANGBASE
 50
0.0
  9
$ANGDIR
 70
     0
  9
$PDMODE
 70
     0
  9
$PDSIZE
 40
0.0
  9
$PLINEWID
 40
0.0
  9
$SPLFRAME
 70
     0
  9
$SPLINETYPE
 70
     6
  9
$SPLINESEGS
 70
     8
  9
$HANDSEED
  5
1526E
  9
$SURFTAB1
 70
     6
  9
$SURFTAB2
 70
     6
  9
$SURFTYPE
 70
     6
  9
$SURFU
 70
     6
  9
$SURFV
 70
     6
  9
$UCSBASE
  2

  9
$UCSNAME
  2

  9
$UCSORG
 10
0.0
 20
0.0
 30
0.0
  9
$UCSXDIR
 10
1.0
 20
0.0
 30
0.0
  9
$UCSYDIR
 10
0.0
 20
1.0
 30
0.0
  9
$UCSORTHOREF
  2

  9
$UCSORTHOVIEW
 70
     0
  9
$UCSORGTOP
 10
0.0
 20
0.0
 30
0.0
  9
$UCSORGBOTTOM
 10
0.0
 20
0.0
 30
0.0
  9
$UCSORGLEFT
 10
0.0
 20
0.0
 30
0.0
  9
$UCSORGRIGHT
 10
0.0
 20
0.0
 30
0.0
  9
$UCSORGFRONT
 10
0.0
 20
0.0
 30
0.0
  9
$UCSORGBACK
 10
0.0
 20
0.0
 30
0.0
  9
$PUCSBASE
  2

  9
$PUCSNAME
  2

  9
$PUCSORG
 10
0.0
 20
0.0
 30
0.0
  9
$PUCSXDIR
 10
1.0
 20
0.0
 30
0.0
  9
$PUCSYDIR
 10
0.0
 20
1.0
 30
0.0
  9
$PUCSORTHOREF
  2

  9
$PUCSORTHOVIEW
 70
     0
  9
$PUCSORGTOP
 10
0.0
 20
0.0
 30
0.0
  9
$PUCSORGBOTTOM
 10
0.0
 20
0.0
 30
0.0
  9
$PUCSORGLEFT
 10
0.0
 20
0.0
 30
0.0
  9
$PUCSORGRIGHT
 10
0.0
 20
0.0
 30
0.0
  9
$PUCSORGFRONT
 10
0.0
 20
0.0
 30
0.0
  9
$PUCSORGBACK
 10
0.0
 20
0.0
 30
0.0
  9
$USERI1
 70
     0
  9
$USERI2
 70
     0
  9
$USERI3
 70
     0
  9
$USERI4
 70
     0
  9
$USERI5
 70
     0
  9
$USERR1
 40
0.0
  9
$USERR2
 40
0.0
  9
$USERR3
 40
0.0
  9
$USERR4
 40
0.0
  9
$USERR5
 40
0.0
  9
$WORLDVIEW
 70
     1
  9
$SHADEDGE
 70
     3
  9
$SHADEDIF
 70
    70
  9
$TILEMODE
 70
     1
  9
$MAXACTVP
 70
    16
  9
$PINSBASE
 10
0.0
 20
0.0
 30
0.0
  9
$PLIMCHECK
 70
     0
  9
$PEXTMIN
 10
1.000000000000000E+20
 20
1.000000000000000E+20
 30
1.000000000000000E+20
  9
$PEXTMAX
 10
-1.000000000000000E+20
 20
-1.000000000000000E+20
 30
-1.000000000000000E+20
  9
$PLIMMIN
 10
0.0
 20
0.0
  9
$PLIMMAX
 10
12.0
 20
9.0
  9
$UNITMODE
 70
     0
  9
$VISRETAIN
 70
     0
  9
$PLINEGEN
 70
     1
  9
$PSLTSCALE
 70
     0
  9
$TREEDEPTH
 70
  3020
  9
$CMLSTYLE
  2
Standard
  9
$CMLJUST
 70
     0
  9
$CMLSCALE
 40
1.0
  9
$PROXYGRAPHICS
 70
     1
  9
$MEASUREMENT
 70
     0
  9
$CELWEIGHT
370
    -1
  9
$ENDCAPS
280
     0
  9
$JOINSTYLE
280
     0
  9
$LWDISPLAY
290
     0
  9
$INSUNITS
 70
     0
  9
$HYPERLINKBASE
  1

  9
$STYLESHEET
  1
aclt.ctb
  9
$XEDIT
290
     1
  9
$CEPSNTYPE
380
     0
  9
$PSTYLEMODE
290
     1
  9
$FINGERPRINTGUID
  2
{8637CE02-3222-11D7-99D2-0040267E6A47}
  9
$VERSIONGUID
  2
{7E4E9976-198F-4D8D-9E39-2BEAD2864497}
  9
$EXTNAMES
290
     1
  9
$PSVPSCALE
 40
0.0
  9
$OLESTARTUP
290
     0
  0
ENDSEC
  0
SECTION
  2
CLASSES
  0
CLASS
  1
ACDBDICTIONARYWDFLT
  2
AcDbDictionaryWithDefault
  3
ObjectDBX Classes
 90
        0
280
     0
281
     0
  0
CLASS
  1
ACDBPLACEHOLDER
  2
AcDbPlaceHolder
  3
ObjectDBX Classes
 90
        0
280
     0
281
     0
  0
CLASS
  1
LAYOUT
  2
AcDbLayout
  3
ObjectDBX Classes
 90
        0
280
     0
281
     0
  0
CLASS
  1
DICTIONARYVAR
  2
AcDbDictionaryVar
  3
ObjectDBX Classes
 90
        0
280
     0
281
     0
  0
CLASS
  1
TABLESTYLE
  2
AcDbTableStyle
  3
ObjectDBX Classes
 90
     2047
280
     0
281
     0
  0
CLASS
  1
SORTENTSTABLE
  2
AcDbSortentsTable
  3
ObjectDBX Classes
 90
        0
280
     0
281
     0
  0
ENDSEC
  0
SECTION
  2
TABLES
  0
TABLE
  2
VPORT
  5
1EF1
330
0
100
AcDbSymbolTable
 70
    10
  0
VPORT
  5
15268
330
1EF1
100
AcDbSymbolTableRecord
100
AcDbViewportTableRecord
  2
*Active
 70
     0
 10
0.0
 20
0.0
 11
1.0
 21
1.0
 12
25332.39649164379
 22
-81264.98500633703
 13
0.0
 23
0.0
 14
1000.0
 24
1000.0
 15
1000.0
 25
1000.0
 16
0.0
 26
0.0
 36
1.0
 17
0.0
 27
0.0
 37
0.0
 40
11853.93637288427
 41
1.652054794520548
 42
50.0
 43
0.0
 44
0.0
 50
0.0
 51
0.0
 71
     0
 72
   100
 73
     1
 74
     1
 75
     0
 76
     0
 77
     0
 78
     0
281
     0
 65
     1
110
0.0
120
0.0
130
0.0
111
1.0
121
0.0
131
0.0
112
0.0
122
1.0
132
0.0
 79
     0
146
0.0
  0
ENDTAB
  0
TABLE
  2
LTYPE
  5
1EEE
330
0
100
AcDbSymbolTable
 70
     8
  0
LTYPE
  5
1EFC
330
1EEE
100
AcDbSymbolTableRecord
100
AcDbLinetypeTableRecord
  2
ByBlock
 70
     0
  3

 72
    65
 73
     0
 40
0.0
  0
LTYPE
  5
1EFD
330
1EEE
100
AcDbSymbolTableRecord
100
AcDbLinetypeTableRecord
  2
ByLayer
 70
     0
  3

 72
    65
 73
     0
 40
0.0
  0
LTYPE
  5
1EFE
330
1EEE
100
AcDbSymbolTableRecord
100
AcDbLinetypeTableRecord
  2
CONTINUOUS
 70
     0
  3
Solid line
 72
    65
 73
     0
 40
0.0
  0
LTYPE
  5
1F0C
330
1EEE
100
AcDbSymbolTableRecord
100
AcDbLinetypeTableRecord
  2
HIDDEN
 70
     0
  3
__ __ __ __ __ __ __ __ __ __ __ __ __ __ __ __
 72
    65
 73
     5
 40
8.0
 49
1.0
 74
     0
 49
-2.0
 74
     0
 49
2.0
 74
     0
 49
-2.0
 74
     0
 49
1.0
 74
     0
  0
LTYPE
  5
1F0D
330
1EEE
100
AcDbSymbolTableRecord
100
AcDbLinetypeTableRecord
  2
DOT
 70
     0
  3
. . . . . . . . . . . . . . . . . . . . . . . .
 72
    65
 73
     3
 40
1.6
 49
0.4
 74
     0
 49
-0.8
 74
     0
 49
0.4
 74
     0
  0
LTYPE
  5
1F0E
330
1EEE
100
AcDbSymbolTableRecord
100
AcDbLinetypeTableRecord
  2
CENTER
 70
     0
  3
____ _ ____ _ ____ _ ____ _ ____ _ ____ _ ____ 
 72
    65
 73
     5
 40
12.0
 49
5.0
 74
     0
 49
-0.8
 74
     0
 49
0.4
 74
     0
 49
-0.8
 74
     0
 49
5.0
 74
     0
  0
LTYPE
  5
1F0F
330
1EEE
100
AcDbSymbolTableRecord
100
AcDbLinetypeTableRecord
  2
DIVIDE
 70
     0
  3
____ . . ____ . . ____ . . ____ . . ____ . . __
 72
    65
 73
     7
 40
13.2
 49
5.0
 74
     0
 49
-0.8
 74
     0
 49
0.4
 74
     0
 49
-0.8
 74
     0
 49
0.4
 74
     0
 49
-0.8
 74
     0
 49
5.0
 74
     0
  0
LTYPE
  5
BC93
330
1EEE
100
AcDbSymbolTableRecord
100
AcDbLinetypeTableRecord
  2
DASH_CENTER
 70
     0
  3
Dash_Center
 72
    65
 73
     4
 40
36.0
 49
24.0
 74
     0
 49
-3.0
 74
     0
 49
6.0
 74
     0
 49
-3.0
 74
     0
  0
LTYPE
  5
CA49
330
1EEE
100
AcDbSymbolTableRecord
100
AcDbLinetypeTableRecord
  2
STYLE_01
 70
     0
  3

 72
    65
 73
     2
 40
0.125
 49
0.0625
 74
     0
 49
-0.0625
 74
     0
  0
LTYPE
  5
CA4A
330
1EEE
100
AcDbSymbolTableRecord
100
AcDbLinetypeTableRecord
  2
STYLE_07
 70
     0
  3

 72
    65
 73
     2
 40
0.125
 49
0.03125
 74
     0
 49
-0.09375
 74
     0
  0
ENDTAB
  0
TABLE
  2
LAYER
  5
1EEB
102
{ACAD_XDICTIONARY
360
9A3A
102
}
330
0
100
AcDbSymbolTable
 70
    13
  0
LAYER
  5
1EF9
330
1EEB
100
AcDbSymbolTableRecord
100
AcDbLayerTableRecord
  2
0
 70
     0
 62
     7
  6
CONTINUOUS
370
    -3
390
1EF8
  0
LAYER
  5
4075
330
1EEB
100
AcDbSymbolTableRecord
100
AcDbLayerTableRecord
  2
記号
 70
     0
 62
     4
  6
CONTINUOUS
370
    -3
390
1EF8
  0
LAYER
  5
42A3
330
1EEB
100
AcDbSymbolTableRecord
100
AcDbLayerTableRecord
  2
Defpoints
 70
     4
 62
     7
  6
CONTINUOUS
290
     0
370
    -3
390
1EF8
  0
LAYER
  5
58FC
330
1EEB
100
AcDbSymbolTableRecord
100
AcDbLayerTableRecord
  2
リスト
 70
     0
 62
     8
  6
CONTINUOUS
370
    13
390
1EF8
  0
LAYER
  5
8CB6
330
1EEB
100
AcDbSymbolTableRecord
100
AcDbLayerTableRecord
  2
器具
 70
     0
 62
     4
  6
CONTINUOUS
370
    -3
390
1EF8
  0
LAYER
  5
8CB7
330
1EEB
100
AcDbSymbolTableRecord
100
AcDbLayerTableRecord
  2
レイヤー_1
 70
     0
 62
   160
  6
CONTINUOUS
370
    -3
390
1EF8
  0
LAYER
  5
9466
330
1EEB
100
AcDbSymbolTableRecord
100
AcDbLayerTableRecord
  2
画層1
 70
     4
 62
   160
  6
CONTINUOUS
370
    -3
390
1EF8
1001
AcAecLayerStandard
1000

1000

  0
LAYER
  5
9F35
330
1EEB
100
AcDbSymbolTableRecord
100
AcDbLayerTableRecord
  2
下書き
 70
     0
 62
     6
  6
CONTINUOUS
370
    -3
390
1EF8
1001
AcAecLayerStandard
1000

1000

  0
LAYER
  5
A81A
330
1EEB
100
AcDbSymbolTableRecord
100
AcDbLayerTableRecord
  2
007
 70
     0
 62
     1
  6
CONTINUOUS
370
    -3
390
1EF8
  0
LAYER
  5
BC94
330
1EEB
100
AcDbSymbolTableRecord
100
AcDbLayerTableRecord
  2
図面
 70
     0
 62
     5
  6
CONTINUOUS
370
    -3
390
1EF8
  0
LAYER
  5
CA4B
330
1EEB
100
AcDbSymbolTableRecord
100
AcDbLayerTableRecord
  2
1
 70
     0
 62
     8
  6
CONTINUOUS
370
    -3
390
1EF8
1001
AcAecLayerStandard
1000

1000

  0
LAYER
  5
1246F
330
1EEB
100
AcDbSymbolTableRecord
100
AcDbLayerTableRecord
  2
寸法・文字
 70
     0
 62
     4
  6
CONTINUOUS
370
    13
390
1EF8
1001
AcAecLayerStandard
1000

1000

  0
LAYER
  5
13854
330
1EEB
100
AcDbSymbolTableRecord
100
AcDbLayerTableRecord
  2
製品
 70
     0
 62
     1
  6
CONTINUOUS
370
    -3
390
1EF8
1001
AcAecLayerStandard
1000

1000

  0
ENDTAB
  0
TABLE
  2
STYLE
  5
1EEC
330
0
100
AcDbSymbolTable
 70
    16
  0
STYLE
  5
1EFA
330
1EEC
100
AcDbSymbolTableRecord
100
AcDbTextStyleTableRecord
  2
STANDARD
 70
     0
 40
280.0
 41
1.0
 50
0.0
 71
     0
 42
280.0
  3
MS Gothic.ttf
  4

1001
ACAD
1000
MS Gothic
1071
    32817
  0
STYLE
  5
1F2D
330
1EEC
100
AcDbSymbolTableRecord
100
AcDbTextStyleTableRecord
  2
ＤＨＰ平成ゴシックW5
 70
     0
 40
1000.0
 41
1.0
 50
0.0
 71
     0
 42
1000.0
  3
txt
  4
extfont
  0
STYLE
  5
1F2E
330
1EEC
100
AcDbSymbolTableRecord
100
AcDbTextStyleTableRecord
  2
TATEDRACAD
 70
     4
 40
1000.0
 41
1.0
 50
0.0
 71
     0
 42
1000.0
  3
txt
  4
extfont
  0
STYLE
  5
1F2F
330
1EEC
100
AcDbSymbolTableRecord
100
AcDbTextStyleTableRecord
  2
ＤＨＰ平成ゴシックW51
 70
     0
 40
1000.0
 41
1.0
 50
0.0
 71
     0
 42
1000.0
  3
txt
  4
extfont
  0
STYLE
  5
1F30
330
1EEC
100
AcDbSymbolTableRecord
100
AcDbTextStyleTableRecord
  2
ＪＳＰゴシック
 70
     0
 40
1000.0
 41
1.0
 50
0.0
 71
     0
 42
1000.0
  3
txt
  4
extfont
  0
STYLE
  5
1F31
330
1EEC
100
AcDbSymbolTableRecord
100
AcDbTextStyleTableRecord
  2
ＭＳ_ゴシック
 70
     0
 40
1000.0
 41
1.0
 50
0.0
 71
     0
 42
1000.0
  3
txt
  4
extfont
  0
STYLE
  5
A258
330
1EEC
100
AcDbSymbolTableRecord
100
AcDbTextStyleTableRecord
  2
スタイル1
 70
     0
 40
300.0
 41
1.0
 50
0.0
 71
     0
 42
300.0
  3
MS Gothic.ttf
  4

1001
ACAD
1000
MS Gothic
1071
    32817
  0
STYLE
  5
A547
330
1EEC
100
AcDbSymbolTableRecord
100
AcDbTextStyleTableRecord
  2
WMF-ＭＳ Ｐゴシック0
 70
     0
 40
0.0
 41
1.0
 50
0.0
 71
     0
 42
280.0
  3
MS PGothic.ttf
  4

1001
ACAD
1000
MS PGothic
1071
    32816
  0
STYLE
  5
A58D
330
1EEC
100
AcDbSymbolTableRecord
100
AcDbTextStyleTableRecord
  2
WMF-System0
 70
     0
 40
0.0
 41
1.0
 50
0.0
 71
     0
 42
280.0
  3

  4

  0
STYLE
  5
A81B
330
1EEC
100
AcDbSymbolTableRecord
100
AcDbTextStyleTableRecord
  2
ＭＳ ゴシック
 70
     0
 40
450.0
 41
0.85
 50
0.0
 71
     0
 42
450.0
  3
MS Gothic.ttf
  4

1001
ACAD
1000
MS Gothic
1071
    32817
  0
STYLE
  5
CA4C
330
1EEC
100
AcDbSymbolTableRecord
100
AcDbTextStyleTableRecord
  2
_______
 70
     0
 40
0.0
 41
1.0
 50
0.0
 71
     0
 42
0.0
  3
MS Gothic.ttf
  4
ＭＳ ゴシック
1001
ACAD
1000
ＭＳ ゴシック
1071
        0
  0
STYLE
  5
14676
330
1EEC
100
AcDbSymbolTableRecord
100
AcDbTextStyleTableRecord
  2
ヒラギノ角ゴ Pro W3
 70
     0
 40
0.0
 41
1.0
 50
0.0
 71
     0
 42
0.0
  3
MS Gothic.ttf
  4

1001
ACAD
1000
MS Gothic
1071
    32817
  0
ENDTAB
  0
TABLE
  2
VIEW
  5
1EEF
330
0
100
AcDbSymbolTable
 70
     0
  0
ENDTAB
  0
TABLE
  2
UCS
  5
1EF0
330
0
100
AcDbSymbolTable
 70
     0
  0
ENDTAB
  0
TABLE
  2
APPID
  5
1EF2
330
0
100
AcDbSymbolTable
 70
     3
  0
APPID
  5
1EFB
330
1EF2
100
AcDbSymbolTableRecord
100
AcDbRegAppTableRecord
  2
ACAD
 70
     0
  0
APPID
  5
9467
330
1EF2
100
AcDbSymbolTableRecord
100
AcDbRegAppTableRecord
  2
AcAecLayerStandard
 70
     0
  0
APPID
  5
9D2E
330
1EF2
100
AcDbSymbolTableRecord
100
AcDbRegAppTableRecord
  2
ACAD_PSEXT
 70
     0
  0
ENDTAB
  0
TABLE
  2
DIMSTYLE
  5
1EF3
330
0
100
AcDbSymbolTable
 70
     5
100
AcDbDimStyleTable
 71
     1
340
1F32
  0
DIMSTYLE
105
1F32
330
1EF3
100
AcDbSymbolTableRecord
100
AcDbDimStyleTableRecord
  2
STANDARD
 70
     0
279
     2
340
1EFA
  0
ENDTAB
  0
TABLE
  2
BLOCK_RECORD
  5
1EEA
330
0
100
AcDbSymbolTable
 70
     7
  0
BLOCK_RECORD
  5
1F07
102
{ACAD_XDICTIONARY
360
980C
102
}
330
1EEA
100
AcDbSymbolTableRecord
100
AcDbBlockTableRecord
  2
*Model_Space
340
1F0A
  0
BLOCK_RECORD
  5
1F03
330
1EEA
100
AcDbSymbolTableRecord
100
AcDbBlockTableRecord
  2
*Paper_Space
340
1F06
  0
BLOCK_RECORD
  5
429C
330
1EEA
100
AcDbSymbolTableRecord
100
AcDbBlockTableRecord
  2
_Open30
340
0
  0
BLOCK_RECORD
  5
A543
330
1EEA
100
AcDbSymbolTableRecord
100
AcDbBlockTableRecord
  2
WMF0
340
0
  0
BLOCK_RECORD
  5
1384E
330
1EEA
100
AcDbSymbolTableRecord
100
AcDbBlockTableRecord
  2
_Open
340
0
  0
ENDTAB
  0
ENDSEC
  0
SECTION
  2
BLOCKS
  0
BLOCK
  5
1F08
330
1F07
100
AcDbEntity
  8
0
100
AcDbBlockBegin
  2
*Model_Space
 70
     0
 10
0.0
 20
0.0
 30
0.0
  3
*Model_Space
  1

  0
ENDBLK
  5
1F09
330
1F07
100
AcDbEntity
  8
0
100
AcDbBlockEnd
  0
BLOCK
  5
1F04
330
1F03
100
AcDbEntity
 67
     1
  8
0
100
AcDbBlockBegin
  2
*Paper_Space
 70
     0
 10
0.0
 20
0.0
 30
0.0
  3
*Paper_Space
  1

  0
ENDBLK
  5
1F05
330
1F03
100
AcDbEntity
 67
     1
  8
0
100
AcDbBlockEnd
  0
BLOCK
  5
42A0
330
429C
100
AcDbEntity
  8
0
100
AcDbBlockBegin
  2
_Open30
 70
     0
 10
0.0
 20
0.0
 30
0.0
  3
_Open30
  1

  0
LINE
  5
429D
330
429C
100
AcDbEntity
  8
記号
  6
DOT
 62
     0
370
    -2
100
AcDbLine
 10
-1.0
 20
0.26794919
 30
0.0
 11
0.0
 21
0.0
 31
0.0
  0
LINE
  5
429E
330
429C
100
AcDbEntity
  8
記号
  6
DOT
 62
     0
370
    -2
100
AcDbLine
 10
0.0
 20
0.0
 30
0.0
 11
-1.0
 21
-0.26794919
 31
0.0
  0
LINE
  5
429F
330
429C
100
AcDbEntity
  8
記号
  6
DOT
 62
     0
370
    -2
100
AcDbLine
 10
0.0
 20
0.0
 30
0.0
 11
-1.0
 21
0.0
 31
0.0
  0
ENDBLK
  5
42A1
330
429C
100
AcDbEntity
  8
0
100
AcDbBlockEnd
  0
BLOCK
  5
A546
330
A543
100
AcDbEntity
  8
0
 62
     7
370
     0
100
AcDbBlockBegin
  2
WMF0
 70
     0
 10
0.0
 20
0.0
 30
0.0
  3
WMF0
  1

  0
TEXT
  5
A548
330
A543
100
AcDbEntity
  8
0
 62
     7
370
     0
100
AcDbText
 10
4302.31530976598
 20
-1290.694592929794
 30
0.0
 40
894.8815844313239
  1
LEDﾀﾞｳﾝﾗｲﾄ
  7
WMF-ＭＳ Ｐゴシック0
100
AcDbText
  0
TEXT
  5
A54A
330
A543
100
AcDbEntity
  8
0
 62
     7
370
     0
100
AcDbText
 10
23920.87312229885
 20
-1290.694592929794
 30
0.0
 40
894.8815844313239
  1
LEDﾀﾞｳﾝﾗｲﾄ
  7
WMF-ＭＳ Ｐゴシック0
100
AcDbText
  0
TEXT
  5
A54B
330
A543
100
AcDbEntity
  8
0
 62
     7
370
     0
100
AcDbText
 10
43539.43093483171
 20
-1290.694592929794
 30
0.0
 40
894.8815844313239
  1
LEDﾀﾞｳﾝﾗｲﾄ
  7
WMF-ＭＳ Ｐゴシック0
100
AcDbText
  0
TEXT
  5
A54C
330
A543
100
AcDbEntity
  8
0
 62
     7
370
     0
100
AcDbText
 10
63157.98874736458
 20
-1290.694592929794
 30
0.0
 40
894.8815844313239
  1
LEDﾀﾞｳﾝﾗｲﾄ
  7
WMF-ＭＳ Ｐゴシック0
100
AcDbText
  0
TEXT
  5
A54D
330
A543
100
AcDbEntity
  8
0
 62
     7
370
     0
100
AcDbText
 10
1290.694592929794
 20
-2753.481798250227
 30
0.0
 40
894.8815844313239
  1
D1
  7
WMF-ＭＳ Ｐゴシック0
100
AcDbText
  0
TEXT
  5
A54E
330
A543
100
AcDbEntity
  8
0
 62
     7
370
     0
100
AcDbText
 10
4302.31530976598
 20
-2753.481798250227
 30
0.0
 40
894.8815844313239
  1
BML-26181WW-110
  7
WMF-ＭＳ Ｐゴシック0
100
AcDbText
  0
TEXT
  5
A54F
330
A543
100
AcDbEntity
  8
0
 62
     7
370
     0
100
AcDbText
 10
20909.25240546266
 20
-2753.481798250227
 30
0.0
 40
894.8815844313239
  1
D2
  7
WMF-ＭＳ Ｐゴシック0
100
AcDbText
  0
TEXT
  5
A550
330
A543
100
AcDbEntity
  8
0
 62
     7
370
     0
100
AcDbText
 10
23920.87312229885
 20
-2753.481798250227
 30
0.0
 40
894.8815844313239
  1
BML-26187WW-110
  7
WMF-ＭＳ Ｐゴシック0
100
AcDbText
  0
TEXT
  5
A551
330
A543
100
AcDbEntity
  8
0
 62
     7
370
     0
100
AcDbText
 10
40527.81021799553
 20
-2753.481798250227
 30
0.0
 40
894.8815844313239
  1
D3
  7
WMF-ＭＳ Ｐゴシック0
100
AcDbText
  0
TEXT
  5
A552
330
A543
100
AcDbEntity
  8
0
 62
     7
370
     0
100
AcDbText
 10
43539.43093483171
 20
-2753.481798250227
 30
0.0
 40
894.8815844313239
  1
BML-26199WW-110
  7
WMF-ＭＳ Ｐゴシック0
100
AcDbText
  0
TEXT
  5
A553
330
A543
100
AcDbEntity
  8
0
 62
     7
370
     0
100
AcDbText
 10
60146.36803052839
 20
-2753.481798250227
 30
0.0
 40
894.8815844313239
  1
D4
  7
WMF-ＭＳ Ｐゴシック0
100
AcDbText
  0
TEXT
  5
A554
330
A543
100
AcDbEntity
  8
0
 62
     7
370
     0
100
AcDbText
 10
63157.98874736458
 20
-2753.481798250227
 30
0.0
 40
894.8815844313239
  1
BML-26213WL-110
  7
WMF-ＭＳ Ｐゴシック0
100
AcDbText
  0
TEXT
  5
A555
330
A543
100
AcDbEntity
  8
0
 62
     7
370
     0
100
AcDbText
 10
9637.186293875796
 20
-4216.26900357066
 30
0.0
 40
894.8815844313239
  1
LED76W  (4500K)
  7
WMF-ＭＳ Ｐゴシック0
100
AcDbText
  0
TEXT
  5
A556
330
A543
100
AcDbEntity
  8
0
 62
     7
370
     0
100
AcDbText
 10
29255.74410640866
 20
-4216.26900357066
 30
0.0
 40
894.8815844313239
  1
LED54W  (4500K)
  7
WMF-ＭＳ Ｐゴシック0
100
AcDbText
  0
TEXT
  5
A557
330
A543
100
AcDbEntity
  8
0
 62
     7
370
     0
100
AcDbText
 10
48874.30191894153
 20
-4216.26900357066
 30
0.0
 40
894.8815844313239
  1
LED32W  (4500K)
  7
WMF-ＭＳ Ｐゴシック0
100
AcDbText
  0
TEXT
  5
A558
330
A543
100
AcDbEntity
  8
0
 62
     7
370
     0
100
AcDbText
 10
68492.8597314744
 20
-4216.26900357066
 30
0.0
 40
894.8815844313239
  1
LED17W  (2900K)
  7
WMF-ＭＳ Ｐゴシック0
100
AcDbText
  0
TEXT
  5
A559
330
A543
100
AcDbEntity
  8
0
 62
     7
370
     0
100
AcDbText
 10
4302.31530976598
 20
-20823.20609926735
 30
0.0
 40
894.8815844313239
  1
 
  7
WMF-ＭＳ Ｐゴシック0
100
AcDbText
  0
TEXT
  5
A55A
330
A543
100
AcDbEntity
  8
0
 62
     7
370
     0
100
AcDbText
 10
23920.87312229885
 20
-20823.20609926735
 30
0.0
 40
894.8815844313239
  1
 
  7
WMF-ＭＳ Ｐゴシック0
100
AcDbText
  0
TEXT
  5
A55B
330
A543
100
AcDbEntity
  8
0
 62
     7
370
     0
100
AcDbText
 10
43539.43093483171
 20
-20823.20609926735
 30
0.0
 40
894.8815844313239
  1
 
  7
WMF-ＭＳ Ｐゴシック0
100
AcDbText
  0
TEXT
  5
A55C
330
A543
100
AcDbEntity
  8
0
 62
     7
370
     0
100
AcDbText
 10
63157.98874736458
 20
-20823.20609926735
 30
0.0
 40
894.8815844313239
  1
 
  7
WMF-ＭＳ Ｐゴシック0
100
AcDbText
  0
TEXT
  5
A55D
330
A543
100
AcDbEntity
  8
0
 62
     7
370
     0
100
AcDbText
 10
4302.31530976598
 20
-24006.91942849417
 30
0.0
 40
894.8815844313239
  1
LED直管型ﾗｲﾄ
  7
WMF-ＭＳ Ｐゴシック0
100
AcDbText
  0
TEXT
  5
A55E
330
A543
100
AcDbEntity
  8
0
 62
     7
370
     0
100
AcDbText
 10
23920.87312229885
 20
-24006.91942849417
 30
0.0
 40
894.8815844313239
  1
LED軒下用ﾀﾞｳﾝﾗｲﾄ
  7
WMF-ＭＳ Ｐゴシック0
100
AcDbText
  0
TEXT
  5
A55F
330
A543
100
AcDbEntity
  8
0
 62
     7
370
     0
100
AcDbText
 10
43539.43093483171
 20
-24006.91942849417
 30
0.0
 40
894.8815844313239
  1
LEDｱｳﾄﾄﾞｱｽﾎﾟｯﾄﾗｲﾄ
  7
WMF-ＭＳ Ｐゴシック0
100
AcDbText
  0
TEXT
  5
A560
330
A543
100
AcDbEntity
  8
0
 62
     7
370
     0
100
AcDbText
 10
63157.98874736458
 20
-24006.91942849417
 30
0.0
 40
894.8815844313239
  1
LEDﾀﾞｳﾝﾗｲﾄ
  7
WMF-ＭＳ Ｐゴシック0
100
AcDbText
  0
TEXT
  5
A561
330
A543
100
AcDbEntity
  8
0
 62
     7
370
     0
100
AcDbText
 10
1376.740899125113
 20
-25469.7066338146
 30
0.0
 40
894.8815844313239
  1
F1
  7
WMF-ＭＳ Ｐゴシック0
100
AcDbText
  0
TEXT
  5
A562
330
A543
100
AcDbEntity
  8
0
 62
     7
370
     0
100
AcDbText
 10
4302.31530976598
 20
-25469.7066338146
 30
0.0
 40
894.8815844313239
  1
TBJKL-22006W
  7
WMF-ＭＳ Ｐゴシック0
100
AcDbText
  0
TEXT
  5
A563
330
A543
100
AcDbEntity
  8
0
 62
     7
370
     0
100
AcDbText
 10
20479.02087448607
 20
-25469.7066338146
 30
0.0
 40
894.8815844313239
  1
OD1
  7
WMF-ＭＳ Ｐゴシック0
100
AcDbText
  0
TEXT
  5
A564
330
A543
100
AcDbEntity
  8
0
 62
     7
370
     0
100
AcDbText
 10
23920.87312229885
 20
-25469.7066338146
 30
0.0
 40
894.8815844313239
  1
BML-26187WSW-110
  7
WMF-ＭＳ Ｐゴシック0
100
AcDbText
  0
TEXT
  5
A565
330
A543
100
AcDbEntity
  8
0
 62
     7
370
     0
100
AcDbText
 10
40097.57868701893
 20
-25469.7066338146
 30
0.0
 40
894.8815844313239
  1
OS1
  7
WMF-ＭＳ Ｐゴシック0
100
AcDbText
  0
TEXT
  5
A566
330
A543
100
AcDbEntity
  8
0
 62
     7
370
     0
100
AcDbText
 10
43539.43093483171
 20
-25469.7066338146
 30
0.0
 40
894.8815844313239
  1
BGSL-20045GW-20
  7
WMF-ＭＳ Ｐゴシック0
100
AcDbText
  0
TEXT
  5
A567
330
A543
100
AcDbEntity
  8
0
 62
     7
370
     0
100
AcDbText
 10
60576.59956150499
 20
-25469.7066338146
 30
0.0
 40
894.8815844313239
  1
0
  7
WMF-ＭＳ Ｐゴシック0
100
AcDbText
  0
TEXT
  5
A568
330
A543
100
AcDbEntity
  8
0
 62
     7
370
     0
100
AcDbText
 10
63157.98874736458
 20
-25469.7066338146
 30
0.0
 40
894.8815844313239
  1
BML-26160WW-120
  7
WMF-ＭＳ Ｐゴシック0
100
AcDbText
  0
TEXT
  5
A569
330
A543
100
AcDbEntity
  8
0
 62
     7
370
     0
100
AcDbText
 10
9637.186293875796
 20
-26932.49383913503
 30
0.0
 40
894.8815844313239
  1
LED38W  (4000K)
  7
WMF-ＭＳ Ｐゴシック0
100
AcDbText
  0
TEXT
  5
A56A
330
A543
100
AcDbEntity
  8
0
 62
     7
370
     0
100
AcDbText
 10
29255.74410640866
 20
-26932.49383913503
 30
0.0
 40
894.8815844313239
  1
LED54W  (4500K)
  7
WMF-ＭＳ Ｐゴシック0
100
AcDbText
  0
TEXT
  5
A56B
330
A543
100
AcDbEntity
  8
0
 62
     7
370
     0
100
AcDbText
 10
48874.30191894153
 20
-26932.49383913503
 30
0.0
 40
894.8815844313239
  1
LED68W  (4500K)
  7
WMF-ＭＳ Ｐゴシック0
100
AcDbText
  0
TEXT
  5
A56C
330
A543
100
AcDbEntity
  8
0
 62
     7
370
     0
100
AcDbText
 10
77613.76818817828
 20
-26932.49383913503
 30
0.0
 40
894.8815844313239
  1
0
  7
WMF-ＭＳ Ｐゴシック0
100
AcDbText
  0
TEXT
  5
A56D
330
A543
100
AcDbEntity
  8
0
 62
     7
370
     0
100
AcDbText
 10
4302.31530976598
 20
-46723.14426405853
 30
0.0
 40
894.8815844313239
  1
LEDﾀﾞｳﾝﾗｲﾄ
  7
WMF-ＭＳ Ｐゴシック0
100
AcDbText
  0
TEXT
  5
A56E
330
A543
100
AcDbEntity
  8
0
 62
     7
370
     0
100
AcDbText
 10
23920.87312229885
 20
-46723.14426405853
 30
0.0
 40
894.8815844313239
  1
LEDﾀﾞｳﾝﾗｲﾄ
  7
WMF-ＭＳ Ｐゴシック0
100
AcDbText
  0
TEXT
  5
A56F
330
A543
100
AcDbEntity
  8
0
 62
     7
370
     0
100
AcDbText
 10
43539.43093483171
 20
-46723.14426405853
 30
0.0
 40
894.8815844313239
  1
LEDﾀﾞｳﾝﾗｲﾄ
  7
WMF-ＭＳ Ｐゴシック0
100
AcDbText
  0
TEXT
  5
A570
330
A543
100
AcDbEntity
  8
0
 62
     7
370
     0
100
AcDbText
 10
63157.98874736458
 20
-46723.14426405853
 30
0.0
 40
894.8815844313239
  1
LEDﾀﾞｳﾝﾗｲﾄ
  7
WMF-ＭＳ Ｐゴシック0
100
AcDbText
  0
TEXT
  5
A571
330
A543
100
AcDbEntity
  8
0
 62
     7
370
     0
100
AcDbText
 10
1720.926123906392
 20
-48185.93146937897
 30
0.0
 40
894.8815844313239
  1
0
  7
WMF-ＭＳ Ｐゴシック0
100
AcDbText
  0
TEXT
  5
A572
330
A543
100
AcDbEntity
  8
0
 62
     7
370
     0
100
AcDbText
 10
4302.31530976598
 20
-48185.93146937897
 30
0.0
 40
894.8815844313239
  1
BML-26160WW-124
  7
WMF-ＭＳ Ｐゴシック0
100
AcDbText
  0
TEXT
  5
A573
330
A543
100
AcDbEntity
  8
0
 62
     7
370
     0
100
AcDbText
 10
21339.48393643926
 20
-48185.93146937897
 30
0.0
 40
894.8815844313239
  1
0
  7
WMF-ＭＳ Ｐゴシック0
100
AcDbText
  0
TEXT
  5
A574
330
A543
100
AcDbEntity
  8
0
 62
     7
370
     0
100
AcDbText
 10
23920.87312229885
 20
-48185.93146937897
 30
0.0
 40
894.8815844313239
  1
BML-26160WW-125
  7
WMF-ＭＳ Ｐゴシック0
100
AcDbText
  0
TEXT
  5
A575
330
A543
100
AcDbEntity
  8
0
 62
     7
370
     0
100
AcDbText
 10
40958.04174897213
 20
-48185.93146937897
 30
0.0
 40
894.8815844313239
  1
0
  7
WMF-ＭＳ Ｐゴシック0
100
AcDbText
  0
TEXT
  5
A576
330
A543
100
AcDbEntity
  8
0
 62
     7
370
     0
100
AcDbText
 10
43539.43093483171
 20
-48185.93146937897
 30
0.0
 40
894.8815844313239
  1
BML-26160WW-126
  7
WMF-ＭＳ Ｐゴシック0
100
AcDbText
  0
TEXT
  5
A577
330
A543
100
AcDbEntity
  8
0
 62
     7
370
     0
100
AcDbText
 10
60576.59956150499
 20
-48185.93146937897
 30
0.0
 40
894.8815844313239
  1
0
  7
WMF-ＭＳ Ｐゴシック0
100
AcDbText
  0
TEXT
  5
A578
330
A543
100
AcDbEntity
  8
0
 62
     7
370
     0
100
AcDbText
 10
63157.98874736458
 20
-48185.93146937897
 30
0.0
 40
894.8815844313239
  1
BML-26160WW-127
  7
WMF-ＭＳ Ｐゴシック0
100
AcDbText
  0
TEXT
  5
A579
330
A543
100
AcDbEntity
  8
0
 62
     7
370
     0
100
AcDbText
 10
18758.09475057967
 20
-49648.7186746994
 30
0.0
 40
894.8815844313239
  1
0
  7
WMF-ＭＳ Ｐゴシック0
100
AcDbText
  0
TEXT
  5
A57A
330
A543
100
AcDbEntity
  8
0
 62
     7
370
     0
100
AcDbText
 10
38376.65256311254
 20
-49648.7186746994
 30
0.0
 40
894.8815844313239
  1
0
  7
WMF-ＭＳ Ｐゴシック0
100
AcDbText
  0
TEXT
  5
A57B
330
A543
100
AcDbEntity
  8
0
 62
     7
370
     0
100
AcDbText
 10
57995.21037564541
 20
-49648.7186746994
 30
0.0
 40
894.8815844313239
  1
0
  7
WMF-ＭＳ Ｐゴシック0
100
AcDbText
  0
TEXT
  5
A57C
330
A543
100
AcDbEntity
  8
0
 62
     7
370
     0
100
AcDbText
 10
77613.76818817828
 20
-49648.7186746994
 30
0.0
 40
894.8815844313239
  1
0
  7
WMF-ＭＳ Ｐゴシック0
100
AcDbText
  0
TEXT
  5
A57D
330
A543
100
AcDbEntity
  8
0
 62
     7
370
     0
100
AcDbText
 10
4302.31530976598
 20
-69439.36909962291
 30
0.0
 40
894.8815844313239
  1
LEDﾀﾞｳﾝﾗｲﾄ
  7
WMF-ＭＳ Ｐゴシック0
100
AcDbText
  0
TEXT
  5
A57E
330
A543
100
AcDbEntity
  8
0
 62
     7
370
     0
100
AcDbText
 10
23920.87312229885
 20
-69439.36909962291
 30
0.0
 40
894.8815844313239
  1
LEDﾀﾞｳﾝﾗｲﾄ
  7
WMF-ＭＳ Ｐゴシック0
100
AcDbText
  0
TEXT
  5
A57F
330
A543
100
AcDbEntity
  8
0
 62
     7
370
     0
100
AcDbText
 10
43539.43093483171
 20
-69439.36909962291
 30
0.0
 40
894.8815844313239
  1
LEDﾀﾞｳﾝﾗｲﾄ
  7
WMF-ＭＳ Ｐゴシック0
100
AcDbText
  0
TEXT
  5
A580
330
A543
100
AcDbEntity
  8
0
 62
     7
370
     0
100
AcDbText
 10
63157.98874736458
 20
-69439.36909962291
 30
0.0
 40
894.8815844313239
  1
LEDﾀﾞｳﾝﾗｲﾄ
  7
WMF-ＭＳ Ｐゴシック0
100
AcDbText
  0
TEXT
  5
A581
330
A543
100
AcDbEntity
  8
0
 62
     7
370
     0
100
AcDbText
 10
1720.926123906392
 20
-70902.15630494334
 30
0.0
 40
894.8815844313239
  1
0
  7
WMF-ＭＳ Ｐゴシック0
100
AcDbText
  0
TEXT
  5
A582
330
A543
100
AcDbEntity
  8
0
 62
     7
370
     0
100
AcDbText
 10
18758.09475057967
 20
-70902.15630494334
 30
0.0
 40
894.8815844313239
  1
0
  7
WMF-ＭＳ Ｐゴシック0
100
AcDbText
  0
TEXT
  5
A583
330
A543
100
AcDbEntity
  8
0
 62
     7
370
     0
100
AcDbText
 10
21339.48393643926
 20
-70902.15630494334
 30
0.0
 40
894.8815844313239
  1
0
  7
WMF-ＭＳ Ｐゴシック0
100
AcDbText
  0
TEXT
  5
A584
330
A543
100
AcDbEntity
  8
0
 62
     7
370
     0
100
AcDbText
 10
38376.65256311254
 20
-70902.15630494334
 30
0.0
 40
894.8815844313239
  1
0
  7
WMF-ＭＳ Ｐゴシック0
100
AcDbText
  0
TEXT
  5
A585
330
A543
100
AcDbEntity
  8
0
 62
     7
370
     0
100
AcDbText
 10
40958.04174897213
 20
-70902.15630494334
 30
0.0
 40
894.8815844313239
  1
0
  7
WMF-ＭＳ Ｐゴシック0
100
AcDbText
  0
TEXT
  5
A586
330
A543
100
AcDbEntity
  8
0
 62
     7
370
     0
100
AcDbText
 10
57995.21037564541
 20
-70902.15630494334
 30
0.0
 40
894.8815844313239
  1
0
  7
WMF-ＭＳ Ｐゴシック0
100
AcDbText
  0
TEXT
  5
A587
330
A543
100
AcDbEntity
  8
0
 62
     7
370
     0
100
AcDbText
 10
60576.59956150499
 20
-70902.15630494334
 30
0.0
 40
894.8815844313239
  1
0
  7
WMF-ＭＳ Ｐゴシック0
100
AcDbText
  0
TEXT
  5
A588
330
A543
100
AcDbEntity
  8
0
 62
     7
370
     0
100
AcDbText
 10
77613.76818817828
 20
-70902.15630494334
 30
0.0
 40
894.8815844313239
  1
0
  7
WMF-ＭＳ Ｐゴシック0
100
AcDbText
  0
TEXT
  5
A589
330
A543
100
AcDbEntity
  8
0
 62
     7
370
     0
100
AcDbText
 10
18758.09475057967
 20
-72364.94351026378
 30
0.0
 40
894.8815844313239
  1
0
  7
WMF-ＭＳ Ｐゴシック0
100
AcDbText
  0
TEXT
  5
A58A
330
A543
100
AcDbEntity
  8
0
 62
     7
370
     0
100
AcDbText
 10
38376.65256311254
 20
-72364.94351026378
 30
0.0
 40
894.8815844313239
  1
0
  7
WMF-ＭＳ Ｐゴシック0
100
AcDbText
  0
TEXT
  5
A58B
330
A543
100
AcDbEntity
  8
0
 62
     7
370
     0
100
AcDbText
 10
57995.21037564541
 20
-72364.94351026378
 30
0.0
 40
894.8815844313239
  1
0
  7
WMF-ＭＳ Ｐゴシック0
100
AcDbText
  0
TEXT
  5
A58C
330
A543
100
AcDbEntity
  8
0
 62
     7
370
     0
100
AcDbText
 10
77613.76818817828
 20
-72364.94351026378
 30
0.0
 40
894.8815844313239
  1
0
  7
WMF-ＭＳ Ｐゴシック0
100
AcDbText
  0
POLYLINE
  5
A58E
330
A543
100
AcDbEntity
  8
0
 62
     7
370
     0
100
AcDb2dPolyline
 66
     1
 10
0.0
 20
0.0
 30
0.0
  0
VERTEX
  5
A58F
330
A58E
100
AcDbEntity
  8
0
 62
     7
370
     0
100
AcDbVertex
100
AcDb2dVertex
 10
4130.22269737534
 20
-1462.787205320433
 30
0.0
  0
VERTEX
  5
A590
330
A58E
100
AcDbEntity
  8
0
 62
     7
370
     0
100
AcDbVertex
100
AcDb2dVertex
 10
19704.60411872819
 20
-1462.787205320433
 30
0.0
  0
SEQEND
  5
A591
330
A58E
100
AcDbEntity
  8
0
 62
     7
370
     0
  0
POLYLINE
  5
A592
330
A543
100
AcDbEntity
  8
0
 62
     7
370
     0
100
AcDb2dPolyline
 66
     1
 10
0.0
 20
0.0
 30
0.0
  0
VERTEX
  5
A593
330
A592
100
AcDbEntity
  8
0
 62
     7
370
     0
100
AcDbVertex
100
AcDb2dVertex
 10
23748.78050990821
 20
-1462.787205320433
 30
0.0
  0
VERTEX
  5
A594
330
A592
100
AcDbEntity
  8
0
 62
     7
370
     0
100
AcDbVertex
100
AcDb2dVertex
 10
39323.16193126106
 20
-1462.787205320433
 30
0.0
  0
SEQEND
  5
A595
330
A592
100
AcDbEntity
  8
0
 62
     7
370
     0
  0
POLYLINE
  5
A596
330
A543
100
AcDbEntity
  8
0
 62
     7
370
     0
100
AcDb2dPolyline
 66
     1
 10
0.0
 20
0.0
 30
0.0
  0
VERTEX
  5
A597
330
A596
100
AcDbEntity
  8
0
 62
     7
370
     0
100
AcDbVertex
100
AcDb2dVertex
 10
43367.33832244107
 20
-1462.787205320433
 30
0.0
  0
VERTEX
  5
A598
330
A596
100
AcDbEntity
  8
0
 62
     7
370
     0
100
AcDbVertex
100
AcDb2dVertex
 10
58941.71974379392
 20
-1462.787205320433
 30
0.0
  0
SEQEND
  5
A599
330
A596
100
AcDbEntity
  8
0
 62
     7
370
     0
  0
POLYLINE
  5
A59A
330
A543
100
AcDbEntity
  8
0
 62
     7
370
     0
100
AcDb2dPolyline
 66
     1
 10
0.0
 20
0.0
 30
0.0
  0
VERTEX
  5
A59B
330
A59A
100
AcDbEntity
  8
0
 62
     7
370
     0
100
AcDbVertex
100
AcDb2dVertex
 10
4044.176391180021
 20
-86.04630619531958
 30
0.0
  0
VERTEX
  5
A59C
330
A59A
100
AcDbEntity
  8
0
 62
     7
370
     0
100
AcDbVertex
100
AcDb2dVertex
 10
4044.176391180021
 20
-4474.407922156618
 30
0.0
  0
SEQEND
  5
A59D
330
A59A
100
AcDbEntity
  8
0
 62
     7
370
     0
  0
POLYLINE
  5
A59E
330
A543
100
AcDbEntity
  8
0
 62
     7
370
     0
100
AcDb2dPolyline
 66
     1
 10
0.0
 20
0.0
 30
0.0
  0
VERTEX
  5
A59F
330
A59E
100
AcDbEntity
  8
0
 62
     7
370
     0
100
AcDbVertex
100
AcDb2dVertex
 10
23662.73420371289
 20
-86.04630619531958
 30
0.0
  0
VERTEX
  5
A5A0
330
A59E
100
AcDbEntity
  8
0
 62
     7
370
     0
100
AcDbVertex
100
AcDb2dVertex
 10
23662.73420371289
 20
-4474.407922156618
 30
0.0
  0
SEQEND
  5
A5A1
330
A59E
100
AcDbEntity
  8
0
 62
     7
370
     0
  0
POLYLINE
  5
A5A2
330
A543
100
AcDbEntity
  8
0
 62
     7
370
     0
100
AcDb2dPolyline
 66
     1
 10
0.0
 20
0.0
 30
0.0
  0
VERTEX
  5
A5A3
330
A5A2
100
AcDbEntity
  8
0
 62
     7
370
     0
100
AcDbVertex
100
AcDb2dVertex
 10
43281.29201624575
 20
-86.04630619531958
 30
0.0
  0
VERTEX
  5
A5A4
330
A5A2
100
AcDbEntity
  8
0
 62
     7
370
     0
100
AcDbVertex
100
AcDb2dVertex
 10
43281.29201624575
 20
-4474.407922156618
 30
0.0
  0
SEQEND
  5
A5A5
330
A5A2
100
AcDbEntity
  8
0
 62
     7
370
     0
  0
POLYLINE
  5
A5A6
330
A543
100
AcDbEntity
  8
0
 62
     7
370
     0
100
AcDb2dPolyline
 66
     1
 10
0.0
 20
0.0
 30
0.0
  0
VERTEX
  5
A5A7
330
A5A6
100
AcDbEntity
  8
0
 62
     7
370
     0
100
AcDbVertex
100
AcDb2dVertex
 10
62899.84982877862
 20
-86.04630619531958
 30
0.0
  0
VERTEX
  5
A5A8
330
A5A6
100
AcDbEntity
  8
0
 62
     7
370
     0
100
AcDbVertex
100
AcDb2dVertex
 10
62899.84982877862
 20
-4474.407922156618
 30
0.0
  0
SEQEND
  5
A5A9
330
A5A6
100
AcDbEntity
  8
0
 62
     7
370
     0
  0
POLYLINE
  5
A5AA
330
A543
100
AcDbEntity
  8
0
 62
     7
370
     0
100
AcDb2dPolyline
 66
     1
 10
0.0
 20
0.0
 30
0.0
  0
VERTEX
  5
A5AB
330
A5AA
100
AcDbEntity
  8
0
 62
     7
370
     0
100
AcDbVertex
100
AcDb2dVertex
 10
4130.22269737534
 20
-24179.0120408848
 30
0.0
  0
VERTEX
  5
A5AC
330
A5AA
100
AcDbEntity
  8
0
 62
     7
370
     0
100
AcDbVertex
100
AcDb2dVertex
 10
19704.60411872819
 20
-24179.0120408848
 30
0.0
  0
SEQEND
  5
A5AD
330
A5AA
100
AcDbEntity
  8
0
 62
     7
370
     0
  0
POLYLINE
  5
A5AE
330
A543
100
AcDbEntity
  8
0
 62
     7
370
     0
100
AcDb2dPolyline
 66
     1
 10
0.0
 20
0.0
 30
0.0
  0
VERTEX
  5
A5AF
330
A5AE
100
AcDbEntity
  8
0
 62
     7
370
     0
100
AcDbVertex
100
AcDb2dVertex
 10
23748.78050990821
 20
-24179.0120408848
 30
0.0
  0
VERTEX
  5
A5B0
330
A5AE
100
AcDbEntity
  8
0
 62
     7
370
     0
100
AcDbVertex
100
AcDb2dVertex
 10
39323.16193126106
 20
-24179.0120408848
 30
0.0
  0
SEQEND
  5
A5B1
330
A5AE
100
AcDbEntity
  8
0
 62
     7
370
     0
  0
POLYLINE
  5
A5B2
330
A543
100
AcDbEntity
  8
0
 62
     7
370
     0
100
AcDb2dPolyline
 66
     1
 10
0.0
 20
0.0
 30
0.0
  0
VERTEX
  5
A5B3
330
A5B2
100
AcDbEntity
  8
0
 62
     7
370
     0
100
AcDbVertex
100
AcDb2dVertex
 10
43367.33832244107
 20
-24179.0120408848
 30
0.0
  0
VERTEX
  5
A5B4
330
A5B2
100
AcDbEntity
  8
0
 62
     7
370
     0
100
AcDbVertex
100
AcDb2dVertex
 10
58941.71974379392
 20
-24179.0120408848
 30
0.0
  0
SEQEND
  5
A5B5
330
A5B2
100
AcDbEntity
  8
0
 62
     7
370
     0
  0
POLYLINE
  5
A5B6
330
A543
100
AcDbEntity
  8
0
 62
     7
370
     0
100
AcDb2dPolyline
 66
     1
 10
0.0
 20
0.0
 30
0.0
  0
VERTEX
  5
A5B7
330
A5B6
100
AcDbEntity
  8
0
 62
     7
370
     0
100
AcDbVertex
100
AcDb2dVertex
 10
4044.176391180021
 20
-22802.27114175969
 30
0.0
  0
VERTEX
  5
A5B8
330
A5B6
100
AcDbEntity
  8
0
 62
     7
370
     0
100
AcDbVertex
100
AcDb2dVertex
 10
4044.176391180021
 20
-27190.63275772099
 30
0.0
  0
SEQEND
  5
A5B9
330
A5B6
100
AcDbEntity
  8
0
 62
     7
370
     0
  0
POLYLINE
  5
A5BA
330
A543
100
AcDbEntity
  8
0
 62
     7
370
     0
100
AcDb2dPolyline
 66
     1
 10
0.0
 20
0.0
 30
0.0
  0
VERTEX
  5
A5BB
330
A5BA
100
AcDbEntity
  8
0
 62
     7
370
     0
100
AcDbVertex
100
AcDb2dVertex
 10
23662.73420371289
 20
-22802.27114175969
 30
0.0
  0
VERTEX
  5
A5BC
330
A5BA
100
AcDbEntity
  8
0
 62
     7
370
     0
100
AcDbVertex
100
AcDb2dVertex
 10
23662.73420371289
 20
-27190.63275772099
 30
0.0
  0
SEQEND
  5
A5BD
330
A5BA
100
AcDbEntity
  8
0
 62
     7
370
     0
  0
POLYLINE
  5
A5BE
330
A543
100
AcDbEntity
  8
0
 62
     7
370
     0
100
AcDb2dPolyline
 66
     1
 10
0.0
 20
0.0
 30
0.0
  0
VERTEX
  5
A5BF
330
A5BE
100
AcDbEntity
  8
0
 62
     7
370
     0
100
AcDbVertex
100
AcDb2dVertex
 10
43281.29201624575
 20
-22802.27114175969
 30
0.0
  0
VERTEX
  5
A5C0
330
A5BE
100
AcDbEntity
  8
0
 62
     7
370
     0
100
AcDbVertex
100
AcDb2dVertex
 10
43281.29201624575
 20
-27190.63275772099
 30
0.0
  0
SEQEND
  5
A5C1
330
A5BE
100
AcDbEntity
  8
0
 62
     7
370
     0
  0
POLYLINE
  5
A5C2
330
A543
100
AcDbEntity
  8
0
 62
     7
370
     0
100
AcDb2dPolyline
 66
     1
 10
0.0
 20
0.0
 30
0.0
  0
VERTEX
  5
A5C3
330
A5C2
100
AcDbEntity
  8
0
 62
     7
370
     0
100
AcDbVertex
100
AcDb2dVertex
 10
62899.84982877862
 20
-22802.27114175969
 30
0.0
  0
VERTEX
  5
A5C4
330
A5C2
100
AcDbEntity
  8
0
 62
     7
370
     0
100
AcDbVertex
100
AcDb2dVertex
 10
62899.84982877862
 20
-27190.63275772099
 30
0.0
  0
SEQEND
  5
A5C5
330
A5C2
100
AcDbEntity
  8
0
 62
     7
370
     0
  0
POLYLINE
  5
A5C6
330
A543
100
AcDbEntity
  8
0
 62
     7
370
     0
100
AcDb2dPolyline
 66
     1
 10
0.0
 20
0.0
 30
0.0
  0
VERTEX
  5
A5C7
330
A5C6
100
AcDbEntity
  8
0
 62
     7
370
     0
100
AcDbVertex
100
AcDb2dVertex
 10
4130.22269737534
 20
-46895.23687644918
 30
0.0
  0
VERTEX
  5
A5C8
330
A5C6
100
AcDbEntity
  8
0
 62
     7
370
     0
100
AcDbVertex
100
AcDb2dVertex
 10
19704.60411872819
 20
-46895.23687644918
 30
0.0
  0
SEQEND
  5
A5C9
330
A5C6
100
AcDbEntity
  8
0
 62
     7
370
     0
  0
POLYLINE
  5
A5CA
330
A543
100
AcDbEntity
  8
0
 62
     7
370
     0
100
AcDb2dPolyline
 66
     1
 10
0.0
 20
0.0
 30
0.0
  0
VERTEX
  5
A5CB
330
A5CA
100
AcDbEntity
  8
0
 62
     7
370
     0
100
AcDbVertex
100
AcDb2dVertex
 10
23748.78050990821
 20
-46895.23687644918
 30
0.0
  0
VERTEX
  5
A5CC
330
A5CA
100
AcDbEntity
  8
0
 62
     7
370
     0
100
AcDbVertex
100
AcDb2dVertex
 10
39323.16193126106
 20
-46895.23687644918
 30
0.0
  0
SEQEND
  5
A5CD
330
A5CA
100
AcDbEntity
  8
0
 62
     7
370
     0
  0
POLYLINE
  5
A5CE
330
A543
100
AcDbEntity
  8
0
 62
     7
370
     0
100
AcDb2dPolyline
 66
     1
 10
0.0
 20
0.0
 30
0.0
  0
VERTEX
  5
A5CF
330
A5CE
100
AcDbEntity
  8
0
 62
     7
370
     0
100
AcDbVertex
100
AcDb2dVertex
 10
43367.33832244107
 20
-46895.23687644918
 30
0.0
  0
VERTEX
  5
A5D0
330
A5CE
100
AcDbEntity
  8
0
 62
     7
370
     0
100
AcDbVertex
100
AcDb2dVertex
 10
58941.71974379392
 20
-46895.23687644918
 30
0.0
  0
SEQEND
  5
A5D1
330
A5CE
100
AcDbEntity
  8
0
 62
     7
370
     0
  0
POLYLINE
  5
A5D2
330
A543
100
AcDbEntity
  8
0
 62
     7
370
     0
100
AcDb2dPolyline
 66
     1
 10
0.0
 20
0.0
 30
0.0
  0
VERTEX
  5
A5D3
330
A5D2
100
AcDbEntity
  8
0
 62
     7
370
     0
100
AcDbVertex
100
AcDb2dVertex
 10
4044.176391180021
 20
-45518.49597732406
 30
0.0
  0
VERTEX
  5
A5D4
330
A5D2
100
AcDbEntity
  8
0
 62
     7
370
     0
100
AcDbVertex
100
AcDb2dVertex
 10
4044.176391180021
 20
-49906.85759328536
 30
0.0
  0
SEQEND
  5
A5D5
330
A5D2
100
AcDbEntity
  8
0
 62
     7
370
     0
  0
POLYLINE
  5
A5D6
330
A543
100
AcDbEntity
  8
0
 62
     7
370
     0
100
AcDb2dPolyline
 66
     1
 10
0.0
 20
0.0
 30
0.0
  0
VERTEX
  5
A5D7
330
A5D6
100
AcDbEntity
  8
0
 62
     7
370
     0
100
AcDbVertex
100
AcDb2dVertex
 10
23662.73420371289
 20
-45518.49597732406
 30
0.0
  0
VERTEX
  5
A5D8
330
A5D6
100
AcDbEntity
  8
0
 62
     7
370
     0
100
AcDbVertex
100
AcDb2dVertex
 10
23662.73420371289
 20
-49906.85759328536
 30
0.0
  0
SEQEND
  5
A5D9
330
A5D6
100
AcDbEntity
  8
0
 62
     7
370
     0
  0
POLYLINE
  5
A5DA
330
A543
100
AcDbEntity
  8
0
 62
     7
370
     0
100
AcDb2dPolyline
 66
     1
 10
0.0
 20
0.0
 30
0.0
  0
VERTEX
  5
A5DB
330
A5DA
100
AcDbEntity
  8
0
 62
     7
370
     0
100
AcDbVertex
100
AcDb2dVertex
 10
43281.29201624575
 20
-45518.49597732406
 30
0.0
  0
VERTEX
  5
A5DC
330
A5DA
100
AcDbEntity
  8
0
 62
     7
370
     0
100
AcDbVertex
100
AcDb2dVertex
 10
43281.29201624575
 20
-49906.85759328536
 30
0.0
  0
SEQEND
  5
A5DD
330
A5DA
100
AcDbEntity
  8
0
 62
     7
370
     0
  0
POLYLINE
  5
A5DE
330
A543
100
AcDbEntity
  8
0
 62
     7
370
     0
100
AcDb2dPolyline
 66
     1
 10
0.0
 20
0.0
 30
0.0
  0
VERTEX
  5
A5DF
330
A5DE
100
AcDbEntity
  8
0
 62
     7
370
     0
100
AcDbVertex
100
AcDb2dVertex
 10
62899.84982877862
 20
-45518.49597732406
 30
0.0
  0
VERTEX
  5
A5E0
330
A5DE
100
AcDbEntity
  8
0
 62
     7
370
     0
100
AcDbVertex
100
AcDb2dVertex
 10
62899.84982877862
 20
-49906.85759328536
 30
0.0
  0
SEQEND
  5
A5E1
330
A5DE
100
AcDbEntity
  8
0
 62
     7
370
     0
  0
POLYLINE
  5
A5E2
330
A543
100
AcDbEntity
  8
0
 62
     7
370
     0
100
AcDb2dPolyline
 66
     1
 10
0.0
 20
0.0
 30
0.0
  0
VERTEX
  5
A5E3
330
A5E2
100
AcDbEntity
  8
0
 62
     7
370
     0
100
AcDbVertex
100
AcDb2dVertex
 10
4130.22269737534
 20
-69611.46171201355
 30
0.0
  0
VERTEX
  5
A5E4
330
A5E2
100
AcDbEntity
  8
0
 62
     7
370
     0
100
AcDbVertex
100
AcDb2dVertex
 10
19704.60411872819
 20
-69611.46171201355
 30
0.0
  0
SEQEND
  5
A5E5
330
A5E2
100
AcDbEntity
  8
0
 62
     7
370
     0
  0
POLYLINE
  5
A5E6
330
A543
100
AcDbEntity
  8
0
 62
     7
370
     0
100
AcDb2dPolyline
 66
     1
 10
0.0
 20
0.0
 30
0.0
  0
VERTEX
  5
A5E7
330
A5E6
100
AcDbEntity
  8
0
 62
     7
370
     0
100
AcDbVertex
100
AcDb2dVertex
 10
23748.78050990821
 20
-69611.46171201355
 30
0.0
  0
VERTEX
  5
A5E8
330
A5E6
100
AcDbEntity
  8
0
 62
     7
370
     0
100
AcDbVertex
100
AcDb2dVertex
 10
39323.16193126106
 20
-69611.46171201355
 30
0.0
  0
SEQEND
  5
A5E9
330
A5E6
100
AcDbEntity
  8
0
 62
     7
370
     0
  0
POLYLINE
  5
A5EA
330
A543
100
AcDbEntity
  8
0
 62
     7
370
     0
100
AcDb2dPolyline
 66
     1
 10
0.0
 20
0.0
 30
0.0
  0
VERTEX
  5
A5EB
330
A5EA
100
AcDbEntity
  8
0
 62
     7
370
     0
100
AcDbVertex
100
AcDb2dVertex
 10
43367.33832244107
 20
-69611.46171201355
 30
0.0
  0
VERTEX
  5
A5EC
330
A5EA
100
AcDbEntity
  8
0
 62
     7
370
     0
100
AcDbVertex
100
AcDb2dVertex
 10
58941.71974379392
 20
-69611.46171201355
 30
0.0
  0
SEQEND
  5
A5ED
330
A5EA
100
AcDbEntity
  8
0
 62
     7
370
     0
  0
POLYLINE
  5
A5EE
330
A543
100
AcDbEntity
  8
0
 62
     7
370
     0
100
AcDb2dPolyline
 66
     1
 10
0.0
 20
0.0
 30
0.0
  0
VERTEX
  5
A5EF
330
A5EE
100
AcDbEntity
  8
0
 62
     7
370
     0
100
AcDbVertex
100
AcDb2dVertex
 10
0.0
 20
0.0
 30
0.0
  0
VERTEX
  5
A5F0
330
A5EE
100
AcDbEntity
  8
0
 62
     7
370
     0
100
AcDbVertex
100
AcDb2dVertex
 10
0.0
 20
-90950.94564845281
 30
0.0
  0
SEQEND
  5
A5F1
330
A5EE
100
AcDbEntity
  8
0
 62
     7
370
     0
  0
POLYLINE
  5
A5F2
330
A543
100
AcDbEntity
  8
0
 62
     7
370
     0
100
AcDb2dPolyline
 66
     1
 10
0.0
 20
0.0
 30
0.0
  0
VERTEX
  5
A5F3
330
A5F2
100
AcDbEntity
  8
0
 62
     7
370
     0
100
AcDbVertex
100
AcDb2dVertex
 10
4044.176391180021
 20
-68234.72081288843
 30
0.0
  0
VERTEX
  5
A5F4
330
A5F2
100
AcDbEntity
  8
0
 62
     7
370
     0
100
AcDbVertex
100
AcDb2dVertex
 10
4044.176391180021
 20
-72623.08242884974
 30
0.0
  0
SEQEND
  5
A5F5
330
A5F2
100
AcDbEntity
  8
0
 62
     7
370
     0
  0
POLYLINE
  5
A5F6
330
A543
100
AcDbEntity
  8
0
 62
     7
370
     0
100
AcDb2dPolyline
 66
     1
 10
0.0
 20
0.0
 30
0.0
  0
VERTEX
  5
A5F7
330
A5F6
100
AcDbEntity
  8
0
 62
     7
370
     0
100
AcDbVertex
100
AcDb2dVertex
 10
19618.55781253287
 20
-86.04630619531958
 30
0.0
  0
VERTEX
  5
A5F8
330
A5F6
100
AcDbEntity
  8
0
 62
     7
370
     0
100
AcDbVertex
100
AcDb2dVertex
 10
19618.55781253287
 20
-90950.94564845281
 30
0.0
  0
SEQEND
  5
A5F9
330
A5F6
100
AcDbEntity
  8
0
 62
     7
370
     0
  0
POLYLINE
  5
A5FA
330
A543
100
AcDbEntity
  8
0
 62
     7
370
     0
100
AcDb2dPolyline
 66
     1
 10
0.0
 20
0.0
 30
0.0
  0
VERTEX
  5
A5FB
330
A5FA
100
AcDbEntity
  8
0
 62
     7
370
     0
100
AcDbVertex
100
AcDb2dVertex
 10
23662.73420371289
 20
-68234.72081288843
 30
0.0
  0
VERTEX
  5
A5FC
330
A5FA
100
AcDbEntity
  8
0
 62
     7
370
     0
100
AcDbVertex
100
AcDb2dVertex
 10
23662.73420371289
 20
-72623.08242884974
 30
0.0
  0
SEQEND
  5
A5FD
330
A5FA
100
AcDbEntity
  8
0
 62
     7
370
     0
  0
POLYLINE
  5
A5FE
330
A543
100
AcDbEntity
  8
0
 62
     7
370
     0
100
AcDb2dPolyline
 66
     1
 10
0.0
 20
0.0
 30
0.0
  0
VERTEX
  5
A5FF
330
A5FE
100
AcDbEntity
  8
0
 62
     7
370
     0
100
AcDbVertex
100
AcDb2dVertex
 10
39237.11562506574
 20
-86.04630619531958
 30
0.0
  0
VERTEX
  5
A600
330
A5FE
100
AcDbEntity
  8
0
 62
     7
370
     0
100
AcDbVertex
100
AcDb2dVertex
 10
39237.11562506574
 20
-90950.94564845281
 30
0.0
  0
SEQEND
  5
A601
330
A5FE
100
AcDbEntity
  8
0
 62
     7
370
     0
  0
POLYLINE
  5
A602
330
A543
100
AcDbEntity
  8
0
 62
     7
370
     0
100
AcDb2dPolyline
 66
     1
 10
0.0
 20
0.0
 30
0.0
  0
VERTEX
  5
A603
330
A602
100
AcDbEntity
  8
0
 62
     7
370
     0
100
AcDbVertex
100
AcDb2dVertex
 10
43281.29201624575
 20
-68234.72081288843
 30
0.0
  0
VERTEX
  5
A604
330
A602
100
AcDbEntity
  8
0
 62
     7
370
     0
100
AcDbVertex
100
AcDb2dVertex
 10
43281.29201624575
 20
-72623.08242884974
 30
0.0
  0
SEQEND
  5
A605
330
A602
100
AcDbEntity
  8
0
 62
     7
370
     0
  0
POLYLINE
  5
A606
330
A543
100
AcDbEntity
  8
0
 62
     7
370
     0
100
AcDb2dPolyline
 66
     1
 10
0.0
 20
0.0
 30
0.0
  0
VERTEX
  5
A607
330
A606
100
AcDbEntity
  8
0
 62
     7
370
     0
100
AcDbVertex
100
AcDb2dVertex
 10
58855.6734375986
 20
-86.04630619531958
 30
0.0
  0
VERTEX
  5
A608
330
A606
100
AcDbEntity
  8
0
 62
     7
370
     0
100
AcDbVertex
100
AcDb2dVertex
 10
58855.6734375986
 20
-90950.94564845281
 30
0.0
  0
SEQEND
  5
A609
330
A606
100
AcDbEntity
  8
0
 62
     7
370
     0
  0
POLYLINE
  5
A60A
330
A543
100
AcDbEntity
  8
0
 62
     7
370
     0
100
AcDb2dPolyline
 66
     1
 10
0.0
 20
0.0
 30
0.0
  0
VERTEX
  5
A60B
330
A60A
100
AcDbEntity
  8
0
 62
     7
370
     0
100
AcDbVertex
100
AcDb2dVertex
 10
62899.84982877862
 20
-68234.72081288843
 30
0.0
  0
VERTEX
  5
A60C
330
A60A
100
AcDbEntity
  8
0
 62
     7
370
     0
100
AcDbVertex
100
AcDb2dVertex
 10
62899.84982877862
 20
-72623.08242884974
 30
0.0
  0
SEQEND
  5
A60D
330
A60A
100
AcDbEntity
  8
0
 62
     7
370
     0
  0
POLYLINE
  5
A60E
330
A543
100
AcDbEntity
  8
0
 62
     7
370
     0
100
AcDb2dPolyline
 66
     1
 10
0.0
 20
0.0
 30
0.0
  0
VERTEX
  5
A60F
330
A60E
100
AcDbEntity
  8
0
 62
     7
370
     0
100
AcDbVertex
100
AcDb2dVertex
 10
78474.23125013147
 20
-86.04630619531958
 30
0.0
  0
VERTEX
  5
A610
330
A60E
100
AcDbEntity
  8
0
 62
     7
370
     0
100
AcDbVertex
100
AcDb2dVertex
 10
78474.23125013147
 20
-90950.94564845281
 30
0.0
  0
SEQEND
  5
A611
330
A60E
100
AcDbEntity
  8
0
 62
     7
370
     0
  0
POLYLINE
  5
A612
330
A543
100
AcDbEntity
  8
0
 62
     7
370
     0
100
AcDb2dPolyline
 66
     1
 10
0.0
 20
0.0
 30
0.0
  0
VERTEX
  5
A613
330
A612
100
AcDbEntity
  8
0
 62
     7
370
     0
100
AcDbVertex
100
AcDb2dVertex
 10
86.04630619531958
 20
0.0
 30
0.0
  0
VERTEX
  5
A614
330
A612
100
AcDbEntity
  8
0
 62
     7
370
     0
100
AcDbVertex
100
AcDb2dVertex
 10
78560.2775563268
 20
0.0
 30
0.0
  0
SEQEND
  5
A615
330
A612
100
AcDbEntity
  8
0
 62
     7
370
     0
  0
POLYLINE
  5
A616
330
A543
100
AcDbEntity
  8
0
 62
     7
370
     0
100
AcDb2dPolyline
 66
     1
 10
0.0
 20
0.0
 30
0.0
  0
VERTEX
  5
A617
330
A616
100
AcDbEntity
  8
0
 62
     7
370
     0
100
AcDbVertex
100
AcDb2dVertex
 10
62985.89613497393
 20
-1462.787205320433
 30
0.0
  0
VERTEX
  5
A618
330
A616
100
AcDbEntity
  8
0
 62
     7
370
     0
100
AcDbVertex
100
AcDb2dVertex
 10
78560.2775563268
 20
-1462.787205320433
 30
0.0
  0
SEQEND
  5
A619
330
A616
100
AcDbEntity
  8
0
 62
     7
370
     0
  0
POLYLINE
  5
A61A
330
A543
100
AcDbEntity
  8
0
 62
     7
370
     0
100
AcDb2dPolyline
 66
     1
 10
0.0
 20
0.0
 30
0.0
  0
VERTEX
  5
A61B
330
A61A
100
AcDbEntity
  8
0
 62
     7
370
     0
100
AcDbVertex
100
AcDb2dVertex
 10
86.04630619531958
 20
-4388.361615961299
 30
0.0
  0
VERTEX
  5
A61C
330
A61A
100
AcDbEntity
  8
0
 62
     7
370
     0
100
AcDbVertex
100
AcDb2dVertex
 10
78560.2775563268
 20
-4388.361615961299
 30
0.0
  0
SEQEND
  5
A61D
330
A61A
100
AcDbEntity
  8
0
 62
     7
370
     0
  0
POLYLINE
  5
A61E
330
A543
100
AcDbEntity
  8
0
 62
     7
370
     0
100
AcDb2dPolyline
 66
     1
 10
0.0
 20
0.0
 30
0.0
  0
VERTEX
  5
A61F
330
A61E
100
AcDbEntity
  8
0
 62
     7
370
     0
100
AcDbVertex
100
AcDb2dVertex
 10
86.04630619531958
 20
-22716.22483556437
 30
0.0
  0
VERTEX
  5
A620
330
A61E
100
AcDbEntity
  8
0
 62
     7
370
     0
100
AcDbVertex
100
AcDb2dVertex
 10
78560.2775563268
 20
-22716.22483556437
 30
0.0
  0
SEQEND
  5
A621
330
A61E
100
AcDbEntity
  8
0
 62
     7
370
     0
  0
POLYLINE
  5
A622
330
A543
100
AcDbEntity
  8
0
 62
     7
370
     0
100
AcDb2dPolyline
 66
     1
 10
0.0
 20
0.0
 30
0.0
  0
VERTEX
  5
A623
330
A622
100
AcDbEntity
  8
0
 62
     7
370
     0
100
AcDbVertex
100
AcDb2dVertex
 10
62985.89613497393
 20
-24179.0120408848
 30
0.0
  0
VERTEX
  5
A624
330
A622
100
AcDbEntity
  8
0
 62
     7
370
     0
100
AcDbVertex
100
AcDb2dVertex
 10
78560.2775563268
 20
-24179.0120408848
 30
0.0
  0
SEQEND
  5
A625
330
A622
100
AcDbEntity
  8
0
 62
     7
370
     0
  0
POLYLINE
  5
A626
330
A543
100
AcDbEntity
  8
0
 62
     7
370
     0
100
AcDb2dPolyline
 66
     1
 10
0.0
 20
0.0
 30
0.0
  0
VERTEX
  5
A627
330
A626
100
AcDbEntity
  8
0
 62
     7
370
     0
100
AcDbVertex
100
AcDb2dVertex
 10
86.04630619531958
 20
-27104.58645152567
 30
0.0
  0
VERTEX
  5
A628
330
A626
100
AcDbEntity
  8
0
 62
     7
370
     0
100
AcDbVertex
100
AcDb2dVertex
 10
78560.2775563268
 20
-27104.58645152567
 30
0.0
  0
SEQEND
  5
A629
330
A626
100
AcDbEntity
  8
0
 62
     7
370
     0
  0
POLYLINE
  5
A62A
330
A543
100
AcDbEntity
  8
0
 62
     7
370
     0
100
AcDb2dPolyline
 66
     1
 10
0.0
 20
0.0
 30
0.0
  0
VERTEX
  5
A62B
330
A62A
100
AcDbEntity
  8
0
 62
     7
370
     0
100
AcDbVertex
100
AcDb2dVertex
 10
86.04630619531958
 20
-45432.44967112874
 30
0.0
  0
VERTEX
  5
A62C
330
A62A
100
AcDbEntity
  8
0
 62
     7
370
     0
100
AcDbVertex
100
AcDb2dVertex
 10
78560.2775563268
 20
-45432.44967112874
 30
0.0
  0
SEQEND
  5
A62D
330
A62A
100
AcDbEntity
  8
0
 62
     7
370
     0
  0
POLYLINE
  5
A62E
330
A543
100
AcDbEntity
  8
0
 62
     7
370
     0
100
AcDb2dPolyline
 66
     1
 10
0.0
 20
0.0
 30
0.0
  0
VERTEX
  5
A62F
330
A62E
100
AcDbEntity
  8
0
 62
     7
370
     0
100
AcDbVertex
100
AcDb2dVertex
 10
62985.89613497393
 20
-46895.23687644918
 30
0.0
  0
VERTEX
  5
A630
330
A62E
100
AcDbEntity
  8
0
 62
     7
370
     0
100
AcDbVertex
100
AcDb2dVertex
 10
78560.2775563268
 20
-46895.23687644918
 30
0.0
  0
SEQEND
  5
A631
330
A62E
100
AcDbEntity
  8
0
 62
     7
370
     0
  0
POLYLINE
  5
A632
330
A543
100
AcDbEntity
  8
0
 62
     7
370
     0
100
AcDb2dPolyline
 66
     1
 10
0.0
 20
0.0
 30
0.0
  0
VERTEX
  5
A633
330
A632
100
AcDbEntity
  8
0
 62
     7
370
     0
100
AcDbVertex
100
AcDb2dVertex
 10
86.04630619531958
 20
-49820.81128709004
 30
0.0
  0
VERTEX
  5
A634
330
A632
100
AcDbEntity
  8
0
 62
     7
370
     0
100
AcDbVertex
100
AcDb2dVertex
 10
78560.2775563268
 20
-49820.81128709004
 30
0.0
  0
SEQEND
  5
A635
330
A632
100
AcDbEntity
  8
0
 62
     7
370
     0
  0
POLYLINE
  5
A636
330
A543
100
AcDbEntity
  8
0
 62
     7
370
     0
100
AcDb2dPolyline
 66
     1
 10
0.0
 20
0.0
 30
0.0
  0
VERTEX
  5
A637
330
A636
100
AcDbEntity
  8
0
 62
     7
370
     0
100
AcDbVertex
100
AcDb2dVertex
 10
86.04630619531958
 20
-68148.67450669312
 30
0.0
  0
VERTEX
  5
A638
330
A636
100
AcDbEntity
  8
0
 62
     7
370
     0
100
AcDbVertex
100
AcDb2dVertex
 10
78560.2775563268
 20
-68148.67450669312
 30
0.0
  0
SEQEND
  5
A639
330
A636
100
AcDbEntity
  8
0
 62
     7
370
     0
  0
POLYLINE
  5
A63A
330
A543
100
AcDbEntity
  8
0
 62
     7
370
     0
100
AcDb2dPolyline
 66
     1
 10
0.0
 20
0.0
 30
0.0
  0
VERTEX
  5
A63B
330
A63A
100
AcDbEntity
  8
0
 62
     7
370
     0
100
AcDbVertex
100
AcDb2dVertex
 10
62985.89613497393
 20
-69611.46171201355
 30
0.0
  0
VERTEX
  5
A63C
330
A63A
100
AcDbEntity
  8
0
 62
     7
370
     0
100
AcDbVertex
100
AcDb2dVertex
 10
78560.2775563268
 20
-69611.46171201355
 30
0.0
  0
SEQEND
  5
A63D
330
A63A
100
AcDbEntity
  8
0
 62
     7
370
     0
  0
POLYLINE
  5
A63E
330
A543
100
AcDbEntity
  8
0
 62
     7
370
     0
100
AcDb2dPolyline
 66
     1
 10
0.0
 20
0.0
 30
0.0
  0
VERTEX
  5
A63F
330
A63E
100
AcDbEntity
  8
0
 62
     7
370
     0
100
AcDbVertex
100
AcDb2dVertex
 10
86.04630619531958
 20
-72537.03612265442
 30
0.0
  0
VERTEX
  5
A640
330
A63E
100
AcDbEntity
  8
0
 62
     7
370
     0
100
AcDbVertex
100
AcDb2dVertex
 10
78560.2775563268
 20
-72537.03612265442
 30
0.0
  0
SEQEND
  5
A641
330
A63E
100
AcDbEntity
  8
0
 62
     7
370
     0
  0
POLYLINE
  5
A642
330
A543
100
AcDbEntity
  8
0
 62
     7
370
     0
100
AcDb2dPolyline
 66
     1
 10
0.0
 20
0.0
 30
0.0
  0
VERTEX
  5
A643
330
A642
100
AcDbEntity
  8
0
 62
     7
370
     0
100
AcDbVertex
100
AcDb2dVertex
 10
86.04630619531958
 20
-90864.89934225749
 30
0.0
  0
VERTEX
  5
A644
330
A642
100
AcDbEntity
  8
0
 62
     7
370
     0
100
AcDbVertex
100
AcDb2dVertex
 10
78560.2775563268
 20
-90864.89934225749
 30
0.0
  0
SEQEND
  5
A645
330
A642
100
AcDbEntity
  8
0
 62
     7
370
     0
  0
ENDBLK
  5
A646
330
A543
100
AcDbEntity
  8
0
 62
     7
370
     0
100
AcDbBlockEnd
  0
BLOCK
  5
1384F
330
1384E
100
AcDbEntity
  8
0
 62
     7
100
AcDbBlockBegin
  2
_Open
 70
     0
 10
0.0
 20
0.0
 30
0.0
  3
_Open
  1

  0
LINE
  5
13850
330
1384E
100
AcDbEntity
  8
0
  6
ByBlock
 62
     0
370
    -2
100
AcDbLine
 10
-1.0
 20
0.1666666666666666
 30
0.0
 11
0.0
 21
0.0
 31
0.0
  0
LINE
  5
13851
330
1384E
100
AcDbEntity
  8
0
  6
ByBlock
 62
     0
370
    -2
100
AcDbLine
 10
-1.0
 20
-0.1666666666666666
 30
0.0
 11
0.0
 21
0.0
 31
0.0
  0
LINE
  5
13852
330
1384E
100
AcDbEntity
  8
0
  6
ByBlock
 62
     0
370
    -2
100
AcDbLine
 10
0.0
 20
0.0
 30
0.0
 11
-1.0
 21
0.0
 31
0.0
  0
ENDBLK
  5
13853
330
1384E
100
AcDbEntity
  8
0
 62
     7
100
AcDbBlockEnd
  0
ENDSEC
  0
SECTION
  2
ENTITIES
  0
TEXT
  5
12DBC
330
1F07
100
AcDbEntity
  8
0
 62
     7
100
AcDbText
 10
16089.88764538276
 20
-84718.75555521336
 30
0.0
 40
299.9999962094055
  1
 
  7
WMF-ＭＳ Ｐゴシック0
100
AcDbText
  0
TEXT
  5
12DD6
330
1F07
100
AcDbEntity
  8
0
 62
     7
100
AcDbText
 10
9512.964682634171
 20
-84718.75552897397
 30
0.0
 40
299.9999947731441
  1
 
  7
WMF-ＭＳ Ｐゴシック0
100
AcDbText
  0
TEXT
  5
12DD7
330
1F07
100
AcDbEntity
  8
0
 62
     7
100
AcDbText
 10
9383.157008038056
 20
-84790.87090571148
 30
0.0
 40
299.9999983045655
  1
 
  7
WMF-ＭＳ Ｐゴシック0
100
AcDbText
  0
TEXT
  5
12DD8
330
1F07
100
AcDbEntity
  8
0
 62
     7
100
AcDbText
 10
9383.157008038084
 20
-84764.08519157715
 30
0.0
 40
299.9999983045655
  1
 
  7
WMF-ＭＳ Ｐゴシック0
100
AcDbText
  0
TEXT
  5
12DD9
330
1F07
100
AcDbEntity
  8
0
 62
     7
100
AcDbText
 10
9473.623766979121
 20
-84615.63472105932
 30
0.0
 40
278.5714109022594
  1
 
  7
WMF-ＭＳ Ｐゴシック0
100
AcDbText
  0
TEXT
  5
12DDA
330
1F07
100
AcDbEntity
  8
0
 62
     7
100
AcDbText
 10
22666.81060771709
 20
-84718.75555521336
 30
0.0
 40
299.9999962094055
  1
 
  7
WMF-ＭＳ Ｐゴシック0
100
AcDbText
  0
TEXT
  5
12DF6
330
1F07
100
AcDbEntity
  8
0
 62
     7
100
AcDbText
 10
29243.73357005139
 20
-84718.75555521336
 30
0.0
 40
299.9999962094055
  1
 
  7
WMF-ＭＳ Ｐゴシック0
100
AcDbText
  0
TEXT
  5
12DF8
330
1F07
100
AcDbEntity
  8
0
 62
     7
100
AcDbText
 10
42397.57949430572
 20
-84718.75552897397
 30
0.0
 40
299.9999947731441
  1
 
  7
WMF-ＭＳ Ｐゴシック0
100
AcDbText
  0
TEXT
  5
12E05
330
1F07
100
AcDbEntity
  8
0
 62
     7
100
AcDbText
 10
22666.8106073028
 20
-78170.67871998322
 30
0.0
 40
299.9999947731441
  1
LEDｶﾞｰﾃﾞﾝｽﾎﾟｯﾄﾗｲﾄ
  7
WMF-ＭＳ Ｐゴシック0
100
AcDbText
  0
TEXT
  5
12E06
330
1F07
100
AcDbEntity
  8
0
 62
     7
100
AcDbText
 10
22666.8106073028
 20
-78661.06332682394
 30
0.0
 40
299.9999947731441
  1
BODL-30020 GW-40
  7
WMF-ＭＳ Ｐゴシック0
100
AcDbText
  0
TEXT
  5
12F7B
330
1F07
100
AcDbEntity
  8
0
 62
     7
100
AcDbText
 10
9512.964682634171
 20
-84718.75552897397
 30
0.0
 40
299.9999947731441
  1
 
  7
WMF-ＭＳ Ｐゴシック0
100
AcDbText
  0
TEXT
  5
12F7C
330
1F07
100
AcDbEntity
  8
0
 62
     7
100
AcDbText
 10
9473.623766979121
 20
-84615.63472105932
 30
0.0
 40
278.5714109022594
  1
 
  7
WMF-ＭＳ Ｐゴシック0
100
AcDbText
  0
TEXT
  5
12F7D
330
1F07
100
AcDbEntity
  8
0
 62
     7
100
AcDbText
 10
9512.964682634171
 20
-84718.75552897397
 30
0.0
 40
299.9999947731441
  1
 
  7
WMF-ＭＳ Ｐゴシック0
100
AcDbText
  0
TEXT
  5
12F7E
330
1F07
100
AcDbEntity
  8
0
 62
     7
100
AcDbText
 10
9512.964682634171
 20
-84718.75552897397
 30
0.0
 40
299.9999947731441
  1
 
  7
WMF-ＭＳ Ｐゴシック0
100
AcDbText
  0
TEXT
  5
12F8B
330
1F07
100
AcDbEntity
  8
0
 62
     7
100
AcDbText
 10
2936.041720299844
 20
-84718.75552897397
 30
0.0
 40
299.9999947731441
  1
 
  7
WMF-ＭＳ Ｐゴシック0
100
AcDbText
  0
TEXT
  5
12F8F
330
1F07
100
AcDbEntity
  8
0
 62
     7
100
AcDbText
 10
9512.964682634171
 20
-84718.75552897397
 30
0.0
 40
299.9999947731441
  1
 
  7
WMF-ＭＳ Ｐゴシック0
100
AcDbText
  0
LINE
  5
137C3
330
1F07
100
AcDbEntity
  8
器具
100
AcDbLine
 10
24803.69880901658
 20
-84217.52938622507
 30
0.0
 11
25064.63602701957
 21
-83052.92827118037
 31
0.0
  0
LINE
  5
137C4
330
1F07
100
AcDbEntity
  8
器具
100
AcDbLine
 10
24803.69880901658
 20
-83123.69395366578
 30
0.0
 11
24803.69880901658
 21
-84217.52938622507
 31
0.0
  0
LINE
  5
137C5
330
1F07
100
AcDbEntity
  8
器具
100
AcDbLine
 10
24684.82802189567
 20
-83154.21862483796
 30
0.0
 11
24657.81199727447
 21
-83154.18842733436
 31
0.0
  0
LINE
  5
137C6
330
1F07
100
AcDbEntity
  8
器具
100
AcDbLine
 10
24798.19201981753
 20
-83123.11282533894
 30
0.0
 11
24684.82802189567
 21
-83154.21862483796
 31
0.0
  0
LINE
  5
137C7
330
1F07
100
AcDbEntity
  8
器具
100
AcDbLine
 10
25093.82751216201
 20
-83044.23740090429
 30
0.0
 11
24798.19201981753
 21
-83123.11282533894
 31
0.0
  0
LINE
  5
137C8
330
1F07
100
AcDbEntity
  8
器具
100
AcDbLine
 10
25114.94435400518
 20
-83033.12819192907
 30
0.0
 11
25093.82751216201
 21
-83044.23740090429
 31
0.0
  0
LINE
  5
137C9
330
1F07
100
AcDbEntity
  8
器具
100
AcDbLine
 10
25141.6182401848
 20
-83016.46436649258
 30
0.0
 11
25114.94435400518
 21
-83033.12819192907
 31
0.0
  0
LINE
  5
137CA
330
1F07
100
AcDbEntity
  8
器具
100
AcDbLine
 10
25166.0693086298
 20
-82985.35856699349
 30
0.0
 11
25141.6182401848
 21
-83016.46436649258
 31
0.0
  0
LINE
  5
137CB
330
1F07
100
AcDbEntity
  8
器具
100
AcDbLine
 10
25168.29212636431
 20
-82960.91829766904
 30
0.0
 11
25166.0693086298
 21
-82985.35856699349
 31
0.0
  0
LINE
  5
137CC
330
1F07
100
AcDbEntity
  8
器具
100
AcDbLine
 10
25066.04225379772
 20
-83042.01557347761
 30
0.0
 11
24760.40400828275
 21
-83117.55823282496
 31
0.0
  0
LINE
  5
137CD
330
1F07
100
AcDbEntity
  8
器具
100
AcDbLine
 10
25106.05304638451
 20
-83029.7954268418
 30
0.0
 11
25066.04225379772
 21
-83042.01557347761
 31
0.0
  0
LINE
  5
137CE
330
1F07
100
AcDbEntity
  8
器具
100
AcDbLine
 10
25137.17260471568
 20
-83005.35515751729
 30
0.0
 11
25106.05304638451
 21
-83029.7954268418
 31
0.0
  0
LINE
  5
137CF
330
1F07
100
AcDbEntity
  8
器具
100
AcDbLine
 10
25149.39810225557
 20
-82992.0240971681
 30
0.0
 11
25137.17260471568
 21
-83005.35515751729
 31
0.0
  0
LINE
  5
137D0
330
1F07
100
AcDbEntity
  8
器具
100
AcDbLine
 10
25168.29212636431
 20
-82960.91829766904
 30
0.0
 11
25149.39810225557
 21
-82992.0240971681
 31
0.0
  0
LINE
  5
137D1
330
1F07
100
AcDbEntity
  8
器具
100
AcDbLine
 10
25169.40353523158
 20
-82944.25449617982
 30
0.0
 11
25168.29212636431
 21
-82960.91829766904
 31
0.0
  0
LINE
  5
137D2
330
1F07
100
AcDbEntity
  8
器具
100
AcDbLine
 10
25167.18071749708
 20
-82925.36881936934
 30
0.0
 11
25169.40353523158
 21
-82944.25449617982
 31
0.0
  0
LINE
  5
137D3
330
1F07
100
AcDbEntity
  8
器具
100
AcDbLine
 10
25157.17800100908
 20
-82898.7066986709
 30
0.0
 11
25167.18071749708
 21
-82925.36881936934
 31
0.0
  0
LINE
  5
137D4
330
1F07
100
AcDbEntity
  8
器具
100
AcDbLine
 10
25129.39270596229
 20
-82869.8227505458
 30
0.0
 11
25157.17800100908
 21
-82898.7066986709
 31
0.0
  0
LINE
  5
137D5
330
1F07
100
AcDbEntity
  8
器具
100
AcDbLine
 10
25053.81671957522
 20
-82837.60603733345
 30
0.0
 11
25129.39270596229
 21
-82869.8227505458
 31
0.0
  0
LINE
  5
137D6
330
1F07
100
AcDbEntity
  8
器具
100
AcDbLine
 10
24976.01787877114
 20
-82822.05312561025
 30
0.0
 11
25053.81671957522
 21
-82837.60603733345
 31
0.0
  0
LINE
  5
137D7
330
1F07
100
AcDbEntity
  8
器具
100
AcDbLine
 10
24898.21907464957
 20
-82819.8312981836
 30
0.0
 11
24976.01787877114
 21
-82822.05312561025
 31
0.0
  0
LINE
  5
137D8
330
1F07
100
AcDbEntity
  8
器具
100
AcDbLine
 10
24853.76260991111
 20
-82824.27497698419
 30
0.0
 11
24898.21907464957
 21
-82819.8312981836
 31
0.0
  0
LINE
  5
137D9
330
1F07
100
AcDbEntity
  8
器具
100
AcDbLine
 10
24818.19741611098
 20
-82833.16233458554
 30
0.0
 11
24853.76260991111
 21
-82824.27497698419
 31
0.0
  0
LINE
  5
137DA
330
1F07
100
AcDbEntity
  8
器具
100
AcDbLine
 10
24313.86961629693
 20
-83029.71252140361
 30
0.0
 11
24321.16812952777
 21
-81346.16838442589
 31
0.0
  0
LINE
  5
137DB
330
1F07
100
AcDbEntity
  8
器具
100
AcDbLine
 10
24346.48483354107
 20
-83097.87788990833
 30
0.0
 11
24313.86961629693
 21
-83029.71252140361
 31
0.0
  0
LINE
  5
137DC
330
1F07
100
AcDbEntity
  8
器具
100
AcDbLine
 10
24379.10008746782
 20
-83118.62388620376
 30
0.0
 11
24346.48483354107
 21
-83097.87788990833
 31
0.0
  0
LINE
  5
137DD
330
1F07
100
AcDbEntity
  8
器具
100
AcDbLine
 10
24444.33052195615
 20
-83145.29728606487
 30
0.0
 11
24379.10008746782
 21
-83118.62388620376
 31
0.0
  0
LINE
  5
137DE
330
1F07
100
AcDbEntity
  8
器具
100
AcDbLine
 10
24533.28112444459
 20
-83160.11585484735
 30
0.0
 11
24444.33052195615
 21
-83145.29728606487
 31
0.0
  0
LINE
  5
137DF
330
1F07
100
AcDbEntity
  8
器具
100
AcDbLine
 10
24598.51155893293
 20
-83160.11585484735
 30
0.0
 11
24533.28112444459
 21
-83160.11585484735
 31
0.0
  0
LINE
  5
137E0
330
1F07
100
AcDbEntity
  8
器具
100
AcDbLine
 10
24657.81199727447
 20
-83154.18842733436
 30
0.0
 11
24598.51155893293
 21
-83160.11585484735
 31
0.0
  0
LINE
  5
137E1
330
1F07
100
AcDbEntity
  8
器具
100
AcDbLine
 10
24702.28728017742
 20
-83142.3335723084
 30
0.0
 11
24657.81199727447
 21
-83154.18842733436
 31
0.0
  0
LINE
  5
137E2
330
1F07
100
AcDbEntity
  8
器具
100
AcDbLine
 10
24749.7276161776
 20
-83127.51502747325
 30
0.0
 11
24702.28728017742
 21
-83142.3335723084
 31
0.0
  0
LINE
  5
137E3
330
1F07
100
AcDbEntity
  8
器具
100
AcDbLine
 10
24779.37781700706
 20
-83097.87788990833
 30
0.0
 11
24749.7276161776
 21
-83127.51502747325
 31
0.0
  0
LINE
  5
137E4
330
1F07
100
AcDbEntity
  8
器具
100
AcDbLine
 10
24806.0630014219
 20
-83068.24077629073
 30
0.0
 11
24779.37781700706
 21
-83097.87788990833
 31
0.0
  0
LINE
  5
137E5
330
1F07
100
AcDbEntity
  8
器具
100
AcDbLine
 10
24817.92306708066
 20
-83041.56735248231
 30
0.0
 11
24806.0630014219
 21
-83068.24077629073
 31
0.0
  0
LINE
  5
137E6
330
1F07
100
AcDbEntity
  8
器具
100
AcDbLine
 10
24819.45141017417
 20
-81375.27597607693
 30
0.0
 11
24817.92306708066
 21
-83041.56735248231
 31
0.0
  0
LINE
  5
137E7
330
1F07
100
AcDbEntity
  8
器具
100
AcDbLine
 10
24795.99326585681
 20
-81313.01803911732
 30
0.0
 11
24777.2464968434
 21
-81295.84106860306
 31
0.0
  0
LINE
  5
137E8
330
1F07
100
AcDbEntity
  8
器具
100
AcDbLine
 10
24814.59801112441
 20
-81351.01964570988
 30
0.0
 11
24795.99326585681
 21
-81313.01803911732
 31
0.0
  0
LINE
  5
137E9
330
1F07
100
AcDbEntity
  8
器具
100
AcDbLine
 10
24819.45141017417
 20
-81375.27597607693
 30
0.0
 11
24814.59801112441
 21
-81351.01964570988
 31
0.0
  0
LINE
  5
137EA
330
1F07
100
AcDbEntity
  8
器具
100
AcDbLine
 10
24817.02471064926
 20
-81400.34086196497
 30
0.0
 11
24819.45141017417
 21
-81375.27597607693
 31
0.0
  0
LINE
  5
137EB
330
1F07
100
AcDbEntity
  8
器具
100
AcDbLine
 10
24807.31791254965
 20
-81427.02283494767
 30
0.0
 11
24817.02471064926
 21
-81400.34086196497
 31
0.0
  0
LINE
  5
137EC
330
1F07
100
AcDbEntity
  8
器具
100
AcDbLine
 10
24753.9304129543
 20
-81467.45006020857
 30
0.0
 11
24807.31791254965
 21
-81427.02283494767
 31
0.0
  0
LINE
  5
137ED
330
1F07
100
AcDbEntity
  8
器具
100
AcDbLine
 10
24682.74709238814
 20
-81493.3235016176
 30
0.0
 11
24753.9304129543
 21
-81467.45006020857
 31
0.0
  0
LINE
  5
137EE
330
1F07
100
AcDbEntity
  8
器具
100
AcDbLine
 10
24602.66582465378
 20
-81505.45166680114
 30
0.0
 11
24682.74709238814
 21
-81493.3235016176
 31
0.0
  0
LINE
  5
137EF
330
1F07
100
AcDbEntity
  8
器具
100
AcDbLine
 10
24545.23381362276
 20
-81503.83457970646
 30
0.0
 11
24602.66582465378
 21
-81505.45166680114
 31
0.0
  0
LINE
  5
137F0
330
1F07
100
AcDbEntity
  8
器具
100
AcDbLine
 10
24492.65523832416
 20
-81494.13203319131
 30
0.0
 11
24545.23381362276
 21
-81503.83457970646
 31
0.0
  0
LINE
  5
137F1
330
1F07
100
AcDbEntity
  8
器具
100
AcDbLine
 10
24421.47191775784
 20
-81475.53551962909
 30
0.0
 11
24492.65523832416
 21
-81494.13203319131
 31
0.0
  0
LINE
  5
137F2
330
1F07
100
AcDbEntity
  8
器具
100
AcDbLine
 10
24367.27549386585
 20
-81449.66207822013
 30
0.0
 11
24421.47191775784
 21
-81475.53551962909
 31
0.0
  0
LINE
  5
137F3
330
1F07
100
AcDbEntity
  8
器具
100
AcDbLine
 10
24338.15506288449
 20
-81422.17157366372
 30
0.0
 11
24367.27549386585
 21
-81449.66207822013
 31
0.0
  0
LINE
  5
137F4
330
1F07
100
AcDbEntity
  8
器具
100
AcDbLine
 10
24321.16812952777
 20
-81382.55287997656
 30
0.0
 11
24338.15506288449
 21
-81422.17157366372
 31
0.0
  0
LINE
  5
137F5
330
1F07
100
AcDbEntity
  8
器具
100
AcDbLine
 10
24321.16812952777
 20
-81346.16838442589
 30
0.0
 11
24321.16812952777
 21
-81382.55287997656
 31
0.0
  0
LINE
  5
137F6
330
1F07
100
AcDbEntity
  8
器具
100
AcDbLine
 10
24341.39065002353
 20
-81305.74113521772
 30
0.0
 11
24321.16812952777
 21
-81346.16838442589
 31
0.0
  0
LINE
  5
137F7
330
1F07
100
AcDbEntity
  8
器具
100
AcDbLine
 10
24381.02684008359
 20
-81272.5908138564
 30
0.0
 11
24341.39065002353
 21
-81305.74113521772
 31
0.0
  0
LINE
  5
137F8
330
1F07
100
AcDbEntity
  8
器具
100
AcDbLine
 10
24418.23629393635
 20
-81253.18574477327
 30
0.0
 11
24381.02684008359
 21
-81272.5908138564
 31
0.0
  0
LINE
  5
137F9
330
1F07
100
AcDbEntity
  8
器具
100
AcDbLine
 10
24438.07867232745
 20
-81249.10234905776
 30
0.0
 11
24418.23629393635
 21
-81253.18574477327
 31
0.0
  0
SPLINE
  5
137FA
330
1F07
100
AcDbEntity
  8
器具
100
AcDbSpline
210
0.0
220
0.0
230
1.0
 70
     8
 71
     3
 72
    15
 73
    11
 74
     9
 42
0.0000000001
 43
0.0000000001
 44
0.0000000001
 40
0.0
 40
0.0
 40
0.0
 40
0.0
 40
31.48905738798458
 40
68.16138698410624
 40
132.4779638229836
 40
178.6331924872948
 40
220.2215443482426
 40
295.0812569291362
 40
322.0985041312039
 40
339.2758987910678
 40
339.2758987910678
 40
339.2758987910678
 40
339.2758987910678
 10
24816.86870594783
 20
-81056.55713557357
 30
0.0
 10
24815.06150504935
 20
-81066.89481124789
 30
0.0
 10
24811.149628035
 20
-81089.27180092624
 30
0.0
 10
24790.65765796598
 20
-81130.25786923953
 30
0.0
 10
24745.86189698966
 20
-81154.07223264829
 30
0.0
 10
24711.91025425724
 20
-81193.75967937106
 30
0.0
 10
24698.53902358298
 20
-81247.1398094769
 30
0.0
 10
24680.61914320603
 20
-81290.7993609525
 30
0.0
 10
24648.02961762663
 20
-81320.75639388988
 30
0.0
 10
24632.98987851743
 20
-81317.41870626804
 30
0.0
 10
24627.14429354657
 20
-81316.121427342
 30
0.0
 11
24816.86870594783
 21
-81056.55713557357
 31
0.0
 11
24810.03179098524
 21
-81087.29501658347
 31
0.0
 11
24792.93948881727
 21
-81119.7405550226
 31
0.0
 11
24743.3718774578
 21
-81160.72438061744
 31
0.0
 11
24714.3149814793
 21
-81196.58524966922
 31
0.0
 11
24700.64115155142
 21
-81235.86141783279
 31
0.0
 11
24666.45657672771
 21
-81302.46015214371
 31
0.0
 11
24644.23659571452
 21
-81317.8290847726
 31
0.0
 11
24627.14429354657
 21
-81316.121427342
 31
0.0
  0
SPLINE
  5
137FB
330
1F07
100
AcDbEntity
  8
器具
100
AcDbSpline
210
0.0
220
0.0
230
1.0
 70
     8
 71
     3
 72
    11
 73
     7
 74
     5
 42
0.0000000001
 43
0.0000000001
 44
0.0000000001
 40
0.0
 40
0.0
 40
0.0
 40
0.0
 40
36.95278047682412
 40
71.32509564545006
 40
102.7242114208372
 40
145.4157101970801
 40
145.4157101970801
 40
145.4157101970801
 40
145.4157101970801
 10
24348.30432657853
 20
-81183.11258714754
 30
0.0
 10
24341.08659874991
 20
-81173.06658259893
 30
0.0
 10
24327.1551673102
 20
-81153.67610031212
 30
0.0
 10
24313.2206722696
 20
-81122.53076811908
 30
0.0
 10
24296.05115708227
 20
-81089.69085281957
 30
0.0
 10
24298.83934794011
 20
-81064.45575033646
 30
0.0
 10
24300.44592182691
 20
-81049.9151185264
 30
0.0
 11
24348.30432657853
 21
-81183.11258714754
 31
0.0
 11
24327.79358168537
 21
-81152.374706139
 31
0.0
 11
24312.41051563477
 21
-81121.63682512983
 31
0.0
 11
24300.44592182691
 21
-81092.60661730266
 31
0.0
 11
24300.44592182691
 21
-81049.9151185264
 31
0.0
  0
SPLINE
  5
137FC
330
1F07
100
AcDbEntity
  8
器具
100
AcDbSpline
210
0.0
220
0.0
230
1.0
 70
     8
 71
     3
 72
    10
 73
     6
 74
     0
 42
0.0000000001
 43
0.0000000001
 40
0.3130521134878434
 40
0.3130521134878434
 40
0.3130521134878434
 40
0.3130521134878434
 40
0.8600356954146823
 40
1.58343926116478
 40
2.75973310524874
 40
2.75973310524874
 40
2.75973310524874
 40
2.75973310524874
 10
24468.58390303921
 20
-81085.09561451898
 30
0.0
 10
24469.06155413371
 20
-81091.64631927122
 30
0.0
 10
24470.8323323629
 20
-81106.76881523602
 30
0.0
 10
24482.37064406691
 20
-81134.76651567053
 30
0.0
 10
24500.91045347186
 20
-81148.80502470859
 30
0.0
 10
24512.39031524143
 20
-81157.49767843151
 30
0.0
  0
SPLINE
  5
137FD
330
1F07
100
AcDbEntity
  8
器具
100
AcDbSpline
210
0.0
220
0.0
230
1.0
 70
     8
 71
     3
 72
    21
 73
    17
 74
    15
 42
0.0000000001
 43
0.0000000001
 44
0.0000000001
 40
0.0
 40
0.0
 40
0.0
 40
0.0
 40
24.13015093216444
 40
40.97832720320707
 40
55.51117919847651
 40
75.55457212225046
 40
88.89843577165706
 40
101.9310890738291
 40
115.0045579644479
 40
132.6688189694518
 40
145.1591195879184
 40
160.4311525972506
 40
185.0174721410779
 40
203.4024971331323
 40
228.146930576128
 40
243.5895961826481
 40
243.5895961826481
 40
243.5895961826481
 40
243.5895961826481
 10
24816.86870594786
 20
-80738.93239664993
 30
0.0
 10
24817.47384636516
 20
-80730.80701339378
 30
0.0
 10
24818.50150848355
 20
-80717.00831753574
 30
0.0
 10
24827.0888713695
 20
-80700.36601363044
 30
0.0
 10
24835.86587025864
 20
-80685.59778544937
 30
0.0
 10
24846.56121608355
 20
-80673.81334189015
 30
0.0
 10
24857.47505259643
 20
-80662.28823010135
 30
0.0
 10
24870.61561897042
 20
-80658.93588970908
 30
0.0
 10
24885.01124096244
 20
-80656.93947631878
 30
0.0
 10
24899.43912711855
 20
-80657.15865176382
 30
0.0
 10
24914.71817087
 20
-80658.46802478407
 30
0.0
 10
24930.23106809008
 20
-80667.50059733562
 30
0.0
 10
24943.80258351094
 20
-80681.1459045897
 30
0.0
 10
24960.09094493167
 20
-80697.62406619226
 30
0.0
 10
24963.48034283219
 20
-80717.61797098073
 30
0.0
 10
24967.82505434152
 20
-80730.23412928353
 30
0.0
 10
24969.49459328766
 20
-80735.08213071972
 30
0.0
 11
24816.86870594786
 21
-80738.93239664993
 31
0.0
 11
24820.5258780358
 21
-80715.08099676799
 31
0.0
 11
24827.59160605071
 21
-80699.78601290793
 31
0.0
 11
24835.24611521383
 21
-80687.43237876295
 31
0.0
 11
24848.19992039213
 21
-80672.13739490224
 31
0.0
 11
24858.20967222871
 21
-80663.31336151245
 31
0.0
 11
24870.57466673869
 21
-80659.19547821364
 31
0.0
 11
24883.52847191169
 21
-80657.43067783571
 31
0.0
 11
24901.1927329167
 21
-80657.43067783571
 31
0.0
 11
24913.557727424
 21
-80659.19547821364
 31
0.0
 11
24927.10034326801
 21
-80666.25469547474
 31
0.0
 11
24945.35344445352
 21
-80682.72622867063
 31
0.0
 11
24957.1296282925
 21
-80696.84467894497
 31
0.0
 11
24964.78413745827
 21
-80720.37541365185
 31
0.0
 11
24969.49459328766
 21
-80735.08213071972
 31
0.0
  0
SPLINE
  5
137FE
330
1F07
100
AcDbEntity
  8
器具
100
AcDbSpline
210
0.0
220
0.0
230
1.0
 70
     8
 71
     3
 72
    19
 73
    15
 74
    13
 42
0.0000000001
 43
0.0000000001
 44
0.0000000001
 40
0.0
 40
0.0
 40
0.0
 40
0.0
 40
18.60214216724387
 40
49.83680983657675
 40
85.78730857864185
 40
111.6513758363566
 40
143.1807887511212
 40
163.73865414769
 40
186.7224977688375
 40
214.3471211011581
 40
238.8886905100981
 40
269.1163309725572
 40
292.7376700250347
 40
317.2012041716134
 40
317.2012041716134
 40
317.2012041716134
 40
317.2012041716134
 10
24958.12282389068
 20
-81010.80587454992
 30
0.0
 10
24958.04678492808
 20
-81017.04114581522
 30
0.0
 10
24957.84306971693
 20
-81033.74599762926
 30
0.0
 10
24947.93619747154
 20
-81060.88687859882
 30
0.0
 10
24940.94280110422
 20
-81091.37810235329
 30
0.0
 10
24924.13280835984
 20
-81117.84893957766
 30
0.0
 10
24908.9168285539
 20
-81139.08703838637
 30
0.0
 10
24889.674509823
 20
-81155.27467492766
 30
0.0
 10
24872.12520716685
 20
-81171.07483959847
 30
0.0
 10
24857.3357333761
 20
-81192.54053079208
 30
0.0
 10
24855.39424424931
 20
-81220.49351265689
 30
0.0
 10
24850.58615597313
 20
-81245.87098426921
 30
0.0
 10
24843.00502711407
 20
-81271.68849818588
 30
0.0
 10
24830.85728798216
 20
-81282.62803133866
 30
0.0
 10
24824.67703603833
 20
-81288.19359957304
 30
0.0
 11
24958.12282389068
 21
-81010.80587454992
 31
0.0
 11
24957.12124664511
 21
-81029.38103366719
 31
0.0
 11
24949.06633678253
 21
-81059.55921935684
 31
0.0
 11
24937.9908467822
 21
-81093.76114738811
 31
0.0
 11
24924.97692395382
 21
-81116.11260791597
 31
0.0
 11
24905.60865060296
 21
-81140.99179331574
 31
0.0
 11
24890.39073840705
 21
-81154.81355073153
 31
0.0
 11
24873.7893823293
 21
-81170.708582785
 31
0.0
 11
24859.26319207298
 21
-81194.2055955928
 31
0.0
 11
24855.11286043018
 21
-81218.39367894615
 31
0.0
 11
24849.57908490834
 21
-81248.1104684161
 31
0.0
 11
24841.27839211607
 21
-81270.22530863259
 31
0.0
 11
24824.67703603833
 21
-81288.19359957304
 31
0.0
  0
ELLIPSE
  5
137FF
330
1F07
100
AcDbEntity
  8
器具
100
AcDbEllipse
 10
24504.22704898545
 20
-81262.05252055555
 30
0.0
 11
66.32516414080015
 21
-12.15858737569294
 31
0.0
210
0.0
220
0.0
230
-1.0
 40
0.3954365912986052
 41
0.4666888995868687
 42
3.873321145786576
  0
SPLINE
  5
13800
330
1F07
100
AcDbEntity
  8
器具
100
AcDbSpline
210
0.0
220
0.0
230
1.0
 70
     8
 71
     3
 72
    14
 73
    10
 74
     8
 42
0.0000000001
 43
0.0000000001
 44
0.0000000001
 40
0.0
 40
0.0
 40
0.0
 40
0.0
 40
37.95101666317073
 40
77.4127165461031
 40
132.8700063402765
 40
184.6000600524656
 40
227.7726985864704
 40
261.3001785536586
 40
283.9027952774468
 40
283.9027952774468
 40
283.9027952774468
 40
283.9027952774468
 10
24437.59678110579
 20
-81367.41251436115
 30
0.0
 10
24447.81370713091
 20
-81374.92766153462
 30
0.0
 10
24468.65425549814
 20
-81390.25710483005
 30
0.0
 10
24511.02643885973
 20
-81405.91978358088
 30
0.0
 10
24560.13368253662
 20
-81406.31867024158
 30
0.0
 10
24610.87709465444
 20
-81408.69530459353
 30
0.0
 10
24651.54134803027
 20
-81396.42594506572
 30
0.0
 10
24685.71182723614
 20
-81389.23285658826
 30
0.0
 10
24697.2616299022
 20
-81373.8791628107
 30
0.0
 10
24701.91253517914
 20
-81367.69649653702
 30
0.0
 11
24437.59678110579
 21
-81367.41251436115
 31
0.0
 11
24469.17197819648
 21
-81388.46688669691
 31
0.0
 11
24506.18733607631
 21
-81402.14493621718
 31
0.0
 11
24561.45688711917
 21
-81406.70429130704
 31
0.0
 11
24613.17701745321
 21
-81405.6910907862
 31
0.0
 11
24655.26300585951
 21
-81396.06579609708
 31
0.0
 11
24686.70073213897
 21
-81384.41413186709
 31
0.0
 11
24701.91253517914
 21
-81367.69649653702
 31
0.0
  0
SPLINE
  5
13801
330
1F07
100
AcDbEntity
  8
器具
100
AcDbSpline
 70
     0
 71
     3
 72
     8
 73
     4
 74
     0
 42
0.0000000001
 43
0.0000000001
 40
0.0
 40
0.0
 40
0.0
 40
0.0
 40
0.2364919705947375
 40
0.2364919705947375
 40
0.2364919705947375
 40
0.2364919705947375
 10
24701.91253517914
 20
-81367.69649653702
 30
0.0
 10
24703.66063970891
 20
-81365.46486024666
 30
0.0
 10
24705.4087442388
 20
-81363.23322395764
 30
0.0
 10
24707.15684876587
 20
-81361.00158766796
 30
0.0
  0
SPLINE
  5
13802
330
1F07
100
AcDbEntity
  8
器具
100
AcDbSpline
210
0.0
220
0.0
230
1.0
 70
     8
 71
     3
 72
    10
 73
     6
 74
     0
 42
0.0000000001
 43
0.0000000001
 40
0.1173440344217935
 40
0.1173440344217935
 40
0.1173440344217935
 40
0.1173440344217935
 40
2.112344147919035
 40
3.776864906071691
 40
5.182479075873573
 40
5.182479075873573
 40
5.182479075873573
 40
5.182479075873573
 10
24482.02430892226
 20
-81082.70028588675
 30
0.0
 10
24503.44413177082
 20
-81093.24092633478
 30
0.0
 10
24542.75408070579
 20
-81112.56531146928
 30
0.0
 10
24598.01199740337
 20
-81138.81861590591
 30
0.0
 10
24634.30844610757
 20
-81145.38880546444
 30
0.0
 10
24651.03089394687
 20
-81148.04795836208
 30
0.0
  0
SPLINE
  5
13803
330
1F07
100
AcDbEntity
  8
器具
100
AcDbSpline
210
0.0
220
0.0
230
1.0
 70
     8
 71
     3
 72
    12
 73
     8
 74
     0
 42
0.0000000001
 43
0.0000000001
 40
0.0
 40
0.0
 40
0.0
 40
0.0
 40
1.514413948847701
 40
2.661488699554009
 40
4.035060966216514
 40
5.579194620125961
 40
6.006458861153994
 40
6.006458861153994
 40
6.006458861153994
 40
6.006458861153994
 10
25085.26549551349
 20
-80860.11266258719
 30
0.0
 10
25077.21228815152
 20
-80876.40091589154
 30
0.0
 10
25063.05927509457
 20
-80905.02651204007
 30
0.0
 10
25036.03393236728
 20
-80945.31310194554
 30
0.0
 10
25004.68397390666
 20
-80982.57099536004
 30
0.0
 10
24978.62208829031
 20
-81013.30204219509
 30
0.0
 10
24960.67722009548
 20
-81028.65237679582
 30
0.0
 10
24956.7250231292
 20
-81031.91200553624
 30
0.0
  0
SPLINE
  5
13804
330
1F07
100
AcDbEntity
  8
器具
100
AcDbSpline
210
0.0
220
0.0
230
1.0
 70
     8
 71
     3
 72
    16
 73
    12
 74
     0
 42
0.0000000001
 43
0.0000000001
 40
0.4491976626629266
 40
0.4491976626629266
 40
0.4491976626629266
 40
0.4491976626629266
 40
1.64844483254703
 40
3.422777163729845
 40
4.175566251412356
 40
4.736801213540386
 40
5.30508405851055
 40
5.813524762738438
 40
6.15536248057692
 40
6.891817359182198
 40
7.439384515920401
 40
7.439384515920401
 40
7.439384515920401
 40
7.439384515920401
 10
25012.25699116458
 20
-80973.53492530089
 30
0.0
 10
25014.22833715746
 20
-80987.81175035965
 30
0.0
 10
25018.76212865217
 20
-81023.18735336407
 30
0.0
 10
25020.40437705582
 20
-81067.24113868688
 30
0.0
 10
25021.21320113326
 20
-81105.52199387639
 30
0.0
 10
25008.24290691578
 20
-81124.90318745109
 30
0.0
 10
24992.59313097413
 20
-81137.75443952738
 30
0.0
 10
24975.12921993739
 20
-81140.26473618284
 30
0.0
 10
24956.25766734955
 20
-81138.42623768265
 30
0.0
 10
24936.75071810977
 20
-81136.07507234497
 30
0.0
 10
24922.22287937233
 20
-81131.07398105666
 30
0.0
 10
24916.10336442368
 20
-81128.66962746373
 30
0.0
  0
SPLINE
  5
13805
330
1F07
100
AcDbEntity
  8
器具
100
AcDbSpline
210
0.0
220
0.0
230
1.0
 70
     8
 71
     3
 72
    20
 73
    16
 74
     0
 42
0.0000000001
 43
0.0000000001
 40
0.2710092293797941
 40
0.2710092293797941
 40
0.2710092293797941
 40
0.2710092293797941
 40
1.091687521501822
 40
2.410546380097729
 40
3.968862913595355
 40
4.582668819879113
 40
5.795062067720582
 40
6.635707280455729
 40
7.279336651339573
 40
8.117985264336946
 40
8.793988400897404
 40
9.833250026302325
 40
10.79501158635508
 40
11.914717308802
 40
12.40433390773178
 40
12.40433390773178
 40
12.40433390773178
 40
12.40433390773178
 10
25052.94137197095
 20
-80919.63321551641
 30
0.0
 10
25055.0120494702
 20
-80929.25053735211
 30
0.0
 10
25060.37162269427
 20
-80954.3308802602
 30
0.0
 10
25068.93136172158
 20
-80997.81710642025
 30
0.0
 10
25075.17268690806
 20
-81039.26276243365
 30
0.0
 10
25076.85354531105
 20
-81079.88487091054
 30
0.0
 10
25074.03169616732
 20
-81111.62069463892
 30
0.0
 10
25065.5644162571
 20
-81143.86626287243
 30
0.0
 10
25045.5350202746
 20
-81164.11380072277
 30
0.0
 10
25023.70155579047
 20
-81178.45448455421
 30
0.0
 10
24994.53379447305
 20
-81187.93694134229
 30
0.0
 10
24962.67647484711
 20
-81195.41677582505
 30
0.0
 10
24925.56217302557
 20
-81188.21164971471
 30
0.0
 10
24894.8354187254
 20
-81183.53653200312
 30
0.0
 10
24877.37876494476
 20
-81175.27438394175
 30
0.0
 10
24872.10855484783
 20
-81172.63827077362
 30
0.0
  0
SPLINE
  5
13806
330
1F07
100
AcDbEntity
  8
器具
100
AcDbSpline
210
0.0
220
0.0
230
1.0
 70
     8
 71
     3
 72
    28
 73
    24
 74
     0
 42
0.0000000001
 43
0.0000000001
 40
0.4075862509243488
 40
0.4075862509243488
 40
0.4075862509243488
 40
0.4075862509243488
 40
0.9156752479764577
 40
1.781870633829415
 40
3.181722221570254
 40
4.276652733235149
 40
5.731007959550963
 40
7.016033341233458
 40
7.730735438103905
 40
8.171439125833975
 40
8.617444255243864
 40
8.694723707548389
 40
8.880950030890156
 40
9.044989560774938
 40
9.340992096097741
 40
9.845156107601471
 40
10.31714957927045
 40
10.64921617623214
 40
11.26478149520006
 40
12.57908953218058
 40
13.43769242677189
 40
14.66651635921647
 40
14.89235445605747
 40
14.89235445605747
 40
14.89235445605747
 40
14.89235445605747
 10
24797.84126714507
 20
-81113.08492866291
 30
0.0
 10
24791.87720222314
 20
-81111.80311000905
 30
0.0
 10
24775.66185932238
 20
-81108.99163956645
 30
0.0
 10
24741.90308842206
 20
-81111.35818495633
 30
0.0
 10
24704.32647814624
 20
-81126.70802075898
 30
0.0
 10
24659.79161362442
 20
-81142.55344815738
 30
0.0
 10
24619.05137291459
 20
-81164.81374653073
 30
0.0
 10
24586.29468782591
 20
-81189.3821877947
 30
0.0
 10
24559.2862271709
 20
-81203.31332343749
 30
0.0
 10
24547.21170576128
 20
-81216.33109002805
 30
0.0
 10
24534.42499653749
 20
-81225.1419657589
 30
0.0
 10
24538.33247272238
 20
-81233.57629209749
 30
0.0
 10
24544.10470617259
 20
-81234.14146246812
 30
0.0
 10
24551.05456916075
 20
-81237.32000079362
 30
0.0
 10
24562.96566776116
 20
-81237.44299253962
 30
0.0
 10
24577.59437206786
 20
-81240.12518044525
 30
0.0
 10
24594.49833799248
 20
-81239.38763934264
 30
0.0
 10
24606.78797538562
 20
-81226.81945896994
 30
0.0
 10
24628.68420483895
 20
-81211.21133801839
 30
0.0
 10
24654.89272060477
 20
-81189.91453403072
 30
0.0
 10
24692.19038669609
 20
-81172.99394026463
 30
0.0
 10
24719.3414411128
 20
-81165.8684632755
 30
0.0
 10
24736.69372741381
 20
-81164.41930537378
 30
0.0
 10
24739.39272413369
 20
-81164.24905428358
 30
0.0
  0
SPLINE
  5
13807
330
1F07
100
AcDbEntity
  8
器具
100
AcDbSpline
210
0.0
220
0.0
230
1.0
 70
     8
 71
     3
 72
    13
 73
     9
 74
     7
 42
0.0000000001
 43
0.0000000001
 44
0.0000000001
 40
0.0
 40
0.0
 40
0.0
 40
0.0
 40
48.89829982644054
 40
118.4655630782312
 40
178.9601758131176
 40
243.2775016525496
 40
313.5129916031543
 40
387.1365035762867
 40
387.1365035762867
 40
387.1365035762867
 40
387.1365035762867
 10
25132.661434066
 20
-80437.06506159079
 30
0.0
 10
25138.02427170245
 20
-80452.45157006423
 30
0.0
 10
25151.01678028767
 20
-80489.72835466782
 30
0.0
 10
25162.11259920831
 20
-80549.0582947492
 30
0.0
 10
25157.17802386231
 20
-80613.94983009817
 30
0.0
 10
25151.03705537206
 20
-80678.588123625
 30
0.0
 10
25136.9768052101
 20
-80746.9848085833
 30
0.0
 10
25117.95927790572
 20
-80791.12439916784
 30
0.0
 10
25108.22657344878
 20
-80813.71396000472
 30
0.0
 11
25132.661434066
 21
-80437.06506159079
 31
0.0
 11
25147.78776792067
 21
-80483.56492987053
 31
0.0
 11
25159.42341161706
 21
-80552.15221668168
 31
0.0
 11
25157.09626517096
 21
-80612.60205174649
 31
0.0
 11
25150.11488485451
 21
-80676.53935488021
 31
0.0
 11
25134.98855099984
 21
-80745.12665744212
 31
0.0
 11
25108.22657344878
 21
-80813.71396000472
 31
0.0
  0
SPLINE
  5
13808
330
1F07
100
AcDbEntity
  8
器具
100
AcDbSpline
210
0.0
220
0.0
230
1.0
 70
     8
 71
     3
 72
    14
 73
    10
 74
     0
 42
0.0000000001
 43
0.0000000001
 40
0.0
 40
0.0
 40
0.0
 40
0.0
 40
1.006716486919094
 40
2.306100504152091
 40
3.063759549860235
 40
4.397584805614224
 40
6.077660908780345
 40
7.846920095732811
 40
8.972438229128503
 40
8.972438229128503
 40
8.972438229128503
 40
8.972438229128503
 10
25121.48846316194
 20
-80406.49887718195
 30
0.0
 10
25115.70921057612
 20
-80395.90743373084
 30
0.0
 10
25102.47059030384
 20
-80371.64545590746
 30
0.0
 10
25082.35117920136
 20
-80340.76970428401
 30
0.0
 10
25055.39088857177
 20
-80310.19665809246
 30
0.0
 10
25019.2609708226
 20
-80282.43653582185
 30
0.0
 10
24968.88674758841
 20
-80255.05470799428
 30
0.0
 10
24920.31681661788
 20
-80229.25086732012
 30
0.0
 10
24887.71185075244
 20
-80217.45903328937
 30
0.0
 10
24874.89940200513
 20
-80213.20212431932
 30
0.0
  0
ELLIPSE
  5
13809
330
1F07
100
AcDbEntity
  8
器具
100
AcDbEllipse
 10
24504.84323281259
 20
-80559.46115870208
 30
0.0
 11
242.0667324244663
 21
479.4830495380248
 31
0.0
210
0.0
220
0.0
230
-1.0
 40
0.5735224030942714
 41
5.319317111259603
 42
11.4887048457796
  0
ELLIPSE
  5
1380A
330
1F07
100
AcDbEntity
  8
器具
100
AcDbEllipse
 10
24525.89252800736
 20
-80576.28512590531
 30
0.0
 11
242.0667324244663
 21
479.4830495380248
 31
0.0
210
0.0
220
0.0
230
-1.0
 40
0.5735224030942714
 41
0.0766055272856706
 42
3.304453193691046
  0
SPLINE
  5
1380B
330
1F07
100
AcDbEntity
  8
器具
100
AcDbSpline
210
0.0
220
0.0
230
1.0
 70
     8
 71
     3
 72
    18
 73
    14
 74
     0
 42
0.0000000001
 43
0.0000000001
 40
0.0
 40
0.0
 40
0.0
 40
0.0
 40
0.8441027040932249
 40
2.337984691468718
 40
3.924698872351697
 40
4.708956312747695
 40
6.445766627369883
 40
8.479747979302988
 40
10.9239299574944
 40
13.60973124781731
 40
15.68581598215707
 40
17.45344704050482
 40
17.88706524406039
 40
17.88706524406039
 40
17.88706524406039
 40
17.88706524406039
 10
24299.1596231762
 20
-81062.61669455481
 30
0.0
 10
24307.69243606526
 20
-81068.12901249149
 30
0.0
 10
24331.32651023116
 20
-81083.39695901941
 30
0.0
 10
24379.14457248577
 20
-81092.77843018944
 30
0.0
 10
24425.11242977812
 20
-81086.63883878294
 30
0.0
 10
24474.53343397353
 20
-81086.65771441518
 30
0.0
 10
24527.4907716249
 20
-81069.75094643077
 30
0.0
 10
24593.63562795996
 20
-81035.25287893996
 30
0.0
 10
24662.02662085036
 20
-80982.52371865081
 30
0.0
 10
24722.40064444266
 20
-80920.4292121746
 30
0.0
 10
24770.41653057012
 20
-80858.4704773099
 30
0.0
 10
24798.56528097447
 20
-80815.5952312056
 30
0.0
 10
24813.83907727847
 20
-80794.08194303452
 30
0.0
 10
24816.86870594783
 20
-80789.85872623976
 30
0.0
  0
SPLINE
  5
1380C
330
1F07
100
AcDbEntity
  8
器具
100
AcDbSpline
210
0.0
220
0.0
230
1.0
 70
     8
 71
     3
 72
    18
 73
    14
 74
     0
 42
0.0000000001
 43
0.0000000001
 40
0.4450744438050633
 40
0.4450744438050633
 40
0.4450744438050633
 40
0.4450744438050633
 40
1.486674181599183
 40
2.520971650088712
 40
4.306265635583994
 40
5.880425757372467
 40
7.117249954469757
 40
7.91357718206802
 40
9.382237567625724
 40
10.71875824589242
 40
12.2591334636585
 40
13.47647338102663
 40
14.55147522052894
 40
14.55147522052894
 40
14.55147522052894
 40
14.55147522052894
 10
24872.75699110989
 20
-80658.78637378681
 30
0.0
 10
24876.9466361493
 20
-80647.02399521232
 30
0.0
 10
24885.2150917652
 20
-80623.55422982644
 30
0.0
 10
24899.58581107241
 20
-80579.56007061847
 30
0.0
 10
24914.30414752124
 20
-80528.93021097844
 30
0.0
 10
24922.05278769414
 20
-80474.04274695932
 30
0.0
 10
24920.39296347964
 20
-80430.76211155584
 30
0.0
 10
24924.68861661889
 20
-80388.82540277834
 30
0.0
 10
24916.98952110161
 20
-80345.9225482584
 30
0.0
 10
24909.83195331265
 20
-80294.4731513903
 30
0.0
 10
24895.76830875474
 20
-80246.86144937058
 30
0.0
 10
24871.82507955603
 20
-80207.34559856128
 30
0.0
 10
24855.42039575454
 20
-80185.31358758789
 30
0.0
 10
24847.72736079889
 20
-80174.98159749321
 30
0.0
  0
ELLIPSE
  5
1380D
330
1F07
100
AcDbEntity
  8
器具
100
AcDbEllipse
 10
24488.27043040772
 20
-80558.76669391663
 30
0.0
 11
154.5080834549969
 21
367.6918596171167
 31
0.0
210
0.0
220
0.0
230
-0.9999999999999998
 40
0.5594443247472767
 41
1.306874982748366
 42
7.446672144473232
  0
ELLIPSE
  5
13817
330
1F07
100
AcDbEntity
  8
器具
100
AcDbEllipse
 10
24524.19987810363
 20
-80564.72964232758
 30
0.0
 11
173.218530362123
 21
347.0347158152791
 31
0.0
210
0.0
220
0.0
230
-1.0
 40
0.527997215505361
 41
2.370063518027635
 42
6.155952765395395
  0
ELLIPSE
  5
13818
330
1F07
100
AcDbEntity
  8
器具
100
AcDbEllipse
 10
24508.50613038983
 20
-80787.56397405852
 30
0.0
 11
14.06298623534738
 21
29.00659777296828
 31
0.0
210
0.0
220
0.0
230
-1.0
 40
0.6873691487810837
 41
0.0
 42
6.283185307179586
  0
ELLIPSE
  5
13819
330
1F07
100
AcDbEntity
  8
器具
100
AcDbEllipse
 10
24594.21773303445
 20
-80690.99918228539
 30
0.0
 11
14.06298623534738
 21
29.00659777296828
 31
0.0
210
0.0
220
0.0
230
-1.0
 40
0.6873691487810837
 41
0.0
 42
6.283185307179586
  0
ELLIPSE
  5
1381A
330
1F07
100
AcDbEntity
  8
器具
100
AcDbEllipse
 10
24475.68041525329
 20
-80694.64314768701
 30
0.0
 11
14.06298623534738
 21
29.00659777296828
 31
0.0
210
0.0
220
0.0
230
-1.0
 40
0.6873691487810837
 41
0.0
 42
6.283185307179586
  0
ELLIPSE
  5
1381B
330
1F07
100
AcDbEntity
  8
器具
100
AcDbEllipse
 10
24358.96675486904
 20
-80703.75302181689
 30
0.0
 11
14.06298623534738
 21
29.00659777296828
 31
0.0
210
0.0
220
0.0
230
-1.0
 40
0.6873691487810837
 41
0.0
 42
6.283185307179586
  0
ELLIPSE
  5
1381C
330
1F07
100
AcDbEntity
  8
器具
100
AcDbEllipse
 10
24399.08707009195
 20
-80794.8518733616
 30
0.0
 11
14.06298623534738
 21
29.00659777296828
 31
0.0
210
0.0
220
0.0
230
-1.0
 40
0.6873691487810837
 41
0.0
 42
6.283185307179586
  0
ELLIPSE
  5
1381D
330
1F07
100
AcDbEntity
  8
器具
100
AcDbEllipse
 10
24430.08915734376
 20
-80887.77269973242
 30
0.0
 11
14.06298623534738
 21
29.00659777296828
 31
0.0
210
0.0
220
0.0
230
-1.0
 40
0.6873691487810837
 41
0.0
 42
6.283185307179586
  0
ELLIPSE
  5
1381E
330
1F07
100
AcDbEntity
  8
器具
100
AcDbEllipse
 10
24450.1493002004
 20
-80603.5442961423
 30
0.0
 11
14.06298623534738
 21
29.00659777296828
 31
0.0
210
0.0
220
0.0
230
-1.0
 40
0.6873691487810837
 41
0.0
 42
6.283185307179586
  0
ELLIPSE
  5
1381F
330
1F07
100
AcDbEntity
  8
器具
100
AcDbEllipse
 10
24337.08295461546
 20
-80618.12011049926
 30
0.0
 11
14.06298623534738
 21
29.00659777296828
 31
0.0
210
0.0
220
0.0
230
-1.0
 40
0.6873691487810837
 41
0.0
 42
6.283185307179586
  0
ELLIPSE
  5
13820
330
1F07
100
AcDbEntity
  8
器具
100
AcDbEllipse
 10
24358.96675486906
 20
-80528.84323378
 30
0.0
 11
14.06298623534738
 21
29.00659777296828
 31
0.0
210
0.0
220
0.0
230
-1.0
 40
0.6873691487810837
 41
0.0
 42
6.283185307179586
  0
ELLIPSE
  5
13821
330
1F07
100
AcDbEntity
  8
器具
100
AcDbEllipse
 10
24468.38581516962
 20
-80517.91138482538
 30
0.0
 11
14.06298623534738
 21
29.00659777296828
 31
0.0
210
0.0
220
0.0
230
-1.0
 40
0.6873691487810837
 41
0.0
 42
6.283185307179586
  0
ELLIPSE
  5
13822
330
1F07
100
AcDbEntity
  8
器具
100
AcDbEllipse
 10
24442.85470011407
 20
-80434.10043258377
 30
0.0
 11
14.06298623534738
 21
29.00659777296828
 31
0.0
210
0.0
220
0.0
230
-1.0
 40
0.6873691487810837
 41
0.0
 42
6.283185307179586
  0
ELLIPSE
  5
13823
330
1F07
100
AcDbEntity
  8
器具
100
AcDbEllipse
 10
24554.09741781159
 20
-80424.99055845523
 30
0.0
 11
14.06298623534738
 21
29.00659777296828
 31
0.0
210
0.0
220
0.0
230
-1.0
 40
0.6873691487810837
 41
0.0
 42
6.283185307179586
  0
ELLIPSE
  5
13824
330
1F07
100
AcDbEntity
  8
器具
100
AcDbEllipse
 10
24590.57044774738
 20
-80510.6234697715
 30
0.0
 11
14.06298623534738
 21
29.00659777296828
 31
0.0
210
0.0
220
0.0
230
-1.0
 40
0.6873691487810837
 41
0.0
 42
6.283185307179586
  0
ELLIPSE
  5
13825
330
1F07
100
AcDbEntity
  8
器具
100
AcDbEllipse
 10
24555.9210752112
 20
-80596.25638108915
 30
0.0
 11
14.06298623534738
 21
29.00659777296828
 31
0.0
210
0.0
220
0.0
230
-1.0
 40
0.6873691487810837
 41
0.0
 42
6.283185307179586
  0
ELLIPSE
  5
13826
330
1F07
100
AcDbEntity
  8
器具
100
AcDbEllipse
 10
24672.6347355954
 20
-80588.96848178537
 30
0.0
 11
14.06298623534738
 21
29.00659777296828
 31
0.0
210
0.0
220
0.0
230
-1.0
 40
0.6873691487810837
 41
0.0
 42
6.283185307179586
  0
ELLIPSE
  5
13827
330
1F07
100
AcDbEntity
  8
器具
100
AcDbEllipse
 10
24701.81313593267
 20
-80496.04765541456
 30
0.0
 11
14.06298623534738
 21
29.00659777296828
 31
0.0
210
0.0
220
0.0
230
-1.0
 40
0.6873691487810837
 41
0.0
 42
6.283185307179586
  0
ELLIPSE
  5
13828
330
1F07
100
AcDbEntity
  8
器具
100
AcDbEllipse
 10
24668.98742079613
 20
-80414.05869374981
 30
0.0
 11
14.06298623534738
 21
29.00659777296828
 31
0.0
210
0.0
220
0.0
230
-1.0
 40
0.6873691487810837
 41
0.0
 42
6.283185307179586
  0
ELLIPSE
  5
13829
330
1F07
100
AcDbEntity
  8
器具
100
AcDbEllipse
 10
24636.16170565694
 20
-80335.71368173596
 30
0.0
 11
14.06298623534738
 21
29.00659777296828
 31
0.0
210
0.0
220
0.0
230
-1.0
 40
0.6873691487810837
 41
0.0
 42
6.283185307179586
  0
ELLIPSE
  5
1382A
330
1F07
100
AcDbEntity
  8
器具
100
AcDbEllipse
 10
24599.68867572115
 20
-80250.08077041832
 30
0.0
 11
14.06298623534738
 21
29.00659777296828
 31
0.0
210
0.0
220
0.0
230
-1.0
 40
0.6873691487810837
 41
0.0
 42
6.283185307179586
  0
ELLIPSE
  5
1382B
330
1F07
100
AcDbEntity
  8
器具
100
AcDbEllipse
 10
24515.80073047614
 20
-80346.64554644137
 30
0.0
 11
14.06298623534738
 21
29.00659777296828
 31
0.0
210
0.0
220
0.0
230
-1.0
 40
0.6873691487810837
 41
0.0
 42
6.283185307179586
  0
CIRCLE
  5
1382C
330
1F07
100
AcDbEntity
  8
器具
100
AcDbCircle
 10
24901.0011355604
 20
-80755.27127882548
 30
0.0
 40
24.17834511414711
  0
LINE
  5
1382D
330
1F07
100
AcDbEntity
  8
器具
100
AcDbLine
 10
25132.66143406727
 20
-80437.06506159024
 30
0.0
 11
24937.1825491274
 21
-80350.88211003326
 31
0.0
  0
LINE
  5
1382E
330
1F07
100
AcDbEntity
  8
器具
100
AcDbLine
 10
24937.1825491274
 20
-80350.88211003326
 30
0.0
 11
24936.05105635969
 21
-80332.81306290952
 31
0.0
  0
LINE
  5
1382F
330
1F07
100
AcDbEntity
  8
器具
100
AcDbLine
 10
24936.05105635969
 20
-80332.81306290952
 30
0.0
 11
24933.10092337684
 21
-80319.76015218877
 31
0.0
  0
LINE
  5
13830
330
1F07
100
AcDbEntity
  8
器具
100
AcDbLine
 10
24933.10092337684
 20
-80319.76015218877
 30
0.0
 11
25121.48846316144
 21
-80406.49887718171
 31
0.0
  0
LINE
  5
13835
330
1F07
100
AcDbEntity
  8
器具
100
AcDbLine
 10
24627.14429354737
 20
-81316.12142734139
 30
0.0
 11
24348.30432657941
 21
-81183.11258714706
 31
0.0
  0
LINE
  5
13836
330
1F07
100
AcDbEntity
  8
器具
100
AcDbLine
 10
24512.39031524245
 20
-81157.49767843107
 30
0.0
 11
24585.11001220999
 21
-81188.90494328219
 31
0.0
  0
LINE
  5
13837
330
1F07
100
AcDbEntity
  8
器具
100
AcDbLine
 10
24631.22949126378
 20
-81208.82371018929
 30
0.0
 11
24699.84027236515
 21
-81238.45635531345
 31
0.0
  0
LINE
  5
13838
330
1F07
100
AcDbEntity
  8
器具
100
AcDbLine
 10
24824.67703603835
 20
-81288.19359957276
 30
0.0
 11
24648.78359343549
 21
-81316.55380120175
 31
0.0
  0
LINE
  5
13839
330
1F07
100
AcDbEntity
  8
器具
100
AcDbLine
 10
24437.59678110684
 20
-81251.90596973057
 30
0.0
 11
24437.59678110684
 21
-81367.41251436109
 31
0.0
  0
LINE
  5
1383A
330
1F07
100
AcDbEntity
  8
器具
100
AcDbLine
 10
24707.1568487675
 20
-81307.14198194041
 30
0.0
 11
24707.1568487675
 21
-81361.00158766758
 31
0.0
  0
LINE
  5
1383B
330
1F07
100
AcDbEntity
  8
器具
100
AcDbLine
 10
24711.65590413004
 20
-81123.54315250119
 30
0.0
 11
24579.15520594049
 21
-81066.33410793129
 31
0.0
  0
LINE
  5
1383C
330
1F07
100
AcDbEntity
  8
器具
100
AcDbLine
 10
24579.15520594049
 20
-81066.33410793129
 30
0.0
 11
24596.57861265883
 21
-81054.72917554379
 31
0.0
  0
LINE
  5
1383D
330
1F07
100
AcDbEntity
  8
器具
100
AcDbLine
 10
24596.57861265883
 20
-81054.72917554379
 30
0.0
 11
24736.15854170822
 21
-81115.15828871389
 31
0.0
  0
LINE
  5
1383E
330
1F07
100
AcDbEntity
  8
器具
100
AcDbLine
 10
24966.63303617114
 20
-80804.46440660196
 30
0.0
 11
25085.26549551541
 21
-80860.11266258685
 31
0.0
  0
LINE
  5
13841
330
1F07
100
AcDbEntity
  8
器具
100
AcDbLine
 10
24816.8687059497
 20
-80738.93239664934
 30
0.0
 11
24816.8687059497
 21
-81056.55713557355
 31
0.0
  0
LINE
  5
13842
330
1F07
100
AcDbEntity
  8
器具
100
AcDbLine
 10
24969.49459328813
 20
-80735.08213071921
 30
0.0
 11
24958.12282389214
 21
-81010.8058745496
 31
0.0
  0
LINE
  5
13843
330
1F07
100
AcDbEntity
  8
器具
100
AcDbLine
 10
25108.22657345005
 20
-80813.71396000429
 30
0.0
 11
24968.59410018181
 21
-80756.91578929342
 31
0.0
  0
TEXT
  5
13FDB
330
1F07
100
AcDbEntity
  8
0
 62
     7
100
AcDbText
 10
24145.62257355802
 20
-79151.44793366464
 30
0.0
 40
299.9999947731441
  1
LED50W  (4500K)
  7
WMF-ＭＳ Ｐゴシック0
100
AcDbText
  0
MTEXT
  5
13FDC
330
1F07
100
AcDbEntity
  8
記号
 62
     2
100
AcDbMText
 10
21509.60023854263
 20
-84917.6385754648
 30
0.0
 40
250.0
 41
6533.332686219465
 71
     4
 72
     5
  1
幅:196　高さ:747(mm)
  7
スタイル1
 73
     1
 44
1.0
1001
ACAD
1000
MTEXTBEGIN
1070
    73
1070
     1
1070
    44
1040
1.0
1070
    74
1070
     0
1000
MTEXTEND
  0
MTEXT
  5
15071
330
1F07
100
AcDbEntity
  8
記号
 62
     2
100
AcDbMText
 10
26340.99430002066
 20
-79844.07944215227
 30
0.0
 40
300.0001909587983
 41
2900.001845935049
 71
     5
 72
     5
  1
Re:ray
  7
スタイル1
 73
     1
 44
1.0
1001
ACAD
1000
MTEXTBEGIN
1070
    73
1070
     1
1070
    44
1040
1.0
1070
    74
1070
     0
1000
MTEXTEND
  0
LINE
  5
1522F
330
1F07
100
AcDbEntity
  8
器具
100
AcDbLine
 10
24727.15720279585
 20
-80546.29329611223
 30
0.0
 11
24738.35186325121
 21
-80492.47622616636
 31
0.0
  0
LINE
  5
15230
330
1F07
100
AcDbEntity
  8
器具
100
AcDbLine
 10
24377.20404206086
 20
-80210.19096420857
 30
0.0
 11
24417.02387310953
 21
-80171.95340655652
 31
0.0
  0
ENDSEC
  0
SECTION
  2
OBJECTS
  0
DICTIONARY
  5
1EF5
330
0
100
AcDbDictionary
281
     1
  3
ACAD_COLOR
350
8C47
  3
ACAD_GROUP
350
1EF6
  3
ACAD_LAYOUT
350
1F02
  3
ACAD_MATERIAL
350
8C46
  3
ACAD_MLINESTYLE
350
1EFF
  3
ACAD_PLOTSETTINGS
350
1F01
  3
ACAD_PLOTSTYLENAME
350
1EF7
  3
ACAD_TABLESTYLE
350
8C48
  3
ACDBHEADERROUNDTRIPXREC
350
15269
  3
AcDbVariableDictionary
350
4454
  0
DICTIONARY
  5
9A3A
330
1EEB
100
AcDbDictionary
280
     1
281
     1
  3
ACAD_LAYERFILTERS
360
A52F
  3
ACAD_LAYERSTATES
360
9A3B
  0
DICTIONARY
  5
980C
330
1F07
100
AcDbDictionary
280
     1
281
     1
  3
ACAD_SORTENTS
360
980D
  0
DICTIONARY
  5
8C47
102
{ACAD_REACTORS
330
1EF5
102
}
330
1EF5
100
AcDbDictionary
281
     1
  0
DICTIONARY
  5
1EF6
102
{ACAD_REACTORS
330
1EF5
102
}
330
1EF5
100
AcDbDictionary
281
     1
  0
DICTIONARY
  5
1F02
102
{ACAD_REACTORS
330
1EF5
102
}
330
1EF5
100
AcDbDictionary
281
     1
  3
Model
350
1F0A
  3
ﾚｲｱｳﾄ1
350
1F06
  0
DICTIONARY
  5
8C46
102
{ACAD_REACTORS
330
1EF5
102
}
330
1EF5
100
AcDbDictionary
281
     1
  0
DICTIONARY
  5
1EFF
102
{ACAD_REACTORS
330
1EF5
102
}
330
1EF5
100
AcDbDictionary
281
     1
  3
Standard
350
1F00
  0
DICTIONARY
  5
1F01
102
{ACAD_REACTORS
330
1EF5
102
}
330
1EF5
100
AcDbDictionary
281
     1
  0
ACDBDICTIONARYWDFLT
  5
1EF7
102
{ACAD_REACTORS
330
1EF5
102
}
330
1EF5
100
AcDbDictionary
281
     1
  3
Normal
350
1EF8
100
AcDbDictionaryWithDefault
340
1EF8
  0
DICTIONARY
  5
8C48
102
{ACAD_REACTORS
330
1EF5
102
}
330
1EF5
100
AcDbDictionary
281
     1
  3
Standard
350
8C49
  0
DICTIONARY
  5
15269
102
{ACAD_REACTORS
330
1EF5
102
}
330
1EF5
100
AcDbDictionary
281
     1
  0
DICTIONARY
  5
4454
102
{ACAD_REACTORS
330
1EF5
102
}
330
1EF5
100
AcDbDictionary
281
     1
  3
CTABLESTYLE
350
8CAE
  3
DIMASSOC
350
8CAF
  3
PROJECTNAME
350
8CB0
  3
SORTENTS
350
4455
  0
DICTIONARY
  5
A52F
102
{ACAD_REACTORS
330
9A3A
102
}
330
9A3A
100
AcDbDictionary
280
     1
281
     1
  0
DICTIONARY
  5
9A3B
102
{ACAD_REACTORS
330
9A3A
102
}
330
9A3A
100
AcDbDictionary
281
     1
  0
SORTENTSTABLE
  5
980D
102
{ACAD_REACTORS
330
980C
102
}
330
980C
100
AcDbSortentsTable
330
1F07
331
137C5
  5
137CD
331
13818
  5
13820
331
137FF
  5
13807
331
137EE
  5
137F6
331
137D5
  5
137DD
331
13841
  5
13D80
331
13828
  5
13830
331
137C4
  5
137CC
331
12DDA
  5
12DE2
331
137FE
  5
13806
331
137ED
  5
137F5
331
137D4
  5
137DC
331
12F8B
  5
12F93
331
13827
  5
1382F
331
137C3
  5
137CB
331
12DD9
  5
12DE1
331
13837
  5
1383F
331
15071
  5
15134
331
137FD
  5
13805
331
137EC
  5
137F4
331
137D3
  5
137DB
331
13826
  5
1382E
331
1380D
  5
13815
331
12DD8
  5
12DE0
331
13836
  5
1383E
331
137FC
  5
13804
331
137EB
  5
137F3
331
137D2
  5
137DA
331
1383E
  5
13D79
331
13825
  5
1382D
331
1380C
  5
13814
331
12DD7
  5
12DDF
331
13835
  5
1383D
331
137FB
  5
13803
331
137EA
  5
137F2
331
137D1
  5
137D9
331
1383D
  5
13D10
331
13824
  5
1382C
331
1380B
  5
13813
331
12DD6
  5
12DDE
331
137FA
  5
13802
331
137E9
  5
137F1
331
12DF6
  5
12DFE
331
137D0
  5
137D8
331
1383C
  5
13D0F
331
13823
  5
1382B
331
1380A
  5
13812
331
137F9
  5
13801
331
137E8
  5
137F0
331
137CF
  5
137D7
331
12F7E
  5
12F8E
331
1383B
  5
13843
331
13822
  5
1382A
331
13809
  5
13811
331
137DF
  5
137E7
331
137F8
  5
13800
331
137E7
  5
137EF
331
137CE
  5
137D6
331
12F7D
  5
12F8D
331
1383A
  5
13842
331
13821
  5
13829
331
13808
  5
13810
331
137F7
  5
137FF
331
137DE
  5
137E6
331
137E6
  5
137EE
331
137CD
  5
137D5
331
12F7C
  5
12F8C
331
13839
  5
13841
331
13820
  5
13828
331
13807
  5
1380F
331
137F6
  5
137FE
331
137DD
  5
137E5
331
13830
  5
13838
331
13817
  5
1381F
331
137E5
  5
137ED
331
137CC
  5
137D4
331
12F7B
  5
12F8B
331
13838
  5
13840
331
1381F
  5
13827
331
13806
  5
1380E
331
137F5
  5
137FD
331
137DC
  5
137E4
331
1382F
  5
13837
331
137E4
  5
137EC
331
137CB
  5
137D3
331
1381E
  5
13826
331
13805
  5
1380D
331
137F4
  5
137FC
331
137DB
  5
137E3
331
1382E
  5
13836
331
137E3
  5
137EB
331
137CA
  5
137D2
331
1381D
  5
13825
331
13804
  5
1380C
331
137F3
  5
137FB
331
137DA
  5
137E2
331
12DF8
  5
12E00
331
1382D
  5
13835
331
137E2
  5
137EA
331
137C9
  5
137D1
331
1381C
  5
13824
331
13803
  5
1380B
331
137F2
  5
137FA
331
137D9
  5
137E1
331
1382C
  5
13834
331
137E1
  5
137E9
331
137C8
  5
137D0
331
1381B
  5
13823
331
13802
  5
1380A
331
137F1
  5
137F9
331
137D8
  5
137E0
331
12F8F
  5
12F97
331
1382B
  5
13833
331
137E0
  5
137E8
331
137C7
  5
137CF
331
12E06
  5
12E0F
331
1381A
  5
13822
331
13801
  5
13809
331
137F0
  5
137F8
331
137D7
  5
137DF
331
12DBC
  5
12DD6
331
13FDC
  5
13FE5
331
13843
  5
13EA1
331
1382A
  5
13832
331
137C6
  5
137CE
331
12E05
  5
12E0E
331
13819
  5
13821
331
13800
  5
13808
331
137EF
  5
137F7
331
137D6
  5
137DE
331
13FDB
  5
13FE4
331
13842
  5
13D81
331
13829
  5
13831
  0
LAYOUT
  5
1F0A
102
{ACAD_XDICTIONARY
360
1526C
102
}
102
{ACAD_REACTORS
330
1F02
102
}
330
1F02
100
AcDbPlotSettings
  1

  2
DocuWorks Printer
  4
A4
  6

 40
5.408083438873291
 41
5.408078670501708
 42
5.408096313476562
 43
5.4080810546875
 44
210.0156707763672
 45
297.0106506347656
 46
0.0
 47
0.0
 48
18517.97388547846
 49
-85448.72728349933
140
29907.79453840939
141
-76481.2486804848
142
1.0
143
40.0
 70
 11936
 72
     1
 73
     1
 74
     4
  7
aclt.ctb
 75
     0
147
0.01
148
-18517.97388547846
149
85448.72728349933
100
AcDbLayout
  1
Model
 70
     1
 71
     0
 10
0.0
 20
0.0
 11
12.0
 21
9.0
 12
0.0
 22
0.0
 32
0.0
 14
0.0
 24
0.0
 34
0.0
 15
0.0
 25
0.0
 35
0.0
146
0.0
 13
0.0
 23
0.0
 33
0.0
 16
1.0
 26
0.0
 36
0.0
 17
0.0
 27
1.0
 37
0.0
 76
     0
330
1F07
1001
ACAD_PSEXT
1000
DocuWorks Printer
1000
DocuWorks Printer Driver
1000
DocuWorks Port
1000

1070
     0
  0
LAYOUT
  5
1F06
102
{ACAD_XDICTIONARY
360
1526A
102
}
102
{ACAD_REACTORS
330
1F02
102
}
330
1F02
100
AcDbPlotSettings
  1

  2
HP DesignJet 430 (D / A1)
  4

  6

 40
0.0
 41
0.0
 42
0.0
 43
0.0
 44
0.0
 45
0.0
 46
0.0
 47
0.0
 48
0.0
 49
0.0
140
0.0
141
0.0
142
1.0
143
1.0
 70
   688
 72
     0
 73
     0
 74
     5
  7
aclt.ctb
 75
    16
147
1.0
148
0.0
149
0.0
100
AcDbLayout
  1
ﾚｲｱｳﾄ1
 70
     0
 71
     1
 10
0.0
 20
0.0
 11
12.0
 21
9.0
 12
0.0
 22
0.0
 32
0.0
 14
1.000000000000000E+20
 24
1.000000000000000E+20
 34
1.000000000000000E+20
 15
-1.000000000000000E+20
 25
-1.000000000000000E+20
 35
-1.000000000000000E+20
146
0.0
 13
0.0
 23
0.0
 33
0.0
 16
1.0
 26
0.0
 36
0.0
 17
0.0
 27
1.0
 37
0.0
 76
     0
330
1F03
  0
MLINESTYLE
  5
1F00
102
{ACAD_REACTORS
330
1EFF
102
}
330
1EFF
100
AcDbMlineStyle
  2
STANDARD
 70
     0
  3

 62
   256
 51
90.0
 52
90.0
 71
     2
 49
0.5
 62
   256
  6
BYLAYER
 49
-0.5
 62
   256
  6
BYLAYER
  0
ACDBPLACEHOLDER
  5
1EF8
102
{ACAD_REACTORS
330
1EF7
102
}
330
1EF7
  0
TABLESTYLE
  5
8C49
102
{ACAD_REACTORS
330
8C48
102
}
330
8C48
100
AcDbTableStyle
  3
Standard
 70
     0
 71
     0
 40
0.06
 41
0.06
280
     0
281
     0
  7
STANDARD
140
0.18
170
     2
 62
     0
 63
     7
283
     0
274
    -2
284
     1
 64
     0
275
    -2
285
     1
 65
     0
276
    -2
286
     1
 66
     0
277
    -2
287
     1
 67
     0
278
    -2
288
     1
 68
     0
279
    -2
289
     1
 69
     0
  7
STANDARD
140
0.25
170
     5
 62
     0
 63
     7
283
     0
274
    -2
284
     1
 64
     0
275
    -2
285
     1
 65
     0
276
    -2
286
     1
 66
     0
277
    -2
287
     1
 67
     0
278
    -2
288
     1
 68
     0
279
    -2
289
     1
 69
     0
  7
STANDARD
140
0.18
170
     5
 62
     0
 63
     7
283
     0
274
    -2
284
     1
 64
     0
275
    -2
285
     1
 65
     0
276
    -2
286
     1
 66
     0
277
    -2
287
     1
 67
     0
278
    -2
288
     1
 68
     0
279
    -2
289
     1
 69
     0
  0
DICTIONARYVAR
  5
8CAE
102
{ACAD_REACTORS
330
4454
102
}
330
4454
100
DictionaryVariables
280
     0
  1
STANDARD
  0
DICTIONARYVAR
  5
8CAF
102
{ACAD_REACTORS
330
4454
102
}
330
4454
100
DictionaryVariables
280
     0
  1
1
  0
DICTIONARYVAR
  5
8CB0
102
{ACAD_REACTORS
330
4454
102
}
330
4454
100
DictionaryVariables
280
     0
  1

  0
DICTIONARYVAR
  5
4455
102
{ACAD_REACTORS
330
4454
102
}
330
4454
100
DictionaryVariables
280
     0
  1
96
  0
DICTIONARY
  5
1526C
330
1F0A
100
AcDbDictionary
280
     1
281
     1
  3
ACAD_XREC_ROUNDTRIP
360
1526D
  0
DICTIONARY
  5
1526A
330
1F06
100
AcDbDictionary
280
     1
281
     1
  3
ACAD_XREC_ROUNDTRIP
360
1526B
  0
XRECORD
  5
1526D
102
{ACAD_REACTORS
330
1526C
102
}
330
1526C
100
AcDbXrecord
280
     1
102
SHADEPLOT
 70
     0
102
SHADEPLOTRESLEVEL
 70
     2
102
SHADEPLOTCUSTOMDPI
 70
   300
  0
XRECORD
  5
1526B
102
{ACAD_REACTORS
330
1526A
102
}
330
1526A
100
AcDbXrecord
280
     1
102
SHADEPLOT
 70
     0
102
SHADEPLOTRESLEVEL
 70
     2
102
SHADEPLOTCUSTOMDPI
 70
   300
  0
ENDSEC
  0
EOF
