  0
SECTION
  2
HEADER
  9
$ACADVER
  1
AC1015
  9
$ACADMAINTVER
 70
    20
  9
$DWGCODEPAGE
  3
ANSI_932
  9
$INSBASE
 10
0.0
 20
0.0
 30
0.0
  9
$EXTMIN
 10
133869.0212715274
 20
-1889.377911143558
 30
-0.0015258207003583
  9
$EXTMAX
 10
141676.6813475437
 20
5399.514524091297
 30
0.0000000349246037
  9
$LIMMIN
 10
0.0
 20
0.0
  9
$LIMMAX
 10
59400.0
 20
42000.0
  9
$ORTHOMODE
 70
     1
  9
$REGENMODE
 70
     1
  9
$FILLMODE
 70
     1
  9
$QTEXTMODE
 70
     0
  9
$MIRRTEXT
 70
     1
  9
$LTSCALE
 40
100.0
  9
$ATTMODE
 70
     1
  9
$TEXTSIZE
 40
300.0
  9
$TRACEWID
 40
0.05
  9
$TEXTSTYLE
  7
スタイル1
  9
$CLAYER
  8
下書き
  9
$CELTYPE
  6
ByLayer
  9
$CECOLOR
 62
   256
  9
$CELTSCALE
 40
1.0
  9
$DISPSILH
 70
     0
  9
$DIMSCALE
 40
100.0
  9
$DIMASZ
 40
2.0
  9
$DIMEXO
 40
2.0
  9
$DIMDLI
 40
0.38
  9
$DIMRND
 40
0.0
  9
$DIMDLE
 40
0.0
  9
$DIMEXE
 40
0.18
  9
$DIMTP
 40
0.0
  9
$DIMTM
 40
0.0
  9
$DIMTXT
 40
2.0
  9
$DIMCEN
 40
0.09
  9
$DIMTSZ
 40
0.0
  9
$DIMTOL
 70
     0
  9
$DIMLIM
 70
     0
  9
$DIMTIH
 70
     0
  9
$DIMTOH
 70
     1
  9
$DIMSE1
 70
     0
  9
$DIMSE2
 70
     0
  9
$DIMTAD
 70
     1
  9
$DIMZIN
 70
     0
  9
$DIMBLK
  1
Open30
  9
$DIMASO
 70
     1
  9
$DIMSHO
 70
     1
  9
$DIMPOST
  1

  9
$DIMAPOST
  1

  9
$DIMALT
 70
     0
  9
$DIMALTD
 70
     2
  9
$DIMALTF
 40
25.4
  9
$DIMLFAC
 40
1.0
  9
$DIMTOFL
 70
     0
  9
$DIMTVP
 40
0.0
  9
$DIMTIX
 70
     0
  9
$DIMSOXD
 70
     0
  9
$DIMSAH
 70
     0
  9
$DIMBLK1
  1

  9
$DIMBLK2
  1

  9
$DIMSTYLE
  2
STANDARD
  9
$DIMCLRD
 70
     0
  9
$DIMCLRE
 70
     0
  9
$DIMCLRT
 70
     0
  9
$DIMTFAC
 40
1.0
  9
$DIMGAP
 40
1.0
  9
$DIMJUST
 70
     0
  9
$DIMSD1
 70
     0
  9
$DIMSD2
 70
     0
  9
$DIMTOLJ
 70
     1
  9
$DIMTZIN
 70
     0
  9
$DIMALTZ
 70
     0
  9
$DIMALTTZ
 70
     0
  9
$DIMUPT
 70
     0
  9
$DIMDEC
 70
     1
  9
$DIMTDEC
 70
     1
  9
$DIMALTU
 70
     2
  9
$DIMALTTD
 70
     2
  9
$DIMTXSTY
  7
STANDARD
  9
$DIMAUNIT
 70
     0
  9
$DIMADEC
 70
     0
  9
$DIMALTRND
 40
0.0
  9
$DIMAZIN
 70
     0
  9
$DIMDSEP
 70
    46
  9
$DIMATFIT
 70
     3
  9
$DIMFRAC
 70
     0
  9
$DIMLDRBLK
  1
Open30
  9
$DIMLUNIT
 70
     2
  9
$DIMLWD
 70
    -2
  9
$DIMLWE
 70
    -2
  9
$DIMTMOVE
 70
     0
  9
$LUNITS
 70
     2
  9
$LUPREC
 70
     4
  9
$SKETCHINC
 40
0.1
  9
$FILLETRAD
 40
0.0
  9
$AUNITS
 70
     0
  9
$AUPREC
 70
     0
  9
$MENU
  1
acad
  9
$ELEVATION
 40
0.0
  9
$PELEVATION
 40
0.0
  9
$THICKNESS
 40
0.0
  9
$LIMCHECK
 70
     0
  9
$CHAMFERA
 40
0.0
  9
$CHAMFERB
 40
0.0
  9
$CHAMFERC
 40
0.0
  9
$CHAMFERD
 40
0.0
  9
$SKPOLY
 70
     0
  9
$TDCREATE
 40
2426945.499536991
  9
$TDUCREATE
 40
2426945.124536991
  9
$TDUPDATE
 40
2456248.649082118
  9
$TDUUPDATE
 40
2456248.274082118
  9
$TDINDWG
 40
1.7113412037
  9
$TDUSRTIMER
 40
1.7113393519
  9
$USRTIMER
 70
     1
  9
$ANGBASE
 50
0.0
  9
$ANGDIR
 70
     0
  9
$PDMODE
 70
     0
  9
$PDSIZE
 40
0.0
  9
$PLINEWID
 40
0.0
  9
$SPLFRAME
 70
     0
  9
$SPLINETYPE
 70
     6
  9
$SPLINESEGS
 70
     8
  9
$HANDSEED
  5
1525A
  9
$SURFTAB1
 70
     6
  9
$SURFTAB2
 70
     6
  9
$SURFTYPE
 70
     6
  9
$SURFU
 70
     6
  9
$SURFV
 70
     6
  9
$UCSBASE
  2

  9
$UCSNAME
  2

  9
$UCSORG
 10
0.0
 20
0.0
 30
0.0
  9
$UCSXDIR
 10
1.0
 20
0.0
 30
0.0
  9
$UCSYDIR
 10
0.0
 20
1.0
 30
0.0
  9
$UCSORTHOREF
  2

  9
$UCSORTHOVIEW
 70
     0
  9
$UCSORGTOP
 10
0.0
 20
0.0
 30
0.0
  9
$UCSORGBOTTOM
 10
0.0
 20
0.0
 30
0.0
  9
$UCSORGLEFT
 10
0.0
 20
0.0
 30
0.0
  9
$UCSORGRIGHT
 10
0.0
 20
0.0
 30
0.0
  9
$UCSORGFRONT
 10
0.0
 20
0.0
 30
0.0
  9
$UCSORGBACK
 10
0.0
 20
0.0
 30
0.0
  9
$PUCSBASE
  2

  9
$PUCSNAME
  2

  9
$PUCSORG
 10
0.0
 20
0.0
 30
0.0
  9
$PUCSXDIR
 10
1.0
 20
0.0
 30
0.0
  9
$PUCSYDIR
 10
0.0
 20
1.0
 30
0.0
  9
$PUCSORTHOREF
  2

  9
$PUCSORTHOVIEW
 70
     0
  9
$PUCSORGTOP
 10
0.0
 20
0.0
 30
0.0
  9
$PUCSORGBOTTOM
 10
0.0
 20
0.0
 30
0.0
  9
$PUCSORGLEFT
 10
0.0
 20
0.0
 30
0.0
  9
$PUCSORGRIGHT
 10
0.0
 20
0.0
 30
0.0
  9
$PUCSORGFRONT
 10
0.0
 20
0.0
 30
0.0
  9
$PUCSORGBACK
 10
0.0
 20
0.0
 30
0.0
  9
$USERI1
 70
     0
  9
$USERI2
 70
     0
  9
$USERI3
 70
     0
  9
$USERI4
 70
     0
  9
$USERI5
 70
     0
  9
$USERR1
 40
0.0
  9
$USERR2
 40
0.0
  9
$USERR3
 40
0.0
  9
$USERR4
 40
0.0
  9
$USERR5
 40
0.0
  9
$WORLDVIEW
 70
     1
  9
$SHADEDGE
 70
     3
  9
$SHADEDIF
 70
    70
  9
$TILEMODE
 70
     1
  9
$MAXACTVP
 70
    16
  9
$PINSBASE
 10
0.0
 20
0.0
 30
0.0
  9
$PLIMCHECK
 70
     0
  9
$PEXTMIN
 10
1.000000000000000E+20
 20
1.000000000000000E+20
 30
1.000000000000000E+20
  9
$PEXTMAX
 10
-1.000000000000000E+20
 20
-1.000000000000000E+20
 30
-1.000000000000000E+20
  9
$PLIMMIN
 10
0.0
 20
0.0
  9
$PLIMMAX
 10
12.0
 20
9.0
  9
$UNITMODE
 70
     0
  9
$VISRETAIN
 70
     0
  9
$PLINEGEN
 70
     1
  9
$PSLTSCALE
 70
     0
  9
$TREEDEPTH
 70
  3020
  9
$CMLSTYLE
  2
Standard
  9
$CMLJUST
 70
     0
  9
$CMLSCALE
 40
1.0
  9
$PROXYGRAPHICS
 70
     1
  9
$MEASUREMENT
 70
     0
  9
$CELWEIGHT
370
    -1
  9
$ENDCAPS
280
     0
  9
$JOINSTYLE
280
     0
  9
$LWDISPLAY
290
     0
  9
$INSUNITS
 70
     0
  9
$HYPERLINKBASE
  1

  9
$STYLESHEET
  1
aclt.ctb
  9
$XEDIT
290
     1
  9
$CEPSNTYPE
380
     0
  9
$PSTYLEMODE
290
     1
  9
$FINGERPRINTGUID
  2
{8637CE02-3222-11D7-99D2-0040267E6A47}
  9
$VERSIONGUID
  2
{C028E8D2-724E-4B7F-A3A1-F4087B9624FE}
  9
$EXTNAMES
290
     1
  9
$PSVPSCALE
 40
0.0
  9
$OLESTARTUP
290
     0
  0
ENDSEC
  0
SECTION
  2
CLASSES
  0
CLASS
  1
ACDBDICTIONARYWDFLT
  2
AcDbDictionaryWithDefault
  3
ObjectDBX Classes
 90
        0
280
     0
281
     0
  0
CLASS
  1
ACDBPLACEHOLDER
  2
AcDbPlaceHolder
  3
ObjectDBX Classes
 90
        0
280
     0
281
     0
  0
CLASS
  1
LAYOUT
  2
AcDbLayout
  3
ObjectDBX Classes
 90
        0
280
     0
281
     0
  0
CLASS
  1
DICTIONARYVAR
  2
AcDbDictionaryVar
  3
ObjectDBX Classes
 90
        0
280
     0
281
     0
  0
CLASS
  1
TABLESTYLE
  2
AcDbTableStyle
  3
ObjectDBX Classes
 90
     2047
280
     0
281
     0
  0
CLASS
  1
SORTENTSTABLE
  2
AcDbSortentsTable
  3
ObjectDBX Classes
 90
        0
280
     0
281
     0
  0
ENDSEC
  0
SECTION
  2
TABLES
  0
TABLE
  2
VPORT
  5
1EF1
330
0
100
AcDbSymbolTable
 70
     4
  0
VPORT
  5
15254
330
1EF1
100
AcDbSymbolTableRecord
100
AcDbViewportTableRecord
  2
*Active
 70
     0
 10
0.0
 20
0.0
 11
1.0
 21
1.0
 12
140280.9787041045
 22
1437.105504117333
 13
0.0
 23
0.0
 14
1000.0
 24
1000.0
 15
1000.0
 25
1000.0
 16
0.0
 26
0.0
 36
1.0
 17
0.0
 27
0.0
 37
0.0
 40
18948.2469424364
 41
1.652054794520547
 42
50.0
 43
0.0
 44
0.0
 50
0.0
 51
0.0
 71
     0
 72
   100
 73
     1
 74
     1
 75
     0
 76
     0
 77
     0
 78
     0
281
     0
 65
     1
110
0.0
120
0.0
130
0.0
111
1.0
121
0.0
131
0.0
112
0.0
122
1.0
132
0.0
 79
     0
146
0.0
  0
ENDTAB
  0
TABLE
  2
LTYPE
  5
1EEE
330
0
100
AcDbSymbolTable
 70
     8
  0
LTYPE
  5
1EFC
330
1EEE
100
AcDbSymbolTableRecord
100
AcDbLinetypeTableRecord
  2
ByBlock
 70
     0
  3

 72
    65
 73
     0
 40
0.0
  0
LTYPE
  5
1EFD
330
1EEE
100
AcDbSymbolTableRecord
100
AcDbLinetypeTableRecord
  2
ByLayer
 70
     0
  3

 72
    65
 73
     0
 40
0.0
  0
LTYPE
  5
1EFE
330
1EEE
100
AcDbSymbolTableRecord
100
AcDbLinetypeTableRecord
  2
CONTINUOUS
 70
     0
  3
Solid line
 72
    65
 73
     0
 40
0.0
  0
LTYPE
  5
1F0C
330
1EEE
100
AcDbSymbolTableRecord
100
AcDbLinetypeTableRecord
  2
HIDDEN
 70
     0
  3
__ __ __ __ __ __ __ __ __ __ __ __ __ __ __ __
 72
    65
 73
     5
 40
8.0
 49
1.0
 74
     0
 49
-2.0
 74
     0
 49
2.0
 74
     0
 49
-2.0
 74
     0
 49
1.0
 74
     0
  0
LTYPE
  5
1F0D
330
1EEE
100
AcDbSymbolTableRecord
100
AcDbLinetypeTableRecord
  2
DOT
 70
     0
  3
. . . . . . . . . . . . . . . . . . . . . . . .
 72
    65
 73
     3
 40
1.6
 49
0.4
 74
     0
 49
-0.8
 74
     0
 49
0.4
 74
     0
  0
LTYPE
  5
1F0E
330
1EEE
100
AcDbSymbolTableRecord
100
AcDbLinetypeTableRecord
  2
CENTER
 70
     0
  3
____ _ ____ _ ____ _ ____ _ ____ _ ____ _ ____ 
 72
    65
 73
     5
 40
12.0
 49
5.0
 74
     0
 49
-0.8
 74
     0
 49
0.4
 74
     0
 49
-0.8
 74
     0
 49
5.0
 74
     0
  0
LTYPE
  5
1F0F
330
1EEE
100
AcDbSymbolTableRecord
100
AcDbLinetypeTableRecord
  2
DIVIDE
 70
     0
  3
____ . . ____ . . ____ . . ____ . . ____ . . __
 72
    65
 73
     7
 40
13.2
 49
5.0
 74
     0
 49
-0.8
 74
     0
 49
0.4
 74
     0
 49
-0.8
 74
     0
 49
0.4
 74
     0
 49
-0.8
 74
     0
 49
5.0
 74
     0
  0
LTYPE
  5
BC93
330
1EEE
100
AcDbSymbolTableRecord
100
AcDbLinetypeTableRecord
  2
DASH_CENTER
 70
     0
  3
Dash_Center
 72
    65
 73
     4
 40
36.0
 49
24.0
 74
     0
 49
-3.0
 74
     0
 49
6.0
 74
     0
 49
-3.0
 74
     0
  0
LTYPE
  5
CA49
330
1EEE
100
AcDbSymbolTableRecord
100
AcDbLinetypeTableRecord
  2
STYLE_01
 70
     0
  3

 72
    65
 73
     2
 40
0.125
 49
0.0625
 74
     0
 49
-0.0625
 74
     0
  0
LTYPE
  5
CA4A
330
1EEE
100
AcDbSymbolTableRecord
100
AcDbLinetypeTableRecord
  2
STYLE_07
 70
     0
  3

 72
    65
 73
     2
 40
0.125
 49
0.03125
 74
     0
 49
-0.09375
 74
     0
  0
ENDTAB
  0
TABLE
  2
LAYER
  5
1EEB
102
{ACAD_XDICTIONARY
360
9A3A
102
}
330
0
100
AcDbSymbolTable
 70
    13
  0
LAYER
  5
1EF9
330
1EEB
100
AcDbSymbolTableRecord
100
AcDbLayerTableRecord
  2
0
 70
     0
 62
     7
  6
CONTINUOUS
370
    -3
390
1EF8
  0
LAYER
  5
4075
330
1EEB
100
AcDbSymbolTableRecord
100
AcDbLayerTableRecord
  2
記号
 70
     0
 62
     4
  6
CONTINUOUS
370
    -3
390
1EF8
  0
LAYER
  5
42A3
330
1EEB
100
AcDbSymbolTableRecord
100
AcDbLayerTableRecord
  2
Defpoints
 70
     4
 62
     7
  6
CONTINUOUS
290
     0
370
    -3
390
1EF8
  0
LAYER
  5
58FC
330
1EEB
100
AcDbSymbolTableRecord
100
AcDbLayerTableRecord
  2
リスト
 70
     0
 62
     8
  6
CONTINUOUS
370
    13
390
1EF8
  0
LAYER
  5
8CB6
330
1EEB
100
AcDbSymbolTableRecord
100
AcDbLayerTableRecord
  2
器具
 70
     0
 62
     4
  6
CONTINUOUS
370
    -3
390
1EF8
  0
LAYER
  5
8CB7
330
1EEB
100
AcDbSymbolTableRecord
100
AcDbLayerTableRecord
  2
レイヤー_1
 70
     0
 62
   160
  6
CONTINUOUS
370
    -3
390
1EF8
  0
LAYER
  5
9466
330
1EEB
100
AcDbSymbolTableRecord
100
AcDbLayerTableRecord
  2
画層1
 70
     4
 62
   160
  6
CONTINUOUS
370
    -3
390
1EF8
1001
AcAecLayerStandard
1000

1000

  0
LAYER
  5
9F35
330
1EEB
100
AcDbSymbolTableRecord
100
AcDbLayerTableRecord
  2
下書き
 70
     0
 62
     6
  6
CONTINUOUS
370
    -3
390
1EF8
1001
AcAecLayerStandard
1000

1000

  0
LAYER
  5
A81A
330
1EEB
100
AcDbSymbolTableRecord
100
AcDbLayerTableRecord
  2
007
 70
     0
 62
     1
  6
CONTINUOUS
370
    -3
390
1EF8
  0
LAYER
  5
BC94
330
1EEB
100
AcDbSymbolTableRecord
100
AcDbLayerTableRecord
  2
図面
 70
     0
 62
     5
  6
CONTINUOUS
370
    -3
390
1EF8
  0
LAYER
  5
CA4B
330
1EEB
100
AcDbSymbolTableRecord
100
AcDbLayerTableRecord
  2
1
 70
     0
 62
     8
  6
CONTINUOUS
370
    -3
390
1EF8
1001
AcAecLayerStandard
1000

1000

  0
LAYER
  5
1246F
330
1EEB
100
AcDbSymbolTableRecord
100
AcDbLayerTableRecord
  2
寸法・文字
 70
     0
 62
     4
  6
CONTINUOUS
370
    13
390
1EF8
1001
AcAecLayerStandard
1000

1000

  0
LAYER
  5
13854
330
1EEB
100
AcDbSymbolTableRecord
100
AcDbLayerTableRecord
  2
製品
 70
     0
 62
     1
  6
CONTINUOUS
370
    -3
390
1EF8
1001
AcAecLayerStandard
1000

1000

  0
ENDTAB
  0
TABLE
  2
STYLE
  5
1EEC
330
0
100
AcDbSymbolTable
 70
    15
  0
STYLE
  5
1EFA
330
1EEC
100
AcDbSymbolTableRecord
100
AcDbTextStyleTableRecord
  2
STANDARD
 70
     0
 40
280.0
 41
1.0
 50
0.0
 71
     0
 42
280.0
  3
MS Gothic.ttf
  4

1001
ACAD
1000
MS Gothic
1071
    32817
  0
STYLE
  5
1F2D
330
1EEC
100
AcDbSymbolTableRecord
100
AcDbTextStyleTableRecord
  2
ＤＨＰ平成ゴシックW5
 70
     0
 40
1000.0
 41
1.0
 50
0.0
 71
     0
 42
1000.0
  3
txt
  4
extfont
  0
STYLE
  5
1F2E
330
1EEC
100
AcDbSymbolTableRecord
100
AcDbTextStyleTableRecord
  2
TATEDRACAD
 70
     4
 40
1000.0
 41
1.0
 50
0.0
 71
     0
 42
1000.0
  3
txt
  4
extfont
  0
STYLE
  5
1F2F
330
1EEC
100
AcDbSymbolTableRecord
100
AcDbTextStyleTableRecord
  2
ＤＨＰ平成ゴシックW51
 70
     0
 40
1000.0
 41
1.0
 50
0.0
 71
     0
 42
1000.0
  3
txt
  4
extfont
  0
STYLE
  5
1F30
330
1EEC
100
AcDbSymbolTableRecord
100
AcDbTextStyleTableRecord
  2
ＪＳＰゴシック
 70
     0
 40
1000.0
 41
1.0
 50
0.0
 71
     0
 42
1000.0
  3
txt
  4
extfont
  0
STYLE
  5
1F31
330
1EEC
100
AcDbSymbolTableRecord
100
AcDbTextStyleTableRecord
  2
ＭＳ_ゴシック
 70
     0
 40
1000.0
 41
1.0
 50
0.0
 71
     0
 42
1000.0
  3
txt
  4
extfont
  0
STYLE
  5
A258
330
1EEC
100
AcDbSymbolTableRecord
100
AcDbTextStyleTableRecord
  2
スタイル1
 70
     0
 40
300.0
 41
1.0
 50
0.0
 71
     0
 42
300.0
  3
MS Gothic.ttf
  4

1001
ACAD
1000
MS Gothic
1071
    32817
  0
STYLE
  5
A547
330
1EEC
100
AcDbSymbolTableRecord
100
AcDbTextStyleTableRecord
  2
WMF-ＭＳ Ｐゴシック0
 70
     0
 40
0.0
 41
1.0
 50
0.0
 71
     0
 42
280.0
  3
MS PGothic.ttf
  4

1001
ACAD
1000
MS PGothic
1071
    32816
  0
STYLE
  5
A58D
330
1EEC
100
AcDbSymbolTableRecord
100
AcDbTextStyleTableRecord
  2
WMF-System0
 70
     0
 40
0.0
 41
1.0
 50
0.0
 71
     0
 42
280.0
  3

  4

  0
STYLE
  5
A81B
330
1EEC
100
AcDbSymbolTableRecord
100
AcDbTextStyleTableRecord
  2
ＭＳ ゴシック
 70
     0
 40
450.0
 41
0.85
 50
0.0
 71
     0
 42
450.0
  3
MS Gothic.ttf
  4

1001
ACAD
1000
MS Gothic
1071
    32817
  0
STYLE
  5
CA4C
330
1EEC
100
AcDbSymbolTableRecord
100
AcDbTextStyleTableRecord
  2
_______
 70
     0
 40
0.0
 41
1.0
 50
0.0
 71
     0
 42
0.0
  3
MS Gothic.ttf
  4
ＭＳ ゴシック
1001
ACAD
1000
ＭＳ ゴシック
1071
        0
  0
STYLE
  5
14676
330
1EEC
100
AcDbSymbolTableRecord
100
AcDbTextStyleTableRecord
  2
ヒラギノ角ゴ Pro W3
 70
     0
 40
0.0
 41
1.0
 50
0.0
 71
     0
 42
0.0
  3
MS Gothic.ttf
  4

1001
ACAD
1000
MS Gothic
1071
    32817
  0
ENDTAB
  0
TABLE
  2
VIEW
  5
1EEF
330
0
100
AcDbSymbolTable
 70
     0
  0
ENDTAB
  0
TABLE
  2
UCS
  5
1EF0
330
0
100
AcDbSymbolTable
 70
     0
  0
ENDTAB
  0
TABLE
  2
APPID
  5
1EF2
330
0
100
AcDbSymbolTable
 70
     3
  0
APPID
  5
1EFB
330
1EF2
100
AcDbSymbolTableRecord
100
AcDbRegAppTableRecord
  2
ACAD
 70
     0
  0
APPID
  5
9467
330
1EF2
100
AcDbSymbolTableRecord
100
AcDbRegAppTableRecord
  2
AcAecLayerStandard
 70
     0
  0
APPID
  5
9D2E
330
1EF2
100
AcDbSymbolTableRecord
100
AcDbRegAppTableRecord
  2
ACAD_PSEXT
 70
     0
  0
ENDTAB
  0
TABLE
  2
DIMSTYLE
  5
1EF3
330
0
100
AcDbSymbolTable
 70
     4
100
AcDbDimStyleTable
 71
     1
340
1F32
  0
DIMSTYLE
105
1F32
330
1EF3
100
AcDbSymbolTableRecord
100
AcDbDimStyleTableRecord
  2
STANDARD
 70
     0
279
     2
340
1EFA
  0
ENDTAB
  0
TABLE
  2
BLOCK_RECORD
  5
1EEA
330
0
100
AcDbSymbolTable
 70
     6
  0
BLOCK_RECORD
  5
1F07
102
{ACAD_XDICTIONARY
360
980C
102
}
330
1EEA
100
AcDbSymbolTableRecord
100
AcDbBlockTableRecord
  2
*Model_Space
340
1F0A
  0
BLOCK_RECORD
  5
1F03
330
1EEA
100
AcDbSymbolTableRecord
100
AcDbBlockTableRecord
  2
*Paper_Space
340
1F06
  0
BLOCK_RECORD
  5
429C
330
1EEA
100
AcDbSymbolTableRecord
100
AcDbBlockTableRecord
  2
_Open30
340
0
  0
BLOCK_RECORD
  5
A543
330
1EEA
100
AcDbSymbolTableRecord
100
AcDbBlockTableRecord
  2
WMF0
340
0
  0
BLOCK_RECORD
  5
1384E
330
1EEA
100
AcDbSymbolTableRecord
100
AcDbBlockTableRecord
  2
_Open
340
0
  0
ENDTAB
  0
ENDSEC
  0
SECTION
  2
BLOCKS
  0
BLOCK
  5
1F08
330
1F07
100
AcDbEntity
  8
0
100
AcDbBlockBegin
  2
*Model_Space
 70
     0
 10
0.0
 20
0.0
 30
0.0
  3
*Model_Space
  1

  0
ENDBLK
  5
1F09
330
1F07
100
AcDbEntity
  8
0
100
AcDbBlockEnd
  0
BLOCK
  5
1F04
330
1F03
100
AcDbEntity
 67
     1
  8
0
100
AcDbBlockBegin
  2
*Paper_Space
 70
     0
 10
0.0
 20
0.0
 30
0.0
  3
*Paper_Space
  1

  0
ENDBLK
  5
1F05
330
1F03
100
AcDbEntity
 67
     1
  8
0
100
AcDbBlockEnd
  0
BLOCK
  5
42A0
330
429C
100
AcDbEntity
  8
0
100
AcDbBlockBegin
  2
_Open30
 70
     0
 10
0.0
 20
0.0
 30
0.0
  3
_Open30
  1

  0
LINE
  5
429D
330
429C
100
AcDbEntity
  8
記号
  6
DOT
 62
     0
370
    -2
100
AcDbLine
 10
-1.0
 20
0.26794919
 30
0.0
 11
0.0
 21
0.0
 31
0.0
  0
LINE
  5
429E
330
429C
100
AcDbEntity
  8
記号
  6
DOT
 62
     0
370
    -2
100
AcDbLine
 10
0.0
 20
0.0
 30
0.0
 11
-1.0
 21
-0.26794919
 31
0.0
  0
LINE
  5
429F
330
429C
100
AcDbEntity
  8
記号
  6
DOT
 62
     0
370
    -2
100
AcDbLine
 10
0.0
 20
0.0
 30
0.0
 11
-1.0
 21
0.0
 31
0.0
  0
ENDBLK
  5
42A1
330
429C
100
AcDbEntity
  8
0
100
AcDbBlockEnd
  0
BLOCK
  5
A546
330
A543
100
AcDbEntity
  8
0
 62
     7
370
     0
100
AcDbBlockBegin
  2
WMF0
 70
     0
 10
0.0
 20
0.0
 30
0.0
  3
WMF0
  1

  0
TEXT
  5
A548
330
A543
100
AcDbEntity
  8
0
 62
     7
370
     0
100
AcDbText
 10
4302.31530976598
 20
-1290.694592929794
 30
0.0
 40
894.8815844313239
  1
LEDﾀﾞｳﾝﾗｲﾄ
  7
WMF-ＭＳ Ｐゴシック0
100
AcDbText
  0
TEXT
  5
A54A
330
A543
100
AcDbEntity
  8
0
 62
     7
370
     0
100
AcDbText
 10
23920.87312229885
 20
-1290.694592929794
 30
0.0
 40
894.8815844313239
  1
LEDﾀﾞｳﾝﾗｲﾄ
  7
WMF-ＭＳ Ｐゴシック0
100
AcDbText
  0
TEXT
  5
A54B
330
A543
100
AcDbEntity
  8
0
 62
     7
370
     0
100
AcDbText
 10
43539.43093483171
 20
-1290.694592929794
 30
0.0
 40
894.8815844313239
  1
LEDﾀﾞｳﾝﾗｲﾄ
  7
WMF-ＭＳ Ｐゴシック0
100
AcDbText
  0
TEXT
  5
A54C
330
A543
100
AcDbEntity
  8
0
 62
     7
370
     0
100
AcDbText
 10
63157.98874736458
 20
-1290.694592929794
 30
0.0
 40
894.8815844313239
  1
LEDﾀﾞｳﾝﾗｲﾄ
  7
WMF-ＭＳ Ｐゴシック0
100
AcDbText
  0
TEXT
  5
A54D
330
A543
100
AcDbEntity
  8
0
 62
     7
370
     0
100
AcDbText
 10
1290.694592929794
 20
-2753.481798250227
 30
0.0
 40
894.8815844313239
  1
D1
  7
WMF-ＭＳ Ｐゴシック0
100
AcDbText
  0
TEXT
  5
A54E
330
A543
100
AcDbEntity
  8
0
 62
     7
370
     0
100
AcDbText
 10
4302.31530976598
 20
-2753.481798250227
 30
0.0
 40
894.8815844313239
  1
BML-26181WW-110
  7
WMF-ＭＳ Ｐゴシック0
100
AcDbText
  0
TEXT
  5
A54F
330
A543
100
AcDbEntity
  8
0
 62
     7
370
     0
100
AcDbText
 10
20909.25240546266
 20
-2753.481798250227
 30
0.0
 40
894.8815844313239
  1
D2
  7
WMF-ＭＳ Ｐゴシック0
100
AcDbText
  0
TEXT
  5
A550
330
A543
100
AcDbEntity
  8
0
 62
     7
370
     0
100
AcDbText
 10
23920.87312229885
 20
-2753.481798250227
 30
0.0
 40
894.8815844313239
  1
BML-26187WW-110
  7
WMF-ＭＳ Ｐゴシック0
100
AcDbText
  0
TEXT
  5
A551
330
A543
100
AcDbEntity
  8
0
 62
     7
370
     0
100
AcDbText
 10
40527.81021799553
 20
-2753.481798250227
 30
0.0
 40
894.8815844313239
  1
D3
  7
WMF-ＭＳ Ｐゴシック0
100
AcDbText
  0
TEXT
  5
A552
330
A543
100
AcDbEntity
  8
0
 62
     7
370
     0
100
AcDbText
 10
43539.43093483171
 20
-2753.481798250227
 30
0.0
 40
894.8815844313239
  1
BML-26199WW-110
  7
WMF-ＭＳ Ｐゴシック0
100
AcDbText
  0
TEXT
  5
A553
330
A543
100
AcDbEntity
  8
0
 62
     7
370
     0
100
AcDbText
 10
60146.36803052839
 20
-2753.481798250227
 30
0.0
 40
894.8815844313239
  1
D4
  7
WMF-ＭＳ Ｐゴシック0
100
AcDbText
  0
TEXT
  5
A554
330
A543
100
AcDbEntity
  8
0
 62
     7
370
     0
100
AcDbText
 10
63157.98874736458
 20
-2753.481798250227
 30
0.0
 40
894.8815844313239
  1
BML-26213WL-110
  7
WMF-ＭＳ Ｐゴシック0
100
AcDbText
  0
TEXT
  5
A555
330
A543
100
AcDbEntity
  8
0
 62
     7
370
     0
100
AcDbText
 10
9637.186293875796
 20
-4216.26900357066
 30
0.0
 40
894.8815844313239
  1
LED76W  (4500K)
  7
WMF-ＭＳ Ｐゴシック0
100
AcDbText
  0
TEXT
  5
A556
330
A543
100
AcDbEntity
  8
0
 62
     7
370
     0
100
AcDbText
 10
29255.74410640866
 20
-4216.26900357066
 30
0.0
 40
894.8815844313239
  1
LED54W  (4500K)
  7
WMF-ＭＳ Ｐゴシック0
100
AcDbText
  0
TEXT
  5
A557
330
A543
100
AcDbEntity
  8
0
 62
     7
370
     0
100
AcDbText
 10
48874.30191894153
 20
-4216.26900357066
 30
0.0
 40
894.8815844313239
  1
LED32W  (4500K)
  7
WMF-ＭＳ Ｐゴシック0
100
AcDbText
  0
TEXT
  5
A558
330
A543
100
AcDbEntity
  8
0
 62
     7
370
     0
100
AcDbText
 10
68492.8597314744
 20
-4216.26900357066
 30
0.0
 40
894.8815844313239
  1
LED17W  (2900K)
  7
WMF-ＭＳ Ｐゴシック0
100
AcDbText
  0
TEXT
  5
A559
330
A543
100
AcDbEntity
  8
0
 62
     7
370
     0
100
AcDbText
 10
4302.31530976598
 20
-20823.20609926735
 30
0.0
 40
894.8815844313239
  1
 
  7
WMF-ＭＳ Ｐゴシック0
100
AcDbText
  0
TEXT
  5
A55A
330
A543
100
AcDbEntity
  8
0
 62
     7
370
     0
100
AcDbText
 10
23920.87312229885
 20
-20823.20609926735
 30
0.0
 40
894.8815844313239
  1
 
  7
WMF-ＭＳ Ｐゴシック0
100
AcDbText
  0
TEXT
  5
A55B
330
A543
100
AcDbEntity
  8
0
 62
     7
370
     0
100
AcDbText
 10
43539.43093483171
 20
-20823.20609926735
 30
0.0
 40
894.8815844313239
  1
 
  7
WMF-ＭＳ Ｐゴシック0
100
AcDbText
  0
TEXT
  5
A55C
330
A543
100
AcDbEntity
  8
0
 62
     7
370
     0
100
AcDbText
 10
63157.98874736458
 20
-20823.20609926735
 30
0.0
 40
894.8815844313239
  1
 
  7
WMF-ＭＳ Ｐゴシック0
100
AcDbText
  0
TEXT
  5
A55D
330
A543
100
AcDbEntity
  8
0
 62
     7
370
     0
100
AcDbText
 10
4302.31530976598
 20
-24006.91942849417
 30
0.0
 40
894.8815844313239
  1
LED直管型ﾗｲﾄ
  7
WMF-ＭＳ Ｐゴシック0
100
AcDbText
  0
TEXT
  5
A55E
330
A543
100
AcDbEntity
  8
0
 62
     7
370
     0
100
AcDbText
 10
23920.87312229885
 20
-24006.91942849417
 30
0.0
 40
894.8815844313239
  1
LED軒下用ﾀﾞｳﾝﾗｲﾄ
  7
WMF-ＭＳ Ｐゴシック0
100
AcDbText
  0
TEXT
  5
A55F
330
A543
100
AcDbEntity
  8
0
 62
     7
370
     0
100
AcDbText
 10
43539.43093483171
 20
-24006.91942849417
 30
0.0
 40
894.8815844313239
  1
LEDｱｳﾄﾄﾞｱｽﾎﾟｯﾄﾗｲﾄ
  7
WMF-ＭＳ Ｐゴシック0
100
AcDbText
  0
TEXT
  5
A560
330
A543
100
AcDbEntity
  8
0
 62
     7
370
     0
100
AcDbText
 10
63157.98874736458
 20
-24006.91942849417
 30
0.0
 40
894.8815844313239
  1
LEDﾀﾞｳﾝﾗｲﾄ
  7
WMF-ＭＳ Ｐゴシック0
100
AcDbText
  0
TEXT
  5
A561
330
A543
100
AcDbEntity
  8
0
 62
     7
370
     0
100
AcDbText
 10
1376.740899125113
 20
-25469.7066338146
 30
0.0
 40
894.8815844313239
  1
F1
  7
WMF-ＭＳ Ｐゴシック0
100
AcDbText
  0
TEXT
  5
A562
330
A543
100
AcDbEntity
  8
0
 62
     7
370
     0
100
AcDbText
 10
4302.31530976598
 20
-25469.7066338146
 30
0.0
 40
894.8815844313239
  1
TBJKL-22006W
  7
WMF-ＭＳ Ｐゴシック0
100
AcDbText
  0
TEXT
  5
A563
330
A543
100
AcDbEntity
  8
0
 62
     7
370
     0
100
AcDbText
 10
20479.02087448607
 20
-25469.7066338146
 30
0.0
 40
894.8815844313239
  1
OD1
  7
WMF-ＭＳ Ｐゴシック0
100
AcDbText
  0
TEXT
  5
A564
330
A543
100
AcDbEntity
  8
0
 62
     7
370
     0
100
AcDbText
 10
23920.87312229885
 20
-25469.7066338146
 30
0.0
 40
894.8815844313239
  1
BML-26187WSW-110
  7
WMF-ＭＳ Ｐゴシック0
100
AcDbText
  0
TEXT
  5
A565
330
A543
100
AcDbEntity
  8
0
 62
     7
370
     0
100
AcDbText
 10
40097.57868701893
 20
-25469.7066338146
 30
0.0
 40
894.8815844313239
  1
OS1
  7
WMF-ＭＳ Ｐゴシック0
100
AcDbText
  0
TEXT
  5
A566
330
A543
100
AcDbEntity
  8
0
 62
     7
370
     0
100
AcDbText
 10
43539.43093483171
 20
-25469.7066338146
 30
0.0
 40
894.8815844313239
  1
BGSL-20045GW-20
  7
WMF-ＭＳ Ｐゴシック0
100
AcDbText
  0
TEXT
  5
A567
330
A543
100
AcDbEntity
  8
0
 62
     7
370
     0
100
AcDbText
 10
60576.59956150499
 20
-25469.7066338146
 30
0.0
 40
894.8815844313239
  1
0
  7
WMF-ＭＳ Ｐゴシック0
100
AcDbText
  0
TEXT
  5
A568
330
A543
100
AcDbEntity
  8
0
 62
     7
370
     0
100
AcDbText
 10
63157.98874736458
 20
-25469.7066338146
 30
0.0
 40
894.8815844313239
  1
BML-26160WW-120
  7
WMF-ＭＳ Ｐゴシック0
100
AcDbText
  0
TEXT
  5
A569
330
A543
100
AcDbEntity
  8
0
 62
     7
370
     0
100
AcDbText
 10
9637.186293875796
 20
-26932.49383913503
 30
0.0
 40
894.8815844313239
  1
LED38W  (4000K)
  7
WMF-ＭＳ Ｐゴシック0
100
AcDbText
  0
TEXT
  5
A56A
330
A543
100
AcDbEntity
  8
0
 62
     7
370
     0
100
AcDbText
 10
29255.74410640866
 20
-26932.49383913503
 30
0.0
 40
894.8815844313239
  1
LED54W  (4500K)
  7
WMF-ＭＳ Ｐゴシック0
100
AcDbText
  0
TEXT
  5
A56B
330
A543
100
AcDbEntity
  8
0
 62
     7
370
     0
100
AcDbText
 10
48874.30191894153
 20
-26932.49383913503
 30
0.0
 40
894.8815844313239
  1
LED68W  (4500K)
  7
WMF-ＭＳ Ｐゴシック0
100
AcDbText
  0
TEXT
  5
A56C
330
A543
100
AcDbEntity
  8
0
 62
     7
370
     0
100
AcDbText
 10
77613.76818817828
 20
-26932.49383913503
 30
0.0
 40
894.8815844313239
  1
0
  7
WMF-ＭＳ Ｐゴシック0
100
AcDbText
  0
TEXT
  5
A56D
330
A543
100
AcDbEntity
  8
0
 62
     7
370
     0
100
AcDbText
 10
4302.31530976598
 20
-46723.14426405853
 30
0.0
 40
894.8815844313239
  1
LEDﾀﾞｳﾝﾗｲﾄ
  7
WMF-ＭＳ Ｐゴシック0
100
AcDbText
  0
TEXT
  5
A56E
330
A543
100
AcDbEntity
  8
0
 62
     7
370
     0
100
AcDbText
 10
23920.87312229885
 20
-46723.14426405853
 30
0.0
 40
894.8815844313239
  1
LEDﾀﾞｳﾝﾗｲﾄ
  7
WMF-ＭＳ Ｐゴシック0
100
AcDbText
  0
TEXT
  5
A56F
330
A543
100
AcDbEntity
  8
0
 62
     7
370
     0
100
AcDbText
 10
43539.43093483171
 20
-46723.14426405853
 30
0.0
 40
894.8815844313239
  1
LEDﾀﾞｳﾝﾗｲﾄ
  7
WMF-ＭＳ Ｐゴシック0
100
AcDbText
  0
TEXT
  5
A570
330
A543
100
AcDbEntity
  8
0
 62
     7
370
     0
100
AcDbText
 10
63157.98874736458
 20
-46723.14426405853
 30
0.0
 40
894.8815844313239
  1
LEDﾀﾞｳﾝﾗｲﾄ
  7
WMF-ＭＳ Ｐゴシック0
100
AcDbText
  0
TEXT
  5
A571
330
A543
100
AcDbEntity
  8
0
 62
     7
370
     0
100
AcDbText
 10
1720.926123906392
 20
-48185.93146937897
 30
0.0
 40
894.8815844313239
  1
0
  7
WMF-ＭＳ Ｐゴシック0
100
AcDbText
  0
TEXT
  5
A572
330
A543
100
AcDbEntity
  8
0
 62
     7
370
     0
100
AcDbText
 10
4302.31530976598
 20
-48185.93146937897
 30
0.0
 40
894.8815844313239
  1
BML-26160WW-124
  7
WMF-ＭＳ Ｐゴシック0
100
AcDbText
  0
TEXT
  5
A573
330
A543
100
AcDbEntity
  8
0
 62
     7
370
     0
100
AcDbText
 10
21339.48393643926
 20
-48185.93146937897
 30
0.0
 40
894.8815844313239
  1
0
  7
WMF-ＭＳ Ｐゴシック0
100
AcDbText
  0
TEXT
  5
A574
330
A543
100
AcDbEntity
  8
0
 62
     7
370
     0
100
AcDbText
 10
23920.87312229885
 20
-48185.93146937897
 30
0.0
 40
894.8815844313239
  1
BML-26160WW-125
  7
WMF-ＭＳ Ｐゴシック0
100
AcDbText
  0
TEXT
  5
A575
330
A543
100
AcDbEntity
  8
0
 62
     7
370
     0
100
AcDbText
 10
40958.04174897213
 20
-48185.93146937897
 30
0.0
 40
894.8815844313239
  1
0
  7
WMF-ＭＳ Ｐゴシック0
100
AcDbText
  0
TEXT
  5
A576
330
A543
100
AcDbEntity
  8
0
 62
     7
370
     0
100
AcDbText
 10
43539.43093483171
 20
-48185.93146937897
 30
0.0
 40
894.8815844313239
  1
BML-26160WW-126
  7
WMF-ＭＳ Ｐゴシック0
100
AcDbText
  0
TEXT
  5
A577
330
A543
100
AcDbEntity
  8
0
 62
     7
370
     0
100
AcDbText
 10
60576.59956150499
 20
-48185.93146937897
 30
0.0
 40
894.8815844313239
  1
0
  7
WMF-ＭＳ Ｐゴシック0
100
AcDbText
  0
TEXT
  5
A578
330
A543
100
AcDbEntity
  8
0
 62
     7
370
     0
100
AcDbText
 10
63157.98874736458
 20
-48185.93146937897
 30
0.0
 40
894.8815844313239
  1
BML-26160WW-127
  7
WMF-ＭＳ Ｐゴシック0
100
AcDbText
  0
TEXT
  5
A579
330
A543
100
AcDbEntity
  8
0
 62
     7
370
     0
100
AcDbText
 10
18758.09475057967
 20
-49648.7186746994
 30
0.0
 40
894.8815844313239
  1
0
  7
WMF-ＭＳ Ｐゴシック0
100
AcDbText
  0
TEXT
  5
A57A
330
A543
100
AcDbEntity
  8
0
 62
     7
370
     0
100
AcDbText
 10
38376.65256311254
 20
-49648.7186746994
 30
0.0
 40
894.8815844313239
  1
0
  7
WMF-ＭＳ Ｐゴシック0
100
AcDbText
  0
TEXT
  5
A57B
330
A543
100
AcDbEntity
  8
0
 62
     7
370
     0
100
AcDbText
 10
57995.21037564541
 20
-49648.7186746994
 30
0.0
 40
894.8815844313239
  1
0
  7
WMF-ＭＳ Ｐゴシック0
100
AcDbText
  0
TEXT
  5
A57C
330
A543
100
AcDbEntity
  8
0
 62
     7
370
     0
100
AcDbText
 10
77613.76818817828
 20
-49648.7186746994
 30
0.0
 40
894.8815844313239
  1
0
  7
WMF-ＭＳ Ｐゴシック0
100
AcDbText
  0
TEXT
  5
A57D
330
A543
100
AcDbEntity
  8
0
 62
     7
370
     0
100
AcDbText
 10
4302.31530976598
 20
-69439.36909962291
 30
0.0
 40
894.8815844313239
  1
LEDﾀﾞｳﾝﾗｲﾄ
  7
WMF-ＭＳ Ｐゴシック0
100
AcDbText
  0
TEXT
  5
A57E
330
A543
100
AcDbEntity
  8
0
 62
     7
370
     0
100
AcDbText
 10
23920.87312229885
 20
-69439.36909962291
 30
0.0
 40
894.8815844313239
  1
LEDﾀﾞｳﾝﾗｲﾄ
  7
WMF-ＭＳ Ｐゴシック0
100
AcDbText
  0
TEXT
  5
A57F
330
A543
100
AcDbEntity
  8
0
 62
     7
370
     0
100
AcDbText
 10
43539.43093483171
 20
-69439.36909962291
 30
0.0
 40
894.8815844313239
  1
LEDﾀﾞｳﾝﾗｲﾄ
  7
WMF-ＭＳ Ｐゴシック0
100
AcDbText
  0
TEXT
  5
A580
330
A543
100
AcDbEntity
  8
0
 62
     7
370
     0
100
AcDbText
 10
63157.98874736458
 20
-69439.36909962291
 30
0.0
 40
894.8815844313239
  1
LEDﾀﾞｳﾝﾗｲﾄ
  7
WMF-ＭＳ Ｐゴシック0
100
AcDbText
  0
TEXT
  5
A581
330
A543
100
AcDbEntity
  8
0
 62
     7
370
     0
100
AcDbText
 10
1720.926123906392
 20
-70902.15630494334
 30
0.0
 40
894.8815844313239
  1
0
  7
WMF-ＭＳ Ｐゴシック0
100
AcDbText
  0
TEXT
  5
A582
330
A543
100
AcDbEntity
  8
0
 62
     7
370
     0
100
AcDbText
 10
18758.09475057967
 20
-70902.15630494334
 30
0.0
 40
894.8815844313239
  1
0
  7
WMF-ＭＳ Ｐゴシック0
100
AcDbText
  0
TEXT
  5
A583
330
A543
100
AcDbEntity
  8
0
 62
     7
370
     0
100
AcDbText
 10
21339.48393643926
 20
-70902.15630494334
 30
0.0
 40
894.8815844313239
  1
0
  7
WMF-ＭＳ Ｐゴシック0
100
AcDbText
  0
TEXT
  5
A584
330
A543
100
AcDbEntity
  8
0
 62
     7
370
     0
100
AcDbText
 10
38376.65256311254
 20
-70902.15630494334
 30
0.0
 40
894.8815844313239
  1
0
  7
WMF-ＭＳ Ｐゴシック0
100
AcDbText
  0
TEXT
  5
A585
330
A543
100
AcDbEntity
  8
0
 62
     7
370
     0
100
AcDbText
 10
40958.04174897213
 20
-70902.15630494334
 30
0.0
 40
894.8815844313239
  1
0
  7
WMF-ＭＳ Ｐゴシック0
100
AcDbText
  0
TEXT
  5
A586
330
A543
100
AcDbEntity
  8
0
 62
     7
370
     0
100
AcDbText
 10
57995.21037564541
 20
-70902.15630494334
 30
0.0
 40
894.8815844313239
  1
0
  7
WMF-ＭＳ Ｐゴシック0
100
AcDbText
  0
TEXT
  5
A587
330
A543
100
AcDbEntity
  8
0
 62
     7
370
     0
100
AcDbText
 10
60576.59956150499
 20
-70902.15630494334
 30
0.0
 40
894.8815844313239
  1
0
  7
WMF-ＭＳ Ｐゴシック0
100
AcDbText
  0
TEXT
  5
A588
330
A543
100
AcDbEntity
  8
0
 62
     7
370
     0
100
AcDbText
 10
77613.76818817828
 20
-70902.15630494334
 30
0.0
 40
894.8815844313239
  1
0
  7
WMF-ＭＳ Ｐゴシック0
100
AcDbText
  0
TEXT
  5
A589
330
A543
100
AcDbEntity
  8
0
 62
     7
370
     0
100
AcDbText
 10
18758.09475057967
 20
-72364.94351026378
 30
0.0
 40
894.8815844313239
  1
0
  7
WMF-ＭＳ Ｐゴシック0
100
AcDbText
  0
TEXT
  5
A58A
330
A543
100
AcDbEntity
  8
0
 62
     7
370
     0
100
AcDbText
 10
38376.65256311254
 20
-72364.94351026378
 30
0.0
 40
894.8815844313239
  1
0
  7
WMF-ＭＳ Ｐゴシック0
100
AcDbText
  0
TEXT
  5
A58B
330
A543
100
AcDbEntity
  8
0
 62
     7
370
     0
100
AcDbText
 10
57995.21037564541
 20
-72364.94351026378
 30
0.0
 40
894.8815844313239
  1
0
  7
WMF-ＭＳ Ｐゴシック0
100
AcDbText
  0
TEXT
  5
A58C
330
A543
100
AcDbEntity
  8
0
 62
     7
370
     0
100
AcDbText
 10
77613.76818817828
 20
-72364.94351026378
 30
0.0
 40
894.8815844313239
  1
0
  7
WMF-ＭＳ Ｐゴシック0
100
AcDbText
  0
POLYLINE
  5
A58E
330
A543
100
AcDbEntity
  8
0
 62
     7
370
     0
100
AcDb2dPolyline
 66
     1
 10
0.0
 20
0.0
 30
0.0
  0
VERTEX
  5
A58F
330
A58E
100
AcDbEntity
  8
0
 62
     7
370
     0
100
AcDbVertex
100
AcDb2dVertex
 10
4130.22269737534
 20
-1462.787205320433
 30
0.0
  0
VERTEX
  5
A590
330
A58E
100
AcDbEntity
  8
0
 62
     7
370
     0
100
AcDbVertex
100
AcDb2dVertex
 10
19704.60411872819
 20
-1462.787205320433
 30
0.0
  0
SEQEND
  5
A591
330
A58E
100
AcDbEntity
  8
0
 62
     7
370
     0
  0
POLYLINE
  5
A592
330
A543
100
AcDbEntity
  8
0
 62
     7
370
     0
100
AcDb2dPolyline
 66
     1
 10
0.0
 20
0.0
 30
0.0
  0
VERTEX
  5
A593
330
A592
100
AcDbEntity
  8
0
 62
     7
370
     0
100
AcDbVertex
100
AcDb2dVertex
 10
23748.78050990821
 20
-1462.787205320433
 30
0.0
  0
VERTEX
  5
A594
330
A592
100
AcDbEntity
  8
0
 62
     7
370
     0
100
AcDbVertex
100
AcDb2dVertex
 10
39323.16193126106
 20
-1462.787205320433
 30
0.0
  0
SEQEND
  5
A595
330
A592
100
AcDbEntity
  8
0
 62
     7
370
     0
  0
POLYLINE
  5
A596
330
A543
100
AcDbEntity
  8
0
 62
     7
370
     0
100
AcDb2dPolyline
 66
     1
 10
0.0
 20
0.0
 30
0.0
  0
VERTEX
  5
A597
330
A596
100
AcDbEntity
  8
0
 62
     7
370
     0
100
AcDbVertex
100
AcDb2dVertex
 10
43367.33832244107
 20
-1462.787205320433
 30
0.0
  0
VERTEX
  5
A598
330
A596
100
AcDbEntity
  8
0
 62
     7
370
     0
100
AcDbVertex
100
AcDb2dVertex
 10
58941.71974379392
 20
-1462.787205320433
 30
0.0
  0
SEQEND
  5
A599
330
A596
100
AcDbEntity
  8
0
 62
     7
370
     0
  0
POLYLINE
  5
A59A
330
A543
100
AcDbEntity
  8
0
 62
     7
370
     0
100
AcDb2dPolyline
 66
     1
 10
0.0
 20
0.0
 30
0.0
  0
VERTEX
  5
A59B
330
A59A
100
AcDbEntity
  8
0
 62
     7
370
     0
100
AcDbVertex
100
AcDb2dVertex
 10
4044.176391180021
 20
-86.04630619531958
 30
0.0
  0
VERTEX
  5
A59C
330
A59A
100
AcDbEntity
  8
0
 62
     7
370
     0
100
AcDbVertex
100
AcDb2dVertex
 10
4044.176391180021
 20
-4474.407922156618
 30
0.0
  0
SEQEND
  5
A59D
330
A59A
100
AcDbEntity
  8
0
 62
     7
370
     0
  0
POLYLINE
  5
A59E
330
A543
100
AcDbEntity
  8
0
 62
     7
370
     0
100
AcDb2dPolyline
 66
     1
 10
0.0
 20
0.0
 30
0.0
  0
VERTEX
  5
A59F
330
A59E
100
AcDbEntity
  8
0
 62
     7
370
     0
100
AcDbVertex
100
AcDb2dVertex
 10
23662.73420371289
 20
-86.04630619531958
 30
0.0
  0
VERTEX
  5
A5A0
330
A59E
100
AcDbEntity
  8
0
 62
     7
370
     0
100
AcDbVertex
100
AcDb2dVertex
 10
23662.73420371289
 20
-4474.407922156618
 30
0.0
  0
SEQEND
  5
A5A1
330
A59E
100
AcDbEntity
  8
0
 62
     7
370
     0
  0
POLYLINE
  5
A5A2
330
A543
100
AcDbEntity
  8
0
 62
     7
370
     0
100
AcDb2dPolyline
 66
     1
 10
0.0
 20
0.0
 30
0.0
  0
VERTEX
  5
A5A3
330
A5A2
100
AcDbEntity
  8
0
 62
     7
370
     0
100
AcDbVertex
100
AcDb2dVertex
 10
43281.29201624575
 20
-86.04630619531958
 30
0.0
  0
VERTEX
  5
A5A4
330
A5A2
100
AcDbEntity
  8
0
 62
     7
370
     0
100
AcDbVertex
100
AcDb2dVertex
 10
43281.29201624575
 20
-4474.407922156618
 30
0.0
  0
SEQEND
  5
A5A5
330
A5A2
100
AcDbEntity
  8
0
 62
     7
370
     0
  0
POLYLINE
  5
A5A6
330
A543
100
AcDbEntity
  8
0
 62
     7
370
     0
100
AcDb2dPolyline
 66
     1
 10
0.0
 20
0.0
 30
0.0
  0
VERTEX
  5
A5A7
330
A5A6
100
AcDbEntity
  8
0
 62
     7
370
     0
100
AcDbVertex
100
AcDb2dVertex
 10
62899.84982877862
 20
-86.04630619531958
 30
0.0
  0
VERTEX
  5
A5A8
330
A5A6
100
AcDbEntity
  8
0
 62
     7
370
     0
100
AcDbVertex
100
AcDb2dVertex
 10
62899.84982877862
 20
-4474.407922156618
 30
0.0
  0
SEQEND
  5
A5A9
330
A5A6
100
AcDbEntity
  8
0
 62
     7
370
     0
  0
POLYLINE
  5
A5AA
330
A543
100
AcDbEntity
  8
0
 62
     7
370
     0
100
AcDb2dPolyline
 66
     1
 10
0.0
 20
0.0
 30
0.0
  0
VERTEX
  5
A5AB
330
A5AA
100
AcDbEntity
  8
0
 62
     7
370
     0
100
AcDbVertex
100
AcDb2dVertex
 10
4130.22269737534
 20
-24179.0120408848
 30
0.0
  0
VERTEX
  5
A5AC
330
A5AA
100
AcDbEntity
  8
0
 62
     7
370
     0
100
AcDbVertex
100
AcDb2dVertex
 10
19704.60411872819
 20
-24179.0120408848
 30
0.0
  0
SEQEND
  5
A5AD
330
A5AA
100
AcDbEntity
  8
0
 62
     7
370
     0
  0
POLYLINE
  5
A5AE
330
A543
100
AcDbEntity
  8
0
 62
     7
370
     0
100
AcDb2dPolyline
 66
     1
 10
0.0
 20
0.0
 30
0.0
  0
VERTEX
  5
A5AF
330
A5AE
100
AcDbEntity
  8
0
 62
     7
370
     0
100
AcDbVertex
100
AcDb2dVertex
 10
23748.78050990821
 20
-24179.0120408848
 30
0.0
  0
VERTEX
  5
A5B0
330
A5AE
100
AcDbEntity
  8
0
 62
     7
370
     0
100
AcDbVertex
100
AcDb2dVertex
 10
39323.16193126106
 20
-24179.0120408848
 30
0.0
  0
SEQEND
  5
A5B1
330
A5AE
100
AcDbEntity
  8
0
 62
     7
370
     0
  0
POLYLINE
  5
A5B2
330
A543
100
AcDbEntity
  8
0
 62
     7
370
     0
100
AcDb2dPolyline
 66
     1
 10
0.0
 20
0.0
 30
0.0
  0
VERTEX
  5
A5B3
330
A5B2
100
AcDbEntity
  8
0
 62
     7
370
     0
100
AcDbVertex
100
AcDb2dVertex
 10
43367.33832244107
 20
-24179.0120408848
 30
0.0
  0
VERTEX
  5
A5B4
330
A5B2
100
AcDbEntity
  8
0
 62
     7
370
     0
100
AcDbVertex
100
AcDb2dVertex
 10
58941.71974379392
 20
-24179.0120408848
 30
0.0
  0
SEQEND
  5
A5B5
330
A5B2
100
AcDbEntity
  8
0
 62
     7
370
     0
  0
POLYLINE
  5
A5B6
330
A543
100
AcDbEntity
  8
0
 62
     7
370
     0
100
AcDb2dPolyline
 66
     1
 10
0.0
 20
0.0
 30
0.0
  0
VERTEX
  5
A5B7
330
A5B6
100
AcDbEntity
  8
0
 62
     7
370
     0
100
AcDbVertex
100
AcDb2dVertex
 10
4044.176391180021
 20
-22802.27114175969
 30
0.0
  0
VERTEX
  5
A5B8
330
A5B6
100
AcDbEntity
  8
0
 62
     7
370
     0
100
AcDbVertex
100
AcDb2dVertex
 10
4044.176391180021
 20
-27190.63275772099
 30
0.0
  0
SEQEND
  5
A5B9
330
A5B6
100
AcDbEntity
  8
0
 62
     7
370
     0
  0
POLYLINE
  5
A5BA
330
A543
100
AcDbEntity
  8
0
 62
     7
370
     0
100
AcDb2dPolyline
 66
     1
 10
0.0
 20
0.0
 30
0.0
  0
VERTEX
  5
A5BB
330
A5BA
100
AcDbEntity
  8
0
 62
     7
370
     0
100
AcDbVertex
100
AcDb2dVertex
 10
23662.73420371289
 20
-22802.27114175969
 30
0.0
  0
VERTEX
  5
A5BC
330
A5BA
100
AcDbEntity
  8
0
 62
     7
370
     0
100
AcDbVertex
100
AcDb2dVertex
 10
23662.73420371289
 20
-27190.63275772099
 30
0.0
  0
SEQEND
  5
A5BD
330
A5BA
100
AcDbEntity
  8
0
 62
     7
370
     0
  0
POLYLINE
  5
A5BE
330
A543
100
AcDbEntity
  8
0
 62
     7
370
     0
100
AcDb2dPolyline
 66
     1
 10
0.0
 20
0.0
 30
0.0
  0
VERTEX
  5
A5BF
330
A5BE
100
AcDbEntity
  8
0
 62
     7
370
     0
100
AcDbVertex
100
AcDb2dVertex
 10
43281.29201624575
 20
-22802.27114175969
 30
0.0
  0
VERTEX
  5
A5C0
330
A5BE
100
AcDbEntity
  8
0
 62
     7
370
     0
100
AcDbVertex
100
AcDb2dVertex
 10
43281.29201624575
 20
-27190.63275772099
 30
0.0
  0
SEQEND
  5
A5C1
330
A5BE
100
AcDbEntity
  8
0
 62
     7
370
     0
  0
POLYLINE
  5
A5C2
330
A543
100
AcDbEntity
  8
0
 62
     7
370
     0
100
AcDb2dPolyline
 66
     1
 10
0.0
 20
0.0
 30
0.0
  0
VERTEX
  5
A5C3
330
A5C2
100
AcDbEntity
  8
0
 62
     7
370
     0
100
AcDbVertex
100
AcDb2dVertex
 10
62899.84982877862
 20
-22802.27114175969
 30
0.0
  0
VERTEX
  5
A5C4
330
A5C2
100
AcDbEntity
  8
0
 62
     7
370
     0
100
AcDbVertex
100
AcDb2dVertex
 10
62899.84982877862
 20
-27190.63275772099
 30
0.0
  0
SEQEND
  5
A5C5
330
A5C2
100
AcDbEntity
  8
0
 62
     7
370
     0
  0
POLYLINE
  5
A5C6
330
A543
100
AcDbEntity
  8
0
 62
     7
370
     0
100
AcDb2dPolyline
 66
     1
 10
0.0
 20
0.0
 30
0.0
  0
VERTEX
  5
A5C7
330
A5C6
100
AcDbEntity
  8
0
 62
     7
370
     0
100
AcDbVertex
100
AcDb2dVertex
 10
4130.22269737534
 20
-46895.23687644918
 30
0.0
  0
VERTEX
  5
A5C8
330
A5C6
100
AcDbEntity
  8
0
 62
     7
370
     0
100
AcDbVertex
100
AcDb2dVertex
 10
19704.60411872819
 20
-46895.23687644918
 30
0.0
  0
SEQEND
  5
A5C9
330
A5C6
100
AcDbEntity
  8
0
 62
     7
370
     0
  0
POLYLINE
  5
A5CA
330
A543
100
AcDbEntity
  8
0
 62
     7
370
     0
100
AcDb2dPolyline
 66
     1
 10
0.0
 20
0.0
 30
0.0
  0
VERTEX
  5
A5CB
330
A5CA
100
AcDbEntity
  8
0
 62
     7
370
     0
100
AcDbVertex
100
AcDb2dVertex
 10
23748.78050990821
 20
-46895.23687644918
 30
0.0
  0
VERTEX
  5
A5CC
330
A5CA
100
AcDbEntity
  8
0
 62
     7
370
     0
100
AcDbVertex
100
AcDb2dVertex
 10
39323.16193126106
 20
-46895.23687644918
 30
0.0
  0
SEQEND
  5
A5CD
330
A5CA
100
AcDbEntity
  8
0
 62
     7
370
     0
  0
POLYLINE
  5
A5CE
330
A543
100
AcDbEntity
  8
0
 62
     7
370
     0
100
AcDb2dPolyline
 66
     1
 10
0.0
 20
0.0
 30
0.0
  0
VERTEX
  5
A5CF
330
A5CE
100
AcDbEntity
  8
0
 62
     7
370
     0
100
AcDbVertex
100
AcDb2dVertex
 10
43367.33832244107
 20
-46895.23687644918
 30
0.0
  0
VERTEX
  5
A5D0
330
A5CE
100
AcDbEntity
  8
0
 62
     7
370
     0
100
AcDbVertex
100
AcDb2dVertex
 10
58941.71974379392
 20
-46895.23687644918
 30
0.0
  0
SEQEND
  5
A5D1
330
A5CE
100
AcDbEntity
  8
0
 62
     7
370
     0
  0
POLYLINE
  5
A5D2
330
A543
100
AcDbEntity
  8
0
 62
     7
370
     0
100
AcDb2dPolyline
 66
     1
 10
0.0
 20
0.0
 30
0.0
  0
VERTEX
  5
A5D3
330
A5D2
100
AcDbEntity
  8
0
 62
     7
370
     0
100
AcDbVertex
100
AcDb2dVertex
 10
4044.176391180021
 20
-45518.49597732406
 30
0.0
  0
VERTEX
  5
A5D4
330
A5D2
100
AcDbEntity
  8
0
 62
     7
370
     0
100
AcDbVertex
100
AcDb2dVertex
 10
4044.176391180021
 20
-49906.85759328536
 30
0.0
  0
SEQEND
  5
A5D5
330
A5D2
100
AcDbEntity
  8
0
 62
     7
370
     0
  0
POLYLINE
  5
A5D6
330
A543
100
AcDbEntity
  8
0
 62
     7
370
     0
100
AcDb2dPolyline
 66
     1
 10
0.0
 20
0.0
 30
0.0
  0
VERTEX
  5
A5D7
330
A5D6
100
AcDbEntity
  8
0
 62
     7
370
     0
100
AcDbVertex
100
AcDb2dVertex
 10
23662.73420371289
 20
-45518.49597732406
 30
0.0
  0
VERTEX
  5
A5D8
330
A5D6
100
AcDbEntity
  8
0
 62
     7
370
     0
100
AcDbVertex
100
AcDb2dVertex
 10
23662.73420371289
 20
-49906.85759328536
 30
0.0
  0
SEQEND
  5
A5D9
330
A5D6
100
AcDbEntity
  8
0
 62
     7
370
     0
  0
POLYLINE
  5
A5DA
330
A543
100
AcDbEntity
  8
0
 62
     7
370
     0
100
AcDb2dPolyline
 66
     1
 10
0.0
 20
0.0
 30
0.0
  0
VERTEX
  5
A5DB
330
A5DA
100
AcDbEntity
  8
0
 62
     7
370
     0
100
AcDbVertex
100
AcDb2dVertex
 10
43281.29201624575
 20
-45518.49597732406
 30
0.0
  0
VERTEX
  5
A5DC
330
A5DA
100
AcDbEntity
  8
0
 62
     7
370
     0
100
AcDbVertex
100
AcDb2dVertex
 10
43281.29201624575
 20
-49906.85759328536
 30
0.0
  0
SEQEND
  5
A5DD
330
A5DA
100
AcDbEntity
  8
0
 62
     7
370
     0
  0
POLYLINE
  5
A5DE
330
A543
100
AcDbEntity
  8
0
 62
     7
370
     0
100
AcDb2dPolyline
 66
     1
 10
0.0
 20
0.0
 30
0.0
  0
VERTEX
  5
A5DF
330
A5DE
100
AcDbEntity
  8
0
 62
     7
370
     0
100
AcDbVertex
100
AcDb2dVertex
 10
62899.84982877862
 20
-45518.49597732406
 30
0.0
  0
VERTEX
  5
A5E0
330
A5DE
100
AcDbEntity
  8
0
 62
     7
370
     0
100
AcDbVertex
100
AcDb2dVertex
 10
62899.84982877862
 20
-49906.85759328536
 30
0.0
  0
SEQEND
  5
A5E1
330
A5DE
100
AcDbEntity
  8
0
 62
     7
370
     0
  0
POLYLINE
  5
A5E2
330
A543
100
AcDbEntity
  8
0
 62
     7
370
     0
100
AcDb2dPolyline
 66
     1
 10
0.0
 20
0.0
 30
0.0
  0
VERTEX
  5
A5E3
330
A5E2
100
AcDbEntity
  8
0
 62
     7
370
     0
100
AcDbVertex
100
AcDb2dVertex
 10
4130.22269737534
 20
-69611.46171201355
 30
0.0
  0
VERTEX
  5
A5E4
330
A5E2
100
AcDbEntity
  8
0
 62
     7
370
     0
100
AcDbVertex
100
AcDb2dVertex
 10
19704.60411872819
 20
-69611.46171201355
 30
0.0
  0
SEQEND
  5
A5E5
330
A5E2
100
AcDbEntity
  8
0
 62
     7
370
     0
  0
POLYLINE
  5
A5E6
330
A543
100
AcDbEntity
  8
0
 62
     7
370
     0
100
AcDb2dPolyline
 66
     1
 10
0.0
 20
0.0
 30
0.0
  0
VERTEX
  5
A5E7
330
A5E6
100
AcDbEntity
  8
0
 62
     7
370
     0
100
AcDbVertex
100
AcDb2dVertex
 10
23748.78050990821
 20
-69611.46171201355
 30
0.0
  0
VERTEX
  5
A5E8
330
A5E6
100
AcDbEntity
  8
0
 62
     7
370
     0
100
AcDbVertex
100
AcDb2dVertex
 10
39323.16193126106
 20
-69611.46171201355
 30
0.0
  0
SEQEND
  5
A5E9
330
A5E6
100
AcDbEntity
  8
0
 62
     7
370
     0
  0
POLYLINE
  5
A5EA
330
A543
100
AcDbEntity
  8
0
 62
     7
370
     0
100
AcDb2dPolyline
 66
     1
 10
0.0
 20
0.0
 30
0.0
  0
VERTEX
  5
A5EB
330
A5EA
100
AcDbEntity
  8
0
 62
     7
370
     0
100
AcDbVertex
100
AcDb2dVertex
 10
43367.33832244107
 20
-69611.46171201355
 30
0.0
  0
VERTEX
  5
A5EC
330
A5EA
100
AcDbEntity
  8
0
 62
     7
370
     0
100
AcDbVertex
100
AcDb2dVertex
 10
58941.71974379392
 20
-69611.46171201355
 30
0.0
  0
SEQEND
  5
A5ED
330
A5EA
100
AcDbEntity
  8
0
 62
     7
370
     0
  0
POLYLINE
  5
A5EE
330
A543
100
AcDbEntity
  8
0
 62
     7
370
     0
100
AcDb2dPolyline
 66
     1
 10
0.0
 20
0.0
 30
0.0
  0
VERTEX
  5
A5EF
330
A5EE
100
AcDbEntity
  8
0
 62
     7
370
     0
100
AcDbVertex
100
AcDb2dVertex
 10
0.0
 20
0.0
 30
0.0
  0
VERTEX
  5
A5F0
330
A5EE
100
AcDbEntity
  8
0
 62
     7
370
     0
100
AcDbVertex
100
AcDb2dVertex
 10
0.0
 20
-90950.94564845281
 30
0.0
  0
SEQEND
  5
A5F1
330
A5EE
100
AcDbEntity
  8
0
 62
     7
370
     0
  0
POLYLINE
  5
A5F2
330
A543
100
AcDbEntity
  8
0
 62
     7
370
     0
100
AcDb2dPolyline
 66
     1
 10
0.0
 20
0.0
 30
0.0
  0
VERTEX
  5
A5F3
330
A5F2
100
AcDbEntity
  8
0
 62
     7
370
     0
100
AcDbVertex
100
AcDb2dVertex
 10
4044.176391180021
 20
-68234.72081288843
 30
0.0
  0
VERTEX
  5
A5F4
330
A5F2
100
AcDbEntity
  8
0
 62
     7
370
     0
100
AcDbVertex
100
AcDb2dVertex
 10
4044.176391180021
 20
-72623.08242884974
 30
0.0
  0
SEQEND
  5
A5F5
330
A5F2
100
AcDbEntity
  8
0
 62
     7
370
     0
  0
POLYLINE
  5
A5F6
330
A543
100
AcDbEntity
  8
0
 62
     7
370
     0
100
AcDb2dPolyline
 66
     1
 10
0.0
 20
0.0
 30
0.0
  0
VERTEX
  5
A5F7
330
A5F6
100
AcDbEntity
  8
0
 62
     7
370
     0
100
AcDbVertex
100
AcDb2dVertex
 10
19618.55781253287
 20
-86.04630619531958
 30
0.0
  0
VERTEX
  5
A5F8
330
A5F6
100
AcDbEntity
  8
0
 62
     7
370
     0
100
AcDbVertex
100
AcDb2dVertex
 10
19618.55781253287
 20
-90950.94564845281
 30
0.0
  0
SEQEND
  5
A5F9
330
A5F6
100
AcDbEntity
  8
0
 62
     7
370
     0
  0
POLYLINE
  5
A5FA
330
A543
100
AcDbEntity
  8
0
 62
     7
370
     0
100
AcDb2dPolyline
 66
     1
 10
0.0
 20
0.0
 30
0.0
  0
VERTEX
  5
A5FB
330
A5FA
100
AcDbEntity
  8
0
 62
     7
370
     0
100
AcDbVertex
100
AcDb2dVertex
 10
23662.73420371289
 20
-68234.72081288843
 30
0.0
  0
VERTEX
  5
A5FC
330
A5FA
100
AcDbEntity
  8
0
 62
     7
370
     0
100
AcDbVertex
100
AcDb2dVertex
 10
23662.73420371289
 20
-72623.08242884974
 30
0.0
  0
SEQEND
  5
A5FD
330
A5FA
100
AcDbEntity
  8
0
 62
     7
370
     0
  0
POLYLINE
  5
A5FE
330
A543
100
AcDbEntity
  8
0
 62
     7
370
     0
100
AcDb2dPolyline
 66
     1
 10
0.0
 20
0.0
 30
0.0
  0
VERTEX
  5
A5FF
330
A5FE
100
AcDbEntity
  8
0
 62
     7
370
     0
100
AcDbVertex
100
AcDb2dVertex
 10
39237.11562506574
 20
-86.04630619531958
 30
0.0
  0
VERTEX
  5
A600
330
A5FE
100
AcDbEntity
  8
0
 62
     7
370
     0
100
AcDbVertex
100
AcDb2dVertex
 10
39237.11562506574
 20
-90950.94564845281
 30
0.0
  0
SEQEND
  5
A601
330
A5FE
100
AcDbEntity
  8
0
 62
     7
370
     0
  0
POLYLINE
  5
A602
330
A543
100
AcDbEntity
  8
0
 62
     7
370
     0
100
AcDb2dPolyline
 66
     1
 10
0.0
 20
0.0
 30
0.0
  0
VERTEX
  5
A603
330
A602
100
AcDbEntity
  8
0
 62
     7
370
     0
100
AcDbVertex
100
AcDb2dVertex
 10
43281.29201624575
 20
-68234.72081288843
 30
0.0
  0
VERTEX
  5
A604
330
A602
100
AcDbEntity
  8
0
 62
     7
370
     0
100
AcDbVertex
100
AcDb2dVertex
 10
43281.29201624575
 20
-72623.08242884974
 30
0.0
  0
SEQEND
  5
A605
330
A602
100
AcDbEntity
  8
0
 62
     7
370
     0
  0
POLYLINE
  5
A606
330
A543
100
AcDbEntity
  8
0
 62
     7
370
     0
100
AcDb2dPolyline
 66
     1
 10
0.0
 20
0.0
 30
0.0
  0
VERTEX
  5
A607
330
A606
100
AcDbEntity
  8
0
 62
     7
370
     0
100
AcDbVertex
100
AcDb2dVertex
 10
58855.6734375986
 20
-86.04630619531958
 30
0.0
  0
VERTEX
  5
A608
330
A606
100
AcDbEntity
  8
0
 62
     7
370
     0
100
AcDbVertex
100
AcDb2dVertex
 10
58855.6734375986
 20
-90950.94564845281
 30
0.0
  0
SEQEND
  5
A609
330
A606
100
AcDbEntity
  8
0
 62
     7
370
     0
  0
POLYLINE
  5
A60A
330
A543
100
AcDbEntity
  8
0
 62
     7
370
     0
100
AcDb2dPolyline
 66
     1
 10
0.0
 20
0.0
 30
0.0
  0
VERTEX
  5
A60B
330
A60A
100
AcDbEntity
  8
0
 62
     7
370
     0
100
AcDbVertex
100
AcDb2dVertex
 10
62899.84982877862
 20
-68234.72081288843
 30
0.0
  0
VERTEX
  5
A60C
330
A60A
100
AcDbEntity
  8
0
 62
     7
370
     0
100
AcDbVertex
100
AcDb2dVertex
 10
62899.84982877862
 20
-72623.08242884974
 30
0.0
  0
SEQEND
  5
A60D
330
A60A
100
AcDbEntity
  8
0
 62
     7
370
     0
  0
POLYLINE
  5
A60E
330
A543
100
AcDbEntity
  8
0
 62
     7
370
     0
100
AcDb2dPolyline
 66
     1
 10
0.0
 20
0.0
 30
0.0
  0
VERTEX
  5
A60F
330
A60E
100
AcDbEntity
  8
0
 62
     7
370
     0
100
AcDbVertex
100
AcDb2dVertex
 10
78474.23125013147
 20
-86.04630619531958
 30
0.0
  0
VERTEX
  5
A610
330
A60E
100
AcDbEntity
  8
0
 62
     7
370
     0
100
AcDbVertex
100
AcDb2dVertex
 10
78474.23125013147
 20
-90950.94564845281
 30
0.0
  0
SEQEND
  5
A611
330
A60E
100
AcDbEntity
  8
0
 62
     7
370
     0
  0
POLYLINE
  5
A612
330
A543
100
AcDbEntity
  8
0
 62
     7
370
     0
100
AcDb2dPolyline
 66
     1
 10
0.0
 20
0.0
 30
0.0
  0
VERTEX
  5
A613
330
A612
100
AcDbEntity
  8
0
 62
     7
370
     0
100
AcDbVertex
100
AcDb2dVertex
 10
86.04630619531958
 20
0.0
 30
0.0
  0
VERTEX
  5
A614
330
A612
100
AcDbEntity
  8
0
 62
     7
370
     0
100
AcDbVertex
100
AcDb2dVertex
 10
78560.2775563268
 20
0.0
 30
0.0
  0
SEQEND
  5
A615
330
A612
100
AcDbEntity
  8
0
 62
     7
370
     0
  0
POLYLINE
  5
A616
330
A543
100
AcDbEntity
  8
0
 62
     7
370
     0
100
AcDb2dPolyline
 66
     1
 10
0.0
 20
0.0
 30
0.0
  0
VERTEX
  5
A617
330
A616
100
AcDbEntity
  8
0
 62
     7
370
     0
100
AcDbVertex
100
AcDb2dVertex
 10
62985.89613497393
 20
-1462.787205320433
 30
0.0
  0
VERTEX
  5
A618
330
A616
100
AcDbEntity
  8
0
 62
     7
370
     0
100
AcDbVertex
100
AcDb2dVertex
 10
78560.2775563268
 20
-1462.787205320433
 30
0.0
  0
SEQEND
  5
A619
330
A616
100
AcDbEntity
  8
0
 62
     7
370
     0
  0
POLYLINE
  5
A61A
330
A543
100
AcDbEntity
  8
0
 62
     7
370
     0
100
AcDb2dPolyline
 66
     1
 10
0.0
 20
0.0
 30
0.0
  0
VERTEX
  5
A61B
330
A61A
100
AcDbEntity
  8
0
 62
     7
370
     0
100
AcDbVertex
100
AcDb2dVertex
 10
86.04630619531958
 20
-4388.361615961299
 30
0.0
  0
VERTEX
  5
A61C
330
A61A
100
AcDbEntity
  8
0
 62
     7
370
     0
100
AcDbVertex
100
AcDb2dVertex
 10
78560.2775563268
 20
-4388.361615961299
 30
0.0
  0
SEQEND
  5
A61D
330
A61A
100
AcDbEntity
  8
0
 62
     7
370
     0
  0
POLYLINE
  5
A61E
330
A543
100
AcDbEntity
  8
0
 62
     7
370
     0
100
AcDb2dPolyline
 66
     1
 10
0.0
 20
0.0
 30
0.0
  0
VERTEX
  5
A61F
330
A61E
100
AcDbEntity
  8
0
 62
     7
370
     0
100
AcDbVertex
100
AcDb2dVertex
 10
86.04630619531958
 20
-22716.22483556437
 30
0.0
  0
VERTEX
  5
A620
330
A61E
100
AcDbEntity
  8
0
 62
     7
370
     0
100
AcDbVertex
100
AcDb2dVertex
 10
78560.2775563268
 20
-22716.22483556437
 30
0.0
  0
SEQEND
  5
A621
330
A61E
100
AcDbEntity
  8
0
 62
     7
370
     0
  0
POLYLINE
  5
A622
330
A543
100
AcDbEntity
  8
0
 62
     7
370
     0
100
AcDb2dPolyline
 66
     1
 10
0.0
 20
0.0
 30
0.0
  0
VERTEX
  5
A623
330
A622
100
AcDbEntity
  8
0
 62
     7
370
     0
100
AcDbVertex
100
AcDb2dVertex
 10
62985.89613497393
 20
-24179.0120408848
 30
0.0
  0
VERTEX
  5
A624
330
A622
100
AcDbEntity
  8
0
 62
     7
370
     0
100
AcDbVertex
100
AcDb2dVertex
 10
78560.2775563268
 20
-24179.0120408848
 30
0.0
  0
SEQEND
  5
A625
330
A622
100
AcDbEntity
  8
0
 62
     7
370
     0
  0
POLYLINE
  5
A626
330
A543
100
AcDbEntity
  8
0
 62
     7
370
     0
100
AcDb2dPolyline
 66
     1
 10
0.0
 20
0.0
 30
0.0
  0
VERTEX
  5
A627
330
A626
100
AcDbEntity
  8
0
 62
     7
370
     0
100
AcDbVertex
100
AcDb2dVertex
 10
86.04630619531958
 20
-27104.58645152567
 30
0.0
  0
VERTEX
  5
A628
330
A626
100
AcDbEntity
  8
0
 62
     7
370
     0
100
AcDbVertex
100
AcDb2dVertex
 10
78560.2775563268
 20
-27104.58645152567
 30
0.0
  0
SEQEND
  5
A629
330
A626
100
AcDbEntity
  8
0
 62
     7
370
     0
  0
POLYLINE
  5
A62A
330
A543
100
AcDbEntity
  8
0
 62
     7
370
     0
100
AcDb2dPolyline
 66
     1
 10
0.0
 20
0.0
 30
0.0
  0
VERTEX
  5
A62B
330
A62A
100
AcDbEntity
  8
0
 62
     7
370
     0
100
AcDbVertex
100
AcDb2dVertex
 10
86.04630619531958
 20
-45432.44967112874
 30
0.0
  0
VERTEX
  5
A62C
330
A62A
100
AcDbEntity
  8
0
 62
     7
370
     0
100
AcDbVertex
100
AcDb2dVertex
 10
78560.2775563268
 20
-45432.44967112874
 30
0.0
  0
SEQEND
  5
A62D
330
A62A
100
AcDbEntity
  8
0
 62
     7
370
     0
  0
POLYLINE
  5
A62E
330
A543
100
AcDbEntity
  8
0
 62
     7
370
     0
100
AcDb2dPolyline
 66
     1
 10
0.0
 20
0.0
 30
0.0
  0
VERTEX
  5
A62F
330
A62E
100
AcDbEntity
  8
0
 62
     7
370
     0
100
AcDbVertex
100
AcDb2dVertex
 10
62985.89613497393
 20
-46895.23687644918
 30
0.0
  0
VERTEX
  5
A630
330
A62E
100
AcDbEntity
  8
0
 62
     7
370
     0
100
AcDbVertex
100
AcDb2dVertex
 10
78560.2775563268
 20
-46895.23687644918
 30
0.0
  0
SEQEND
  5
A631
330
A62E
100
AcDbEntity
  8
0
 62
     7
370
     0
  0
POLYLINE
  5
A632
330
A543
100
AcDbEntity
  8
0
 62
     7
370
     0
100
AcDb2dPolyline
 66
     1
 10
0.0
 20
0.0
 30
0.0
  0
VERTEX
  5
A633
330
A632
100
AcDbEntity
  8
0
 62
     7
370
     0
100
AcDbVertex
100
AcDb2dVertex
 10
86.04630619531958
 20
-49820.81128709004
 30
0.0
  0
VERTEX
  5
A634
330
A632
100
AcDbEntity
  8
0
 62
     7
370
     0
100
AcDbVertex
100
AcDb2dVertex
 10
78560.2775563268
 20
-49820.81128709004
 30
0.0
  0
SEQEND
  5
A635
330
A632
100
AcDbEntity
  8
0
 62
     7
370
     0
  0
POLYLINE
  5
A636
330
A543
100
AcDbEntity
  8
0
 62
     7
370
     0
100
AcDb2dPolyline
 66
     1
 10
0.0
 20
0.0
 30
0.0
  0
VERTEX
  5
A637
330
A636
100
AcDbEntity
  8
0
 62
     7
370
     0
100
AcDbVertex
100
AcDb2dVertex
 10
86.04630619531958
 20
-68148.67450669312
 30
0.0
  0
VERTEX
  5
A638
330
A636
100
AcDbEntity
  8
0
 62
     7
370
     0
100
AcDbVertex
100
AcDb2dVertex
 10
78560.2775563268
 20
-68148.67450669312
 30
0.0
  0
SEQEND
  5
A639
330
A636
100
AcDbEntity
  8
0
 62
     7
370
     0
  0
POLYLINE
  5
A63A
330
A543
100
AcDbEntity
  8
0
 62
     7
370
     0
100
AcDb2dPolyline
 66
     1
 10
0.0
 20
0.0
 30
0.0
  0
VERTEX
  5
A63B
330
A63A
100
AcDbEntity
  8
0
 62
     7
370
     0
100
AcDbVertex
100
AcDb2dVertex
 10
62985.89613497393
 20
-69611.46171201355
 30
0.0
  0
VERTEX
  5
A63C
330
A63A
100
AcDbEntity
  8
0
 62
     7
370
     0
100
AcDbVertex
100
AcDb2dVertex
 10
78560.2775563268
 20
-69611.46171201355
 30
0.0
  0
SEQEND
  5
A63D
330
A63A
100
AcDbEntity
  8
0
 62
     7
370
     0
  0
POLYLINE
  5
A63E
330
A543
100
AcDbEntity
  8
0
 62
     7
370
     0
100
AcDb2dPolyline
 66
     1
 10
0.0
 20
0.0
 30
0.0
  0
VERTEX
  5
A63F
330
A63E
100
AcDbEntity
  8
0
 62
     7
370
     0
100
AcDbVertex
100
AcDb2dVertex
 10
86.04630619531958
 20
-72537.03612265442
 30
0.0
  0
VERTEX
  5
A640
330
A63E
100
AcDbEntity
  8
0
 62
     7
370
     0
100
AcDbVertex
100
AcDb2dVertex
 10
78560.2775563268
 20
-72537.03612265442
 30
0.0
  0
SEQEND
  5
A641
330
A63E
100
AcDbEntity
  8
0
 62
     7
370
     0
  0
POLYLINE
  5
A642
330
A543
100
AcDbEntity
  8
0
 62
     7
370
     0
100
AcDb2dPolyline
 66
     1
 10
0.0
 20
0.0
 30
0.0
  0
VERTEX
  5
A643
330
A642
100
AcDbEntity
  8
0
 62
     7
370
     0
100
AcDbVertex
100
AcDb2dVertex
 10
86.04630619531958
 20
-90864.89934225749
 30
0.0
  0
VERTEX
  5
A644
330
A642
100
AcDbEntity
  8
0
 62
     7
370
     0
100
AcDbVertex
100
AcDb2dVertex
 10
78560.2775563268
 20
-90864.89934225749
 30
0.0
  0
SEQEND
  5
A645
330
A642
100
AcDbEntity
  8
0
 62
     7
370
     0
  0
ENDBLK
  5
A646
330
A543
100
AcDbEntity
  8
0
 62
     7
370
     0
100
AcDbBlockEnd
  0
BLOCK
  5
1384F
330
1384E
100
AcDbEntity
  8
0
 62
     7
100
AcDbBlockBegin
  2
_Open
 70
     0
 10
0.0
 20
0.0
 30
0.0
  3
_Open
  1

  0
LINE
  5
13850
330
1384E
100
AcDbEntity
  8
0
  6
ByBlock
 62
     0
370
    -2
100
AcDbLine
 10
-1.0
 20
0.1666666666666666
 30
0.0
 11
0.0
 21
0.0
 31
0.0
  0
LINE
  5
13851
330
1384E
100
AcDbEntity
  8
0
  6
ByBlock
 62
     0
370
    -2
100
AcDbLine
 10
-1.0
 20
-0.1666666666666666
 30
0.0
 11
0.0
 21
0.0
 31
0.0
  0
LINE
  5
13852
330
1384E
100
AcDbEntity
  8
0
  6
ByBlock
 62
     0
370
    -2
100
AcDbLine
 10
0.0
 20
0.0
 30
0.0
 11
-1.0
 21
0.0
 31
0.0
  0
ENDBLK
  5
13853
330
1384E
100
AcDbEntity
  8
0
 62
     7
100
AcDbBlockEnd
  0
ENDSEC
  0
SECTION
  2
ENTITIES
  0
MTEXT
  5
128EA
330
1F07
100
AcDbEntity
  8
記号
 62
     2
100
AcDbMText
 10
138720.3537349698
 20
3348.132470049277
 30
0.0
 40
300.0001909587983
 41
2900.001845935049
 71
     5
 72
     5
  1
Re:ray
  7
スタイル1
 73
     1
 44
1.0
1001
ACAD
1000
MTEXTBEGIN
1070
    73
1070
     1
1070
    44
1040
1.0
1070
    74
1070
     0
1000
MTEXTEND
  0
TEXT
  5
12A4A
330
1F07
100
AcDbEntity
  8
0
 62
     7
100
AcDbText
 10
135046.1700422519
 20
5021.533192218339
 30
0.0
 40
299.9999947731441
  1
LEDﾃｰﾌﾟﾗｲﾄ
  7
WMF-ＭＳ Ｐゴシック0
100
AcDbText
  0
TEXT
  5
12A4B
330
1F07
100
AcDbEntity
  8
0
 62
     7
100
AcDbText
 10
135046.1700422519
 20
4531.14858537761
 30
0.0
 40
299.9999947731441
  1
BENSL-14055S 
  7
WMF-ＭＳ Ｐゴシック0
100
AcDbText
  0
TEXT
  5
12A4C
330
1F07
100
AcDbEntity
  8
0
 62
     7
100
AcDbText
 10
136524.9820085072
 20
4040.76397853691
 30
0.0
 40
299.9999947731441
  1
LED5W/m  (RGBフルカラー)
  7
WMF-ＭＳ Ｐゴシック0
100
AcDbText
  0
TEXT
  5
12A4D
330
1F07
100
AcDbEntity
  8
0
 62
     7
100
AcDbText
 10
135046.1700422519
 20
-1526.543616772411
 30
0.0
 40
299.9999947731441
  1
 
  7
WMF-ＭＳ Ｐゴシック0
100
AcDbText
  0
TEXT
  5
12A4E
330
1F07
100
AcDbEntity
  8
0
 62
     7
100
AcDbText
 10
135046.1700422519
 20
-1526.543616772411
 30
0.0
 40
299.9999947731441
  1
 
  7
WMF-ＭＳ Ｐゴシック0
100
AcDbText
  0
MTEXT
  5
12A50
330
1F07
100
AcDbEntity
  8
記号
 62
     2
100
AcDbMText
 10
133888.9596734918
 20
-1725.42666326325
 30
0.0
 40
250.0
 41
6533.332686219465
 71
     4
 72
     5
  1
幅:13　高さ:6(mm)
  7
スタイル1
 73
     1
 44
1.0
1001
ACAD
1000
MTEXTBEGIN
1070
    73
1070
     1
1070
    44
1040
1.0
1070
    74
1070
     0
1000
MTEXTEND
  0
LINE
  5
12A51
330
1F07
100
AcDbEntity
  8
器具
100
AcDbLine
 10
138859.959824737
 20
1786.320839387081
 30
0.0
 11
134718.3329348239
 21
-55.96820744704382
 31
0.0
  0
LINE
  5
12A52
330
1F07
100
AcDbEntity
  8
器具
100
AcDbLine
 10
138862.0495372871
 20
2025.684617422376
 30
0.0
 11
134695.6230411633
 21
176.6757993469036
 31
0.0
  0
LINE
  5
12A53
330
1F07
100
AcDbEntity
  8
器具
100
AcDbLine
 10
138841.5178522326
 20
2037.658893152217
 30
0.0
 11
134687.570341329
 21
194.1880951844796
 31
0.0
  0
LINE
  5
12A54
330
1F07
100
AcDbEntity
  8
器具
100
AcDbLine
 10
137161.9945804616
 20
1188.404127475362
 30
0.0
 11
137240.6726093472
 21
1222.188641147673
 31
0.0
  0
LINE
  5
12A55
330
1F07
100
AcDbEntity
  8
器具
100
AcDbLine
 10
137256.0696950707
 20
1211.015983370722
 30
0.0
 11
137240.6726093472
 21
1222.188641147673
 31
0.0
  0
LINE
  5
12A56
330
1F07
100
AcDbEntity
  8
器具
100
AcDbLine
 10
135226.6212510173
 20
248.4929685929492
 30
0.0
 11
135222.771699908
 21
331.0018756982754
 31
0.0
  0
LINE
  5
12A57
330
1F07
100
AcDbEntity
  8
器具
100
AcDbLine
 10
135222.771699908
 20
331.0018756982754
 30
0.0
 11
135301.4497287935
 21
364.7863893703725
 31
0.0
  0
LINE
  5
12A58
330
1F07
100
AcDbEntity
  8
器具
100
AcDbLine
 10
135238.1687856315
 20
319.8292179213968
 30
0.0
 11
135222.771699908
 21
331.0018756982754
 31
0.0
  0
LINE
  5
12A59
330
1F07
100
AcDbEntity
  8
器具
100
AcDbLine
 10
134984.721571663
 20
218.0221251401999
 30
0.0
 11
135063.3996005487
 21
251.8066388125007
 31
0.0
  0
LINE
  5
12A5A
330
1F07
100
AcDbEntity
  8
器具
100
AcDbLine
 10
135000.1186573865
 20
206.8494673632886
 30
0.0
 11
135078.7966862722
 21
240.6339810355967
 31
0.0
  0
LINE
  5
12A5B
330
1F07
100
AcDbEntity
  8
器具
100
AcDbLine
 10
135079.8011187086
 20
158.5952372532665
 30
0.0
 11
135003.9682084958
 21
124.3405602578896
 31
0.0
  0
LINE
  5
12A5C
330
1F07
100
AcDbEntity
  8
器具
100
AcDbLine
 10
135000.1186573865
 20
206.8494673632886
 30
0.0
 11
134984.721571663
 21
218.0221251401999
 31
0.0
  0
LINE
  5
12A5D
330
1F07
100
AcDbEntity
  8
器具
100
AcDbLine
 10
134828.8326669074
 20
137.6693678452138
 30
0.0
 11
134833.9123237121
 21
59.05091299401465
 31
0.0
  0
LINE
  5
12A5E
330
1F07
100
AcDbEntity
  8
器具
100
AcDbLine
 10
134828.8326669074
 20
137.6693678452138
 30
0.0
 11
134813.4355811838
 21
148.8420256221543
 31
0.0
  0
LINE
  5
12A5F
330
1F07
100
AcDbEntity
  8
器具
100
AcDbLine
 10
135003.9682084958
 20
124.3405602578896
 30
0.0
 11
134988.5711227723
 21
135.5132180348228
 31
0.0
  0
LINE
  5
12A60
330
1F07
100
AcDbEntity
  8
器具
100
AcDbLine
 10
134988.5711227723
 20
135.5132180348228
 30
0.0
 11
134984.721571663
 21
218.0221251401999
 31
0.0
  0
LINE
  5
12A61
330
1F07
100
AcDbEntity
  8
器具
100
AcDbLine
 10
135003.9682084958
 20
124.3405602578896
 30
0.0
 11
135000.1186573865
 21
206.8494673632886
 31
0.0
  0
LINE
  5
12A62
330
1F07
100
AcDbEntity
  8
器具
100
AcDbLine
 10
134734.7575522982
 20
115.0575119498244
 30
0.0
 11
134813.4355811838
 21
148.8420256221543
 31
0.0
  0
LINE
  5
12A63
330
1F07
100
AcDbEntity
  8
器具
100
AcDbLine
 10
134750.1546380217
 20
103.8848541729239
 30
0.0
 11
134828.8326669074
 21
137.6693678452029
 31
0.0
  0
LINE
  5
12A64
330
1F07
100
AcDbEntity
  8
器具
100
AcDbLine
 10
135078.7966862722
 20
240.6339810355967
 30
0.0
 11
135063.3996005487
 21
251.8066388125007
 31
0.0
  0
LINE
  5
12A65
330
1F07
100
AcDbEntity
  8
器具
100
AcDbLine
 10
135078.7966862722
 20
240.6339810355967
 30
0.0
 11
135083.8763430769
 21
162.0155261843611
 31
0.0
  0
LINE
  5
12A66
330
1F07
100
AcDbEntity
  8
器具
100
AcDbLine
 10
135317.8512469537
 20
271.5749878113966
 30
0.0
 11
135242.0183367408
 21
237.3203108159978
 31
0.0
  0
LINE
  5
12A67
330
1F07
100
AcDbEntity
  8
器具
100
AcDbLine
 10
135242.0183367408
 20
237.3203108159978
 30
0.0
 11
135238.1687856315
 21
319.8292179213968
 31
0.0
  0
LINE
  5
12A68
330
1F07
100
AcDbEntity
  8
器具
100
AcDbLine
 10
135238.1687856315
 20
319.8292179213968
 30
0.0
 11
135316.846814517
 21
353.613731593472
 31
0.0
  0
LINE
  5
12A69
330
1F07
100
AcDbEntity
  8
器具
100
AcDbLine
 10
135316.846814517
 20
353.613731593472
 30
0.0
 11
135321.9264713217
 21
274.9952767422656
 31
0.0
  0
LINE
  5
12A6A
330
1F07
100
AcDbEntity
  8
器具
100
AcDbLine
 10
135242.0183367408
 20
237.3203108159978
 30
0.0
 11
135226.6212510173
 21
248.4929685929492
 31
0.0
  0
LINE
  5
12A6B
330
1F07
100
AcDbEntity
  8
器具
100
AcDbLine
 10
135316.846814517
 20
353.613731593472
 30
0.0
 11
135301.4497287935
 21
364.7863893703725
 31
0.0
  0
LINE
  5
12A6C
330
1F07
100
AcDbEntity
  8
器具
100
AcDbLine
 10
135567.1353713389
 20
461.7895677842025
 30
0.0
 11
135572.2150281436
 21
383.171112932996
 31
0.0
  0
LINE
  5
12A6D
330
1F07
100
AcDbEntity
  8
器具
100
AcDbLine
 10
135473.0602567297
 20
439.1777118888349
 30
0.0
 11
135551.7382856155
 21
472.9622255611247
 31
0.0
  0
LINE
  5
12A6E
330
1F07
100
AcDbEntity
  8
器具
100
AcDbLine
 10
135488.4573424533
 20
428.0050541119053
 30
0.0
 11
135567.1353713389
 21
461.7895677842025
 31
0.0
  0
LINE
  5
12A6F
330
1F07
100
AcDbEntity
  8
器具
100
AcDbLine
 10
135476.909807839
 20
356.6688047834578
 30
0.0
 11
135473.0602567297
 21
439.1777118888349
 31
0.0
  0
LINE
  5
12A70
330
1F07
100
AcDbEntity
  8
器具
100
AcDbLine
 10
135492.3068935625
 20
345.4961470065246
 30
0.0
 11
135488.4573424533
 21
428.0050541119053
 31
0.0
  0
LINE
  5
12A71
330
1F07
100
AcDbEntity
  8
器具
100
AcDbLine
 10
135492.3068935625
 20
345.4961470065246
 30
0.0
 11
135476.909807839
 21
356.6688047834578
 31
0.0
  0
LINE
  5
12A72
330
1F07
100
AcDbEntity
  8
器具
100
AcDbLine
 10
135488.4573424533
 20
428.0050541119053
 30
0.0
 11
135473.0602567297
 21
439.1777118888349
 31
0.0
  0
LINE
  5
12A73
330
1F07
100
AcDbEntity
  8
器具
100
AcDbLine
 10
135568.1398037754
 20
379.7508240018724
 30
0.0
 11
135492.3068935625
 21
345.4961470065246
 31
0.0
  0
LINE
  5
12A74
330
1F07
100
AcDbEntity
  8
器具
100
AcDbLine
 10
136203.154993326
 20
681.5634992406667
 30
0.0
 11
136199.3054422168
 21
764.0724063460257
 31
0.0
  0
LINE
  5
12A75
330
1F07
100
AcDbEntity
  8
器具
100
AcDbLine
 10
136218.5520790496
 20
670.3908414637553
 30
0.0
 11
136214.7025279403
 21
752.8997485690925
 31
0.0
  0
LINE
  5
12A76
330
1F07
100
AcDbEntity
  8
器具
100
AcDbLine
 10
136293.380556826
 20
786.6842622414224
 30
0.0
 11
136298.4602136307
 21
708.0658073901941
 31
0.0
  0
LINE
  5
12A77
330
1F07
100
AcDbEntity
  8
器具
100
AcDbLine
 10
136294.3849892624
 20
704.645518459125
 30
0.0
 11
136218.5520790496
 21
670.3908414637553
 31
0.0
  0
LINE
  5
12A78
330
1F07
100
AcDbEntity
  8
器具
100
AcDbLine
 10
135974.2485856545
 20
571.5481563545363
 30
0.0
 11
135970.3990345452
 21
654.0570634599353
 31
0.0
  0
LINE
  5
12A79
330
1F07
100
AcDbEntity
  8
器具
100
AcDbLine
 10
135989.645671378
 20
560.3754985776249
 30
0.0
 11
135985.7961202687
 21
642.8844056829802
 31
0.0
  0
LINE
  5
12A7A
330
1F07
100
AcDbEntity
  8
器具
100
AcDbLine
 10
136064.4741491543
 20
676.668919355292
 30
0.0
 11
136069.5538059591
 21
598.0504645040855
 31
0.0
  0
LINE
  5
12A7B
330
1F07
100
AcDbEntity
  8
器具
100
AcDbLine
 10
136065.4785815908
 20
594.6301755729909
 30
0.0
 11
135989.645671378
 21
560.3754985776249
 31
0.0
  0
LINE
  5
12A7C
330
1F07
100
AcDbEntity
  8
器具
100
AcDbLine
 10
135989.645671378
 20
560.3754985776249
 30
0.0
 11
135974.2485856545
 21
571.5481563545363
 31
0.0
  0
LINE
  5
12A7D
330
1F07
100
AcDbEntity
  8
器具
100
AcDbLine
 10
135804.2729978613
 20
568.9771116961019
 30
0.0
 11
135788.8759121378
 21
580.149769473035
 31
0.0
  0
LINE
  5
12A7E
330
1F07
100
AcDbEntity
  8
器具
100
AcDbLine
 10
135970.3990345452
 20
654.0570634599353
 30
0.0
 11
136049.0770634309
 21
687.8415771322034
 31
0.0
  0
LINE
  5
12A7F
330
1F07
100
AcDbEntity
  8
器具
100
AcDbLine
 10
135985.7961202687
 20
642.8844056829802
 30
0.0
 11
136064.4741491543
 21
676.668919355292
 31
0.0
  0
LINE
  5
12A80
330
1F07
100
AcDbEntity
  8
器具
100
AcDbLine
 10
135985.7961202687
 20
642.8844056829802
 30
0.0
 11
135970.3990345452
 21
654.0570634599353
 31
0.0
  0
LINE
  5
12A81
330
1F07
100
AcDbEntity
  8
器具
100
AcDbLine
 10
136064.4741491543
 20
676.668919355292
 30
0.0
 11
136049.0770634309
 21
687.8415771322034
 31
0.0
  0
LINE
  5
12A82
330
1F07
100
AcDbEntity
  8
器具
100
AcDbLine
 10
136218.5520790496
 20
670.3908414637553
 30
0.0
 11
136203.154993326
 21
681.5634992406667
 31
0.0
  0
LINE
  5
12A83
330
1F07
100
AcDbEntity
  8
器具
100
AcDbLine
 10
136199.3054422168
 20
764.0724063460257
 30
0.0
 11
136277.9834711025
 21
797.8569200183556
 31
0.0
  0
LINE
  5
12A84
330
1F07
100
AcDbEntity
  8
器具
100
AcDbLine
 10
136214.7025279403
 20
752.8997485690925
 30
0.0
 11
136293.380556826
 21
786.6842622414224
 31
0.0
  0
LINE
  5
12A85
330
1F07
100
AcDbEntity
  8
器具
100
AcDbLine
 10
136214.7025279403
 20
752.8997485690925
 30
0.0
 11
136199.3054422168
 21
764.0724063460257
 31
0.0
  0
LINE
  5
12A86
330
1F07
100
AcDbEntity
  8
器具
100
AcDbLine
 10
136293.380556826
 20
786.6842622414224
 30
0.0
 11
136277.9834711025
 21
797.8569200183556
 31
0.0
  0
LINE
  5
12A87
330
1F07
100
AcDbEntity
  8
器具
100
AcDbLine
 10
135567.1353713389
 20
461.7895677842025
 30
0.0
 11
135551.7382856155
 21
472.9622255611247
 31
0.0
  0
LINE
  5
12A88
330
1F07
100
AcDbEntity
  8
器具
100
AcDbLine
 10
135714.0474343614
 20
463.856348695368
 30
0.0
 11
135710.1978832522
 21
546.3652558007233
 31
0.0
  0
LINE
  5
12A89
330
1F07
100
AcDbEntity
  8
器具
100
AcDbLine
 10
135805.2774302977
 20
486.9383679138227
 30
0.0
 11
135729.4445200849
 21
452.6836909184348
 31
0.0
  0
LINE
  5
12A8A
330
1F07
100
AcDbEntity
  8
器具
100
AcDbLine
 10
135729.4445200849
 20
452.6836909184348
 30
0.0
 11
135725.5949689756
 21
535.1925980237938
 31
0.0
  0
LINE
  5
12A8B
330
1F07
100
AcDbEntity
  8
器具
100
AcDbLine
 10
135729.4445200849
 20
452.6836909184348
 30
0.0
 11
135714.0474343614
 21
463.856348695368
 31
0.0
  0
LINE
  5
12A8C
330
1F07
100
AcDbEntity
  8
器具
100
AcDbLine
 10
135725.5949689756
 20
535.1925980237938
 30
0.0
 11
135710.1978832522
 21
546.3652558007233
 31
0.0
  0
LINE
  5
12A8D
330
1F07
100
AcDbEntity
  8
器具
100
AcDbLine
 10
135710.1978832522
 20
546.3652558007233
 30
0.0
 11
135788.8759121378
 21
580.149769473035
 31
0.0
  0
LINE
  5
12A8E
330
1F07
100
AcDbEntity
  8
器具
100
AcDbLine
 10
135725.5949689756
 20
535.1925980237938
 30
0.0
 11
135804.2729978613
 21
568.9771116961019
 31
0.0
  0
LINE
  5
12A8F
330
1F07
100
AcDbEntity
  8
器具
100
AcDbLine
 10
135804.2729978613
 20
568.9771116961019
 30
0.0
 11
135809.3526546659
 21
490.3586568446808
 31
0.0
  0
LINE
  5
12A90
330
1F07
100
AcDbEntity
  8
器具
100
AcDbLine
 10
137257.0741275071
 20
1128.977239588461
 30
0.0
 11
137181.2412172943
 21
1094.722562593095
 31
0.0
  0
LINE
  5
12A91
330
1F07
100
AcDbEntity
  8
器具
100
AcDbLine
 10
137177.3916661851
 20
1177.23146969845
 30
0.0
 11
137256.0696950707
 21
1211.015983370722
 31
0.0
  0
LINE
  5
12A92
330
1F07
100
AcDbEntity
  8
器具
100
AcDbLine
 10
137165.8441315708
 20
1105.895220370024
 30
0.0
 11
137161.9945804616
 21
1188.404127475362
 31
0.0
  0
LINE
  5
12A93
330
1F07
100
AcDbEntity
  8
器具
100
AcDbLine
 10
137181.2412172943
 20
1094.722562593095
 30
0.0
 11
137177.3916661851
 21
1177.23146969845
 31
0.0
  0
LINE
  5
12A94
330
1F07
100
AcDbEntity
  8
器具
100
AcDbLine
 10
137181.2412172943
 20
1094.722562593095
 30
0.0
 11
137165.8441315708
 21
1105.895220370024
 31
0.0
  0
LINE
  5
12A95
330
1F07
100
AcDbEntity
  8
器具
100
AcDbLine
 10
137177.3916661851
 20
1177.23146969845
 30
0.0
 11
137161.9945804616
 21
1188.404127475362
 31
0.0
  0
LINE
  5
12A96
330
1F07
100
AcDbEntity
  8
器具
100
AcDbLine
 10
137256.0696950707
 20
1211.015983370722
 30
0.0
 11
137261.1493518753
 21
1132.397528519308
 31
0.0
  0
LINE
  5
12A97
330
1F07
100
AcDbEntity
  8
器具
100
AcDbLine
 10
136680.8880416546
 20
977.095249512291
 30
0.0
 11
136759.5660705402
 21
1010.879763184603
 31
0.0
  0
LINE
  5
12A98
330
1F07
100
AcDbEntity
  8
器具
100
AcDbLine
 10
136696.285127378
 20
965.9225917353579
 30
0.0
 11
136680.8880416546
 21
977.095249512291
 31
0.0
  0
LINE
  5
12A99
330
1F07
100
AcDbEntity
  8
器具
100
AcDbLine
 10
136700.1346784873
 20
883.4136846300024
 30
0.0
 11
136684.7375927638
 21
894.5863424069321
 31
0.0
  0
LINE
  5
12A9A
330
1F07
100
AcDbEntity
  8
器具
100
AcDbLine
 10
136546.502190172
 20
894.6543305601844
 30
0.0
 11
136551.5818469767
 21
816.0358757089779
 31
0.0
  0
LINE
  5
12A9B
330
1F07
100
AcDbEntity
  8
器具
100
AcDbLine
 10
136546.502190172
 20
894.6543305601844
 30
0.0
 11
136531.1051044484
 21
905.8269883370957
 31
0.0
  0
LINE
  5
12A9C
330
1F07
100
AcDbEntity
  8
器具
100
AcDbLine
 10
136456.2766266721
 20
789.5335675594288
 30
0.0
 11
136452.4270755627
 21
872.0424746648276
 31
0.0
  0
LINE
  5
12A9D
330
1F07
100
AcDbEntity
  8
器具
100
AcDbLine
 10
136471.6737123956
 20
778.3609097825173
 30
0.0
 11
136467.8241612863
 21
860.8698168878728
 31
0.0
  0
LINE
  5
12A9E
330
1F07
100
AcDbEntity
  8
器具
100
AcDbLine
 10
136471.6737123956
 20
778.3609097825173
 30
0.0
 11
136456.2766266721
 21
789.5335675594288
 31
0.0
  0
LINE
  5
12A9F
330
1F07
100
AcDbEntity
  8
器具
100
AcDbLine
 10
136467.8241612863
 20
860.8698168878728
 30
0.0
 11
136452.4270755627
 21
872.0424746648276
 31
0.0
  0
LINE
  5
12AA0
330
1F07
100
AcDbEntity
  8
器具
100
AcDbLine
 10
136452.4270755627
 20
872.0424746648276
 30
0.0
 11
136531.1051044484
 21
905.8269883370957
 31
0.0
  0
LINE
  5
12AA1
330
1F07
100
AcDbEntity
  8
器具
100
AcDbLine
 10
136547.5066226085
 20
812.6155867778834
 30
0.0
 11
136471.6737123956
 21
778.3609097825173
 31
0.0
  0
LINE
  5
12AA2
330
1F07
100
AcDbEntity
  8
器具
100
AcDbLine
 10
136467.8241612863
 20
860.8698168878728
 30
0.0
 11
136546.502190172
 21
894.6543305601844
 31
0.0
  0
LINE
  5
12AA3
330
1F07
100
AcDbEntity
  8
器具
100
AcDbLine
 10
136684.7375927638
 20
894.5863424069321
 30
0.0
 11
136680.8880416546
 21
977.095249512291
 31
0.0
  0
LINE
  5
12AA4
330
1F07
100
AcDbEntity
  8
器具
100
AcDbLine
 10
136696.285127378
 20
965.9225917353579
 30
0.0
 11
136774.9631562638
 21
999.7071054076696
 31
0.0
  0
LINE
  5
12AA5
330
1F07
100
AcDbEntity
  8
器具
100
AcDbLine
 10
136774.9631562638
 20
999.7071054076696
 30
0.0
 11
136759.5660705402
 21
1010.879763184603
 31
0.0
  0
LINE
  5
12AA6
330
1F07
100
AcDbEntity
  8
器具
100
AcDbLine
 10
136926.087737263
 20
998.2597954049051
 30
0.0
 11
136922.2381861537
 21
1080.7687025103
 31
0.0
  0
LINE
  5
12AA7
330
1F07
100
AcDbEntity
  8
器具
100
AcDbLine
 10
136922.2381861537
 20
1080.7687025103
 30
0.0
 11
137000.9162150393
 21
1114.55321618259
 31
0.0
  0
LINE
  5
12AA8
330
1F07
100
AcDbEntity
  8
器具
100
AcDbLine
 10
137017.3177331993
 20
1021.341814623338
 30
0.0
 11
136941.4848229864
 21
987.0871376279902
 31
0.0
  0
LINE
  5
12AA9
330
1F07
100
AcDbEntity
  8
器具
100
AcDbLine
 10
136941.4848229864
 20
987.0871376279902
 30
0.0
 11
136937.6352718771
 21
1069.596044733389
 31
0.0
  0
LINE
  5
12AAA
330
1F07
100
AcDbEntity
  8
器具
100
AcDbLine
 10
136937.6352718771
 20
1069.596044733389
 30
0.0
 11
137016.3133007628
 21
1103.380558405661
 31
0.0
  0
LINE
  5
12AAB
330
1F07
100
AcDbEntity
  8
器具
100
AcDbLine
 10
136941.4848229864
 20
987.0871376279902
 30
0.0
 11
136926.087737263
 21
998.2597954049051
 31
0.0
  0
LINE
  5
12AAC
330
1F07
100
AcDbEntity
  8
器具
100
AcDbLine
 10
136937.6352718771
 20
1069.596044733389
 30
0.0
 11
136922.2381861537
 21
1080.7687025103
 31
0.0
  0
LINE
  5
12AAD
330
1F07
100
AcDbEntity
  8
器具
100
AcDbLine
 10
137016.3133007628
 20
1103.380558405661
 30
0.0
 11
137000.9162150393
 21
1114.55321618259
 31
0.0
  0
LINE
  5
12AAE
330
1F07
100
AcDbEntity
  8
器具
100
AcDbLine
 10
136775.9675887002
 20
917.6683616253903
 30
0.0
 11
136700.1346784873
 21
883.4136846300024
 31
0.0
  0
LINE
  5
12AAF
330
1F07
100
AcDbEntity
  8
器具
100
AcDbLine
 10
136700.1346784873
 20
883.4136846300024
 30
0.0
 11
136696.285127378
 21
965.9225917353579
 31
0.0
  0
LINE
  5
12AB0
330
1F07
100
AcDbEntity
  8
器具
100
AcDbLine
 10
136774.9631562638
 20
999.7071054076696
 30
0.0
 11
136780.0428130685
 21
921.0886505564413
 31
0.0
  0
LINE
  5
12AB1
330
1F07
100
AcDbEntity
  8
器具
100
AcDbLine
 10
137016.3133007628
 20
1103.380558405661
 30
0.0
 11
137021.3929575675
 21
1024.762103554451
 31
0.0
  0
LINE
  5
12AB2
330
1F07
100
AcDbEntity
  8
器具
100
AcDbLine
 10
137505.6231136129
 20
1239.373977012525
 30
0.0
 11
137429.7902034
 21
1205.119300017155
 31
0.0
  0
LINE
  5
12AB3
330
1F07
100
AcDbEntity
  8
器具
100
AcDbLine
 10
137429.7902034
 20
1205.119300017155
 30
0.0
 11
137425.9406522907
 21
1287.628207122536
 31
0.0
  0
LINE
  5
12AB4
330
1F07
100
AcDbEntity
  8
器具
100
AcDbLine
 10
137429.7902034
 20
1205.119300017155
 30
0.0
 11
137414.3931176765
 21
1216.291957794088
 31
0.0
  0
LINE
  5
12AB5
330
1F07
100
AcDbEntity
  8
器具
100
AcDbLine
 10
138859.959824737
 20
1786.320839387081
 30
0.0
 11
138862.0495372871
 21
2025.684617422376
 31
0.0
  0
LINE
  5
12AB6
330
1F07
100
AcDbEntity
  8
器具
100
AcDbLine
 10
138222.5769603988
 20
1554.340225055621
 30
0.0
 11
138146.7440501859
 21
1520.085548060273
 31
0.0
  0
LINE
  5
12AB7
330
1F07
100
AcDbEntity
  8
器具
100
AcDbLine
 10
138142.8944990767
 20
1602.594455165632
 30
0.0
 11
138221.5725279623
 21
1636.378968837922
 31
0.0
  0
LINE
  5
12AB8
330
1F07
100
AcDbEntity
  8
器具
100
AcDbLine
 10
138127.4974133531
 20
1613.767112942565
 30
0.0
 11
138206.1754422388
 21
1647.551626614855
 31
0.0
  0
LINE
  5
12AB9
330
1F07
100
AcDbEntity
  8
器具
100
AcDbLine
 10
137886.5857818591
 20
1513.668639986812
 30
0.0
 11
137965.2638107448
 21
1547.453153659124
 31
0.0
  0
LINE
  5
12ABA
330
1F07
100
AcDbEntity
  8
器具
100
AcDbLine
 10
137901.9828675826
 20
1502.495982209883
 30
0.0
 11
137980.6608964682
 21
1536.280495882173
 31
0.0
  0
LINE
  5
12ABB
330
1F07
100
AcDbEntity
  8
器具
100
AcDbLine
 10
137980.6608964682
 20
1536.280495882173
 30
0.0
 11
137985.740553273
 21
1457.662041030962
 31
0.0
  0
LINE
  5
12ABC
330
1F07
100
AcDbEntity
  8
器具
100
AcDbLine
 10
138146.7440501859
 20
1520.085548060273
 30
0.0
 11
138142.8944990767
 21
1602.594455165632
 31
0.0
  0
LINE
  5
12ABD
330
1F07
100
AcDbEntity
  8
器具
100
AcDbLine
 10
138146.7440501859
 20
1520.085548060273
 30
0.0
 11
138131.3469644624
 21
1531.258205837184
 31
0.0
  0
LINE
  5
12ABE
330
1F07
100
AcDbEntity
  8
器具
100
AcDbLine
 10
137661.8970428044
 20
1389.87522754756
 30
0.0
 11
137740.5750716899
 21
1423.65974121989
 31
0.0
  0
LINE
  5
12ABF
330
1F07
100
AcDbEntity
  8
器具
100
AcDbLine
 10
137740.5750716899
 20
1423.65974121989
 30
0.0
 11
137725.1779859665
 21
1434.832398996783
 31
0.0
  0
LINE
  5
12AC0
330
1F07
100
AcDbEntity
  8
器具
100
AcDbLine
 10
137890.4353329684
 20
1431.159732881435
 30
0.0
 11
137886.5857818591
 21
1513.668639986812
 31
0.0
  0
LINE
  5
12AC1
330
1F07
100
AcDbEntity
  8
器具
100
AcDbLine
 10
137981.6653289047
 20
1454.241752099893
 30
0.0
 11
137905.8324186919
 21
1419.987075104502
 31
0.0
  0
LINE
  5
12AC2
330
1F07
100
AcDbEntity
  8
器具
100
AcDbLine
 10
137905.8324186919
 20
1419.987075104502
 30
0.0
 11
137901.9828675826
 21
1502.495982209883
 31
0.0
  0
LINE
  5
12AC3
330
1F07
100
AcDbEntity
  8
器具
100
AcDbLine
 10
137905.8324186919
 20
1419.987075104502
 30
0.0
 11
137890.4353329684
 21
1431.159732881435
 31
0.0
  0
LINE
  5
12AC4
330
1F07
100
AcDbEntity
  8
器具
100
AcDbLine
 10
137901.9828675826
 20
1502.495982209883
 30
0.0
 11
137886.5857818591
 21
1513.668639986812
 31
0.0
  0
LINE
  5
12AC5
330
1F07
100
AcDbEntity
  8
器具
100
AcDbLine
 10
137646.4999570808
 20
1401.047885324493
 30
0.0
 11
137725.1779859665
 21
1434.832398996783
 31
0.0
  0
LINE
  5
12AC6
330
1F07
100
AcDbEntity
  8
器具
100
AcDbLine
 10
137661.8970428044
 20
1389.87522754756
 30
0.0
 11
137646.4999570808
 21
1401.047885324493
 31
0.0
  0
LINE
  5
12AC7
330
1F07
100
AcDbEntity
  8
器具
100
AcDbLine
 10
137980.6608964682
 20
1536.280495882173
 30
0.0
 11
137965.2638107448
 21
1547.453153659124
 31
0.0
  0
LINE
  5
12AC8
330
1F07
100
AcDbEntity
  8
器具
100
AcDbLine
 10
138131.3469644624
 20
1531.258205837184
 30
0.0
 11
138127.4974133531
 21
1613.767112942565
 31
0.0
  0
LINE
  5
12AC9
330
1F07
100
AcDbEntity
  8
器具
100
AcDbLine
 10
138142.8944990767
 20
1602.594455165632
 30
0.0
 11
138127.4974133531
 21
1613.767112942565
 31
0.0
  0
LINE
  5
12ACA
330
1F07
100
AcDbEntity
  8
器具
100
AcDbLine
 10
138221.5725279623
 20
1636.378968837922
 30
0.0
 11
138206.1754422388
 21
1647.551626614855
 31
0.0
  0
LINE
  5
12ACB
330
1F07
100
AcDbEntity
  8
器具
100
AcDbLine
 10
138221.5725279623
 20
1636.378968837922
 30
0.0
 11
138226.6521847668
 21
1557.76051398649
 31
0.0
  0
LINE
  5
12ACC
330
1F07
100
AcDbEntity
  8
器具
100
AcDbLine
 10
137414.3931176765
 20
1216.291957794088
 30
0.0
 11
137410.5435665672
 21
1298.800864899465
 31
0.0
  0
LINE
  5
12ACD
330
1F07
100
AcDbEntity
  8
器具
100
AcDbLine
 10
137410.5435665672
 20
1298.800864899465
 30
0.0
 11
137489.2215954529
 21
1332.585378571755
 31
0.0
  0
LINE
  5
12ACE
330
1F07
100
AcDbEntity
  8
器具
100
AcDbLine
 10
137425.9406522907
 20
1287.628207122536
 30
0.0
 11
137504.6186811764
 21
1321.412720794844
 31
0.0
  0
LINE
  5
12ACF
330
1F07
100
AcDbEntity
  8
器具
100
AcDbLine
 10
137504.6186811764
 20
1321.412720794844
 30
0.0
 11
137509.6983379811
 21
1242.794265943637
 31
0.0
  0
LINE
  5
12AD0
330
1F07
100
AcDbEntity
  8
器具
100
AcDbLine
 10
137425.9406522907
 20
1287.628207122536
 30
0.0
 11
137410.5435665672
 21
1298.800864899465
 31
0.0
  0
LINE
  5
12AD1
330
1F07
100
AcDbEntity
  8
器具
100
AcDbLine
 10
137504.6186811764
 20
1321.412720794844
 30
0.0
 11
137489.2215954529
 21
1332.585378571755
 31
0.0
  0
LINE
  5
12AD2
330
1F07
100
AcDbEntity
  8
器具
100
AcDbLine
 10
137741.5795041265
 20
1341.620997437589
 30
0.0
 11
137665.7465939136
 21
1307.366320442201
 31
0.0
  0
LINE
  5
12AD3
330
1F07
100
AcDbEntity
  8
器具
100
AcDbLine
 10
137665.7465939136
 20
1307.366320442201
 30
0.0
 11
137650.3495081901
 21
1318.538978219156
 31
0.0
  0
LINE
  5
12AD4
330
1F07
100
AcDbEntity
  8
器具
100
AcDbLine
 10
137665.7465939136
 20
1307.366320442201
 30
0.0
 11
137661.8970428044
 21
1389.87522754756
 31
0.0
  0
LINE
  5
12AD5
330
1F07
100
AcDbEntity
  8
器具
100
AcDbLine
 10
137740.5750716899
 20
1423.65974121989
 30
0.0
 11
137745.6547284946
 21
1345.04128636844
 31
0.0
  0
LINE
  5
12AD6
330
1F07
100
AcDbEntity
  8
器具
100
AcDbLine
 10
137650.3495081901
 20
1318.538978219156
 30
0.0
 11
137646.4999570808
 21
1401.047885324493
 31
0.0
  0
LINE
  5
12AD7
330
1F07
100
AcDbEntity
  8
器具
100
AcDbLine
 10
138708.1599042295
 20
1852.245258108403
 30
0.0
 11
138713.2395610343
 21
1773.626803257197
 31
0.0
  0
LINE
  5
12AD8
330
1F07
100
AcDbEntity
  8
器具
100
AcDbLine
 10
138614.0847896204
 20
1829.633402213047
 30
0.0
 11
138692.7628185061
 21
1863.417915885358
 31
0.0
  0
LINE
  5
12AD9
330
1F07
100
AcDbEntity
  8
器具
100
AcDbLine
 10
138617.9343407297
 20
1747.124495107648
 30
0.0
 11
138614.0847896204
 21
1829.633402213047
 31
0.0
  0
LINE
  5
12ADA
330
1F07
100
AcDbEntity
  8
器具
100
AcDbLine
 10
138633.3314264531
 20
1735.951837330736
 30
0.0
 11
138629.4818753438
 21
1818.460744436114
 31
0.0
  0
LINE
  5
12ADB
330
1F07
100
AcDbEntity
  8
器具
100
AcDbLine
 10
138633.3314264531
 20
1735.951837330736
 30
0.0
 11
138617.9343407297
 21
1747.124495107648
 31
0.0
  0
LINE
  5
12ADC
330
1F07
100
AcDbEntity
  8
器具
100
AcDbLine
 10
138629.4818753438
 20
1818.460744436114
 30
0.0
 11
138614.0847896204
 21
1829.633402213047
 31
0.0
  0
LINE
  5
12ADD
330
1F07
100
AcDbEntity
  8
器具
100
AcDbLine
 10
138709.164336666
 20
1770.206514326106
 30
0.0
 11
138633.3314264531
 21
1735.951837330736
 31
0.0
  0
LINE
  5
12ADE
330
1F07
100
AcDbEntity
  8
器具
100
AcDbLine
 10
138629.4818753438
 20
1818.460744436114
 30
0.0
 11
138708.1599042295
 21
1852.245258108403
 31
0.0
  0
LINE
  5
12ADF
330
1F07
100
AcDbEntity
  8
器具
100
AcDbLine
 10
138708.1599042295
 20
1852.245258108403
 30
0.0
 11
138692.7628185061
 21
1863.417915885358
 31
0.0
  0
LINE
  5
12AE0
330
1F07
100
AcDbEntity
  8
器具
100
AcDbLine
 10
138374.8218102301
 20
1725.424789823133
 30
0.0
 11
138453.4998391158
 21
1759.209303495423
 31
0.0
  0
LINE
  5
12AE1
330
1F07
100
AcDbEntity
  8
器具
100
AcDbLine
 10
138468.8969248393
 20
1748.036645718494
 30
0.0
 11
138453.4998391158
 21
1759.209303495423
 31
0.0
  0
LINE
  5
12AE2
330
1F07
100
AcDbEntity
  8
器具
100
AcDbLine
 10
138390.2188959537
 20
1714.252132046222
 30
0.0
 11
138468.8969248393
 21
1748.036645718494
 31
0.0
  0
LINE
  5
12AE3
330
1F07
100
AcDbEntity
  8
器具
100
AcDbLine
 10
138390.2188959537
 20
1714.252132046222
 30
0.0
 11
138374.8218102301
 21
1725.424789823133
 31
0.0
  0
LINE
  5
12AE4
330
1F07
100
AcDbEntity
  8
器具
100
AcDbLine
 10
138469.9013572759
 20
1665.997901936193
 30
0.0
 11
138394.068447063
 21
1631.743224940823
 31
0.0
  0
LINE
  5
12AE5
330
1F07
100
AcDbEntity
  8
器具
100
AcDbLine
 10
138394.068447063
 20
1631.743224940823
 30
0.0
 11
138378.6713613394
 21
1642.915882717756
 31
0.0
  0
LINE
  5
12AE6
330
1F07
100
AcDbEntity
  8
器具
100
AcDbLine
 10
138394.068447063
 20
1631.743224940823
 30
0.0
 11
138390.2188959537
 21
1714.252132046222
 31
0.0
  0
LINE
  5
12AE7
330
1F07
100
AcDbEntity
  8
器具
100
AcDbLine
 10
138378.6713613394
 20
1642.915882717756
 30
0.0
 11
138374.8218102301
 21
1725.424789823133
 31
0.0
  0
LINE
  5
12AE8
330
1F07
100
AcDbEntity
  8
器具
100
AcDbLine
 10
138468.8969248393
 20
1748.036645718494
 30
0.0
 11
138473.976581644
 21
1669.418190867283
 31
0.0
  0
LINE
  5
12AE9
330
1F07
100
AcDbEntity
  8
器具
100
AcDbLine
 10
138862.0495372871
 20
2025.684617422376
 30
0.0
 11
138841.5178522326
 21
2037.658893152217
 31
0.0
  0
ENDSEC
  0
SECTION
  2
OBJECTS
  0
DICTIONARY
  5
1EF5
330
0
100
AcDbDictionary
281
     1
  3
ACAD_COLOR
350
8C47
  3
ACAD_GROUP
350
1EF6
  3
ACAD_LAYOUT
350
1F02
  3
ACAD_MATERIAL
350
8C46
  3
ACAD_MLINESTYLE
350
1EFF
  3
ACAD_PLOTSETTINGS
350
1F01
  3
ACAD_PLOTSTYLENAME
350
1EF7
  3
ACAD_TABLESTYLE
350
8C48
  3
ACDBHEADERROUNDTRIPXREC
350
15255
  3
AcDbVariableDictionary
350
4454
  0
DICTIONARY
  5
9A3A
330
1EEB
100
AcDbDictionary
280
     1
281
     1
  3
ACAD_LAYERFILTERS
360
A52F
  3
ACAD_LAYERSTATES
360
9A3B
  0
DICTIONARY
  5
980C
330
1F07
100
AcDbDictionary
280
     1
281
     1
  3
ACAD_SORTENTS
360
980D
  0
DICTIONARY
  5
8C47
102
{ACAD_REACTORS
330
1EF5
102
}
330
1EF5
100
AcDbDictionary
281
     1
  0
DICTIONARY
  5
1EF6
102
{ACAD_REACTORS
330
1EF5
102
}
330
1EF5
100
AcDbDictionary
281
     1
  0
DICTIONARY
  5
1F02
102
{ACAD_REACTORS
330
1EF5
102
}
330
1EF5
100
AcDbDictionary
281
     1
  3
Model
350
1F0A
  3
ﾚｲｱｳﾄ1
350
1F06
  0
DICTIONARY
  5
8C46
102
{ACAD_REACTORS
330
1EF5
102
}
330
1EF5
100
AcDbDictionary
281
     1
  0
DICTIONARY
  5
1EFF
102
{ACAD_REACTORS
330
1EF5
102
}
330
1EF5
100
AcDbDictionary
281
     1
  3
Standard
350
1F00
  0
DICTIONARY
  5
1F01
102
{ACAD_REACTORS
330
1EF5
102
}
330
1EF5
100
AcDbDictionary
281
     1
  0
ACDBDICTIONARYWDFLT
  5
1EF7
102
{ACAD_REACTORS
330
1EF5
102
}
330
1EF5
100
AcDbDictionary
281
     1
  3
Normal
350
1EF8
100
AcDbDictionaryWithDefault
340
1EF8
  0
DICTIONARY
  5
8C48
102
{ACAD_REACTORS
330
1EF5
102
}
330
1EF5
100
AcDbDictionary
281
     1
  3
Standard
350
8C49
  0
DICTIONARY
  5
15255
102
{ACAD_REACTORS
330
1EF5
102
}
330
1EF5
100
AcDbDictionary
281
     1
  0
DICTIONARY
  5
4454
102
{ACAD_REACTORS
330
1EF5
102
}
330
1EF5
100
AcDbDictionary
281
     1
  3
CTABLESTYLE
350
8CAE
  3
DIMASSOC
350
8CAF
  3
PROJECTNAME
350
8CB0
  3
SORTENTS
350
4455
  0
DICTIONARY
  5
A52F
102
{ACAD_REACTORS
330
9A3A
102
}
330
9A3A
100
AcDbDictionary
280
     1
281
     1
  0
DICTIONARY
  5
9A3B
102
{ACAD_REACTORS
330
9A3A
102
}
330
9A3A
100
AcDbDictionary
281
     1
  0
SORTENTSTABLE
  5
980D
102
{ACAD_REACTORS
330
980C
102
}
330
980C
100
AcDbSortentsTable
330
1F07
331
12A82
  5
12A8A
331
12AB9
  5
12AC1
331
12A4B
  5
12A54
331
12A8A
  5
12A92
331
12AC1
  5
12AC9
331
12A92
  5
12A9A
331
12A53
  5
12A5B
331
12AC9
  5
12AD1
331
12A5B
  5
12A63
331
12A9A
  5
12AA2
331
12AD1
  5
12AD9
331
12A63
  5
12A6B
331
12AA2
  5
12AAA
331
12AD9
  5
12AE1
331
12AAA
  5
12AB2
331
12A6B
  5
12A73
331
12AE1
  5
12AE9
331
12A73
  5
12A7B
331
12AB2
  5
12ABA
331
12AE9
  5
12B9A
331
12A7B
  5
12A83
331
12A83
  5
12A8B
331
12ABA
  5
12AC2
331
12A4C
  5
12A55
331
12A8B
  5
12A93
331
12AC2
  5
12ACA
331
12A93
  5
12A9B
331
12A54
  5
12A5C
331
12ACA
  5
12AD2
331
12A5C
  5
12A64
331
12A9B
  5
12AA3
331
12AD2
  5
12ADA
331
12A64
  5
12A6C
331
12AA3
  5
12AAB
331
12ADA
  5
12AE2
331
12AAB
  5
12AB3
331
12A6C
  5
12A74
331
12AE2
  5
12AEA
331
12A74
  5
12A7C
331
12AB3
  5
12ABB
331
12A7C
  5
12A84
331
12ABB
  5
12AC3
331
12A84
  5
12A8C
331
12A4D
  5
12A56
331
12A8C
  5
12A94
331
12AC3
  5
12ACB
331
12A94
  5
12A9C
331
12A55
  5
12A5D
331
12ACB
  5
12AD3
331
12A5D
  5
12A65
331
12A9C
  5
12AA4
331
12AD3
  5
12ADB
331
12A65
  5
12A6D
331
12AA4
  5
12AAC
331
12ADB
  5
12AE3
331
12AAC
  5
12AB4
331
12A6D
  5
12A75
331
12AE3
  5
12B94
331
12A75
  5
12A7D
331
12AB4
  5
12ABC
331
12A7D
  5
12A85
331
12ABC
  5
12AC4
331
12A85
  5
12A8D
331
12A4E
  5
12A57
331
12A8D
  5
12A95
331
12AC4
  5
12ACC
331
12ACC
  5
12AD4
331
12A56
  5
12A5E
331
12A95
  5
12A9D
331
12A5E
  5
12A66
331
12A9D
  5
12AA5
331
12AD4
  5
12ADC
331
12A66
  5
12A6E
331
12AA5
  5
12AAD
331
12ADC
  5
12AE4
331
12AAD
  5
12AB5
331
12A6E
  5
12A76
331
12AE4
  5
12B95
331
12A76
  5
12A7E
331
12AB5
  5
12ABD
331
12A7E
  5
12A86
331
12ABD
  5
12AC5
331
12A86
  5
12A8E
331
12A8E
  5
12A96
331
12AC5
  5
12ACD
331
12ACD
  5
12AD5
331
12A57
  5
12A5F
331
12A96
  5
12A9E
331
12A5F
  5
12A67
331
12A9E
  5
12AA6
331
12AD5
  5
12ADD
331
12A67
  5
12A6F
331
12AA6
  5
12AAE
331
12ADD
  5
12AE5
331
12AE5
  5
12B96
331
12A6F
  5
12A77
331
12AAE
  5
12AB6
331
12A77
  5
12A7F
331
12AB6
  5
12ABE
331
12A7F
  5
12A87
331
12ABE
  5
12AC6
331
12A87
  5
12A8F
331
12A50
  5
12A58
331
12A8F
  5
12A97
331
12AC6
  5
12ACE
331
12ACE
  5
12AD6
331
12A58
  5
12A60
331
12A97
  5
12A9F
331
12A9F
  5
12AA7
331
12AD6
  5
12ADE
331
12A60
  5
12A68
331
12A68
  5
12A70
331
12AA7
  5
12AAF
331
12ADE
  5
12AE6
331
12AE6
  5
12B97
331
12A70
  5
12A78
331
12AAF
  5
12AB7
331
12A78
  5
12A80
331
12AB7
  5
12ABF
331
12A80
  5
12A88
331
12A88
  5
12A90
331
12ABF
  5
12AC7
331
12A51
  5
12A59
331
12A90
  5
12A98
331
12AC7
  5
12ACF
331
12A59
  5
12A61
331
12A98
  5
12AA0
331
12ACF
  5
12AD7
331
12AD7
  5
12ADF
331
12A61
  5
12A69
331
12AA0
  5
12AA8
331
12A69
  5
12A71
331
12AA8
  5
12AB0
331
12ADF
  5
12AE7
331
12AE7
  5
12B98
331
12A71
  5
12A79
331
12AB0
  5
12AB8
331
12A79
  5
12A81
331
12A81
  5
12A89
331
128EA
  5
1291C
331
12AB8
  5
12AC0
331
12A4A
  5
12A53
331
12A89
  5
12A91
331
12AC0
  5
12AC8
331
12A91
  5
12A99
331
12A52
  5
12A5A
331
12AC8
  5
12AD0
331
12A5A
  5
12A62
331
12A99
  5
12AA1
331
12AD0
  5
12AD8
331
12A62
  5
12A6A
331
12AA1
  5
12AA9
331
12AD8
  5
12AE0
331
12A6A
  5
12A72
331
12AA9
  5
12AB1
331
12AE0
  5
12AE8
331
12A72
  5
12A7A
331
12AB1
  5
12AB9
331
12AE8
  5
12B99
331
12A7A
  5
12A82
  0
LAYOUT
  5
1F0A
102
{ACAD_XDICTIONARY
360
15258
102
}
102
{ACAD_REACTORS
330
1F02
102
}
330
1F02
100
AcDbPlotSettings
  1

  2
DocuWorks Printer
  4
A4
  6

 40
5.408083438873291
 41
5.408078670501708
 42
5.408096313476562
 43
5.4080810546875
 44
210.0156707763672
 45
297.0106506347656
 46
0.0
 47
0.0
 48
130685.0295538188
 49
-2243.675720394549
140
146686.92314979
141
10328.00661908636
142
1.0
143
40.0
 70
 11936
 72
     1
 73
     1
 74
     4
  7
aclt.ctb
 75
     0
147
0.01
148
-130685.0295538188
149
2243.675720394549
100
AcDbLayout
  1
Model
 70
     1
 71
     0
 10
0.0
 20
0.0
 11
12.0
 21
9.0
 12
0.0
 22
0.0
 32
0.0
 14
0.0
 24
0.0
 34
0.0
 15
0.0
 25
0.0
 35
0.0
146
0.0
 13
0.0
 23
0.0
 33
0.0
 16
1.0
 26
0.0
 36
0.0
 17
0.0
 27
1.0
 37
0.0
 76
     0
330
1F07
1001
ACAD_PSEXT
1000
DocuWorks Printer
1000
DocuWorks Printer Driver
1000
DocuWorks Port
1000

1070
     0
  0
LAYOUT
  5
1F06
102
{ACAD_XDICTIONARY
360
15256
102
}
102
{ACAD_REACTORS
330
1F02
102
}
330
1F02
100
AcDbPlotSettings
  1

  2
HP DesignJet 430 (D / A1)
  4

  6

 40
0.0
 41
0.0
 42
0.0
 43
0.0
 44
0.0
 45
0.0
 46
0.0
 47
0.0
 48
0.0
 49
0.0
140
0.0
141
0.0
142
1.0
143
1.0
 70
   688
 72
     0
 73
     0
 74
     5
  7
aclt.ctb
 75
    16
147
1.0
148
0.0
149
0.0
100
AcDbLayout
  1
ﾚｲｱｳﾄ1
 70
     0
 71
     1
 10
0.0
 20
0.0
 11
12.0
 21
9.0
 12
0.0
 22
0.0
 32
0.0
 14
1.000000000000000E+20
 24
1.000000000000000E+20
 34
1.000000000000000E+20
 15
-1.000000000000000E+20
 25
-1.000000000000000E+20
 35
-1.000000000000000E+20
146
0.0
 13
0.0
 23
0.0
 33
0.0
 16
1.0
 26
0.0
 36
0.0
 17
0.0
 27
1.0
 37
0.0
 76
     0
330
1F03
  0
MLINESTYLE
  5
1F00
102
{ACAD_REACTORS
330
1EFF
102
}
330
1EFF
100
AcDbMlineStyle
  2
STANDARD
 70
     0
  3

 62
   256
 51
90.0
 52
90.0
 71
     2
 49
0.5
 62
   256
  6
BYLAYER
 49
-0.5
 62
   256
  6
BYLAYER
  0
ACDBPLACEHOLDER
  5
1EF8
102
{ACAD_REACTORS
330
1EF7
102
}
330
1EF7
  0
TABLESTYLE
  5
8C49
102
{ACAD_REACTORS
330
8C48
102
}
330
8C48
100
AcDbTableStyle
  3
Standard
 70
     0
 71
     0
 40
0.06
 41
0.06
280
     0
281
     0
  7
STANDARD
140
0.18
170
     2
 62
     0
 63
     7
283
     0
274
    -2
284
     1
 64
     0
275
    -2
285
     1
 65
     0
276
    -2
286
     1
 66
     0
277
    -2
287
     1
 67
     0
278
    -2
288
     1
 68
     0
279
    -2
289
     1
 69
     0
  7
STANDARD
140
0.25
170
     5
 62
     0
 63
     7
283
     0
274
    -2
284
     1
 64
     0
275
    -2
285
     1
 65
     0
276
    -2
286
     1
 66
     0
277
    -2
287
     1
 67
     0
278
    -2
288
     1
 68
     0
279
    -2
289
     1
 69
     0
  7
STANDARD
140
0.18
170
     5
 62
     0
 63
     7
283
     0
274
    -2
284
     1
 64
     0
275
    -2
285
     1
 65
     0
276
    -2
286
     1
 66
     0
277
    -2
287
     1
 67
     0
278
    -2
288
     1
 68
     0
279
    -2
289
     1
 69
     0
  0
DICTIONARYVAR
  5
8CAE
102
{ACAD_REACTORS
330
4454
102
}
330
4454
100
DictionaryVariables
280
     0
  1
STANDARD
  0
DICTIONARYVAR
  5
8CAF
102
{ACAD_REACTORS
330
4454
102
}
330
4454
100
DictionaryVariables
280
     0
  1
1
  0
DICTIONARYVAR
  5
8CB0
102
{ACAD_REACTORS
330
4454
102
}
330
4454
100
DictionaryVariables
280
     0
  1

  0
DICTIONARYVAR
  5
4455
102
{ACAD_REACTORS
330
4454
102
}
330
4454
100
DictionaryVariables
280
     0
  1
96
  0
DICTIONARY
  5
15258
330
1F0A
100
AcDbDictionary
280
     1
281
     1
  3
ACAD_XREC_ROUNDTRIP
360
15259
  0
DICTIONARY
  5
15256
330
1F06
100
AcDbDictionary
280
     1
281
     1
  3
ACAD_XREC_ROUNDTRIP
360
15257
  0
XRECORD
  5
15259
102
{ACAD_REACTORS
330
15258
102
}
330
15258
100
AcDbXrecord
280
     1
102
SHADEPLOT
 70
     0
102
SHADEPLOTRESLEVEL
 70
     2
102
SHADEPLOTCUSTOMDPI
 70
   300
  0
XRECORD
  5
15257
102
{ACAD_REACTORS
330
15256
102
}
330
15256
100
AcDbXrecord
280
     1
102
SHADEPLOT
 70
     0
102
SHADEPLOTRESLEVEL
 70
     2
102
SHADEPLOTCUSTOMDPI
 70
   300
  0
ENDSEC
  0
EOF
