  0
SECTION
  2
HEADER
  9
$ACADVER
  1
AC1009
  9
$INSBASE
 10
0
 20
0
 30
0
  9
$EXTMIN
 10
0
 20
0
  9
$EXTMAX
 10
297
 20
210
  9
$LIMMIN
 10
0
 20
0
  9
$LIMMAX
 10
297
 20
210
  9
$LTSCALE
 40
1
  0
ENDSEC
  0
SECTION
  2
TABLES
  0
TABLE
  2
LTYPE
 70
     9
  0
LTYPE
  2
CONTINUOUS
 70
    64
  3
実線
 72
    65
 73
     0
 40
0.0
  0
LTYPE
  2
DASHED1
 70
    64
  3
--  --  --  --  --  --  --  --  
 72
    65
 73
     2
 40
2.5
 49
1.25
 49
-1.25
  0
LTYPE
  2
DASHED2
 70
    64
  3
----    ----    ----    ----    
 72
    65
 73
     2
 40
5.0
 49
2.5
 49
-2.5
  0
LTYPE
  2
DASHED3
 70
    64
  3
------  ------  ------  ------  
 72
    65
 73
     2
 40
5.0
 49
3.75
 49
-1.25
  0
LTYPE
  2
CENTER1
 70
    64
  3
----- - ----- - ----- - ----- - 
 72
    65
 73
     4
 40
10.0
 49
6.25
 49
-1.25
 49
1.25
 49
-1.25
  0
LTYPE
  2
CENTER2
 70
    64
  3
----------  --  ----------  --  
 72
    65
 73
     4
 40
20.0
 49
12.5
 49
-2.5
 49
2.5
 49
-2.5
  0
LTYPE
  2
PHANTOM1
 70
    64
  3
--- - - --- - - --- - - --- - - 
 72
    65
 73
     6
 40
10.0
 49
3.25
 49
-1.25
 49
1.25
 49
-1.25
 49
1.25
 49
-1.25
  0
LTYPE
  2
PHANTOM2
 70
    64
  3
--------  -  -  --------  -  -  
 72
    65
 73
     6
 40
20.0
 49
10.0
 49
-2.5
 49
1.25
 49
-2.5
 49
1.25
 49
-2.5
  0
LTYPE
  2
DOT
 70
    64
  3
-   -   -   -   -   -   -   -   
 72
    65
 73
     2
 40
2.5
 49
0.625
 49
-1.875
  0
LTYPE
  2
DUMMY
 70
    64
  3
ダミー
 72
    65
 73
     0
 40
0.0
  0
LTYPE
  2
RAND1
 70
    64
  3
ランダム線1
 72
    65
 73
     4
 40
10.0
 49
1.0
 49
-2.0
 49
3.0
 49
-4.0
  0
LTYPE
  2
RAND2
 70
    64
  3
ランダム線2
 72
    65
 73
     4
 40
14.0
 49
2.0
 49
-3.0
 49
4.0
 49
-5.0
  0
LTYPE
  2
RAND3
 70
    64
  3
ランダム線3
 72
    65
 73
     4
 40
18.0
 49
3.0
 49
-4.0
 49
5.0
 49
-6.0
  0
LTYPE
  2
RAND4
 70
    64
  3
ランダム線4
 72
    65
 73
     4
 40
22.0
 49
4.0
 49
-5.0
 49
6.0
 49
-7.0
  0
LTYPE
  2
RAND5
 70
    64
  3
ランダム線5
 72
    65
 73
     4
 40
26.0
 49
5.0
 49
-6.0
 49
7.0
 49
-8.0
  0
LTYPE
  2
LONG1
 70
    64
  3
----------  --  ----------  --  
 72
    65
 73
     4
 40
40.0
 49
32.5
 49
-2.5
 49
2.5
 49
-2.5
  0
LTYPE
  2
LONG2
 70
    64
  3
--------  -  -  --------  -  -  
 72
    65
 73
     6
 40
40.0
 49
30.0
 49
-2.5
 49
1.25
 49
-2.5
 49
1.25
 49
-2.5
  0
LTYPE
  2
LONG3
 70
    64
  3
+++++++++++++++..+++++++++++++++
 72
    65
 73
     2
 40
40.0
 49
37.5
 49
-2.5
  0
LTYPE
  2
LONG4
 70
    64
  3
+++++++++++++++..+++++++++++++++
 72
    65
 73
     2
 40
80.0
 49
75.0
 49
-5.0
  0
LTYPE
  2
LONG5
 70
    64
  3
----------  --  ----------  --  
 72
    65
 73
     4
 40
60.0
 49
37.5
 49
-7.5
 49
7.5
 49
-7.5
  0
LTYPE
  2
dashed
 70
   64
  3
-------   -------------   ------
 72
   65
 73
    2
 40
7.5
 49
6
 49
-1.5
  0
LTYPE
  2
dashed_spaced
 70
   64
  3
----        --------        ----
 72
   65
 73
    2
 40
12
 49
6
 49
-6
  0
LTYPE
  2
long_dashed_dotted
 70
   64
  3
------------- --- --------------
 72
   65
 73
    4
 40
15.25
 49
12
 49
-1.5
 49
0.25
 49
-1.5
  0
LTYPE
  2
long_dashed_double-dotted
 70
   64
  3
----------- --- --- ------------
 72
   65
 73
    6
 40
17
 49
12
 49
-1.5
 49
0.25
 49
-1.5
 49
0.25
 49
-1.5
  0
LTYPE
  2
long_dashed_triplicate-dotted
 70
   64
  3
--------- --- --- --- ----------
 72
   65
 73
    8
 40
18.75
 49
12
 49
-1.5
 49
0.25
 49
-1.5
 49
0.25
 49
-1.5
 49
0.25
 49
-1.5
  0
LTYPE
  2
dotted
 70
   64
  3
   -       -       -       -    
 72
   65
 73
    2
 40
1.75
 49
0.25
 49
-1.5
  0
LTYPE
  2
chain
 70
   64
  3
-------------- -- --------------
 72
   65
 73
    4
 40
18.5
 49
12
 49
-1.5
 49
3.5
 49
-1.5
  0
LTYPE
  2
chain_double_dash
 70
   64
  3
------------ -- -- -------------
 72
   65
 73
    6
 40
23.5
 49
12
 49
-1.5
 49
3.5
 49
-1.5
 49
3.5
 49
-1.5
  0
LTYPE
  2
dashed_dotted
 70
   64
  3
-----------     -     ----------
 72
   65
 73
    4
 40
9.25
 49
6
 49
-1.5
 49
0.25
 49
-1.5
  0
LTYPE
  2
double-dashed_dotted
 70
   64
  3
------   -----------   -   -----
 72
   65
 73
    6
 40
16.75
 49
6
 49
-1.5
 49
6
 49
-1.5
 49
0.25
 49
-1.5
  0
LTYPE
  2
dashed_double-dotted
 70
   64
  3
---------    -    -    ---------
 72
   65
 73
    6
 40
11
 49
6
 49
-1.5
 49
0.25
 49
-1.5
 49
0.25
 49
-1.5
  0
LTYPE
  2
double-dashed_double-dotted
 70
   64
  3
-----   ---------   -   -   ----
 72
   65
 73
    8
 40
18.5
 49
6
 49
-1.5
 49
6
 49
-1.5
 49
0.25
 49
-1.5
 49
0.25
 49
-1.5
  0
LTYPE
  2
dashed_triplicate-dotted
 70
   64
  3
-------    -    -    -    ------
 72
   65
 73
    8
 40
12.75
 49
6
 49
-1.5
 49
0.25
 49
-1.5
 49
0.25
 49
-1.5
 49
0.25
 49
-1.5
  0
LTYPE
  2
double-dashed_triplicate-dotted
 70
   64
  3
-----  ---------  -  -  -  -----
 72
   65
 73
   10
 40
20.25
 49
6
 49
-1.5
 49
6
 49
-1.5
 49
0.25
 49
-1.5
 49
0.25
 49
-1.5
 49
0.25
 49
-1.5
  0
LTYPE
  2
undefined
 70
   64
  3
--------------------------------
 72
   65
 73
    0
 40
0
  0
LTYPE
  2
ISO-02___
 70
   64
  3
-------   -------------   ------
 72
   65
 73
    2
 40
0.2999999999999999
 49
0.2399999999999999
 49
-0.0599999999999999
  0
LTYPE
  2
ISO-03_____
 70
   64
  3
---          ------          ---
 72
   65
 73
    2
 40
0.5999999999999999
 49
0.2399999999999999
 49
-0.3599999999999999
  0
LTYPE
  2
ISO-04______
 70
   64
  3
-------------   -   ------------
 72
   65
 73
    4
 40
0.6100000000000001
 49
0.4799999999999999
 49
-0.0600000000000001
 49
0.01
 49
-0.0600000000000001
  0
LTYPE
  2
ISO-05______
 70
   64
  3
-----------   -   -   ----------
 72
   65
 73
    6
 40
0.6800000000000001
 49
0.4799999999999999
 49
-0.0600000000000001
 49
0.01
 49
-0.0600000000000001
 49
0.01
 49
-0.0600000000000001
  0
LTYPE
  2
ISO-06______
 70
   64
  3
---------   -   -   -   --------
 72
   65
 73
    8
 40
0.7500000000000002
 49
0.4799999999999999
 49
-0.0600000000000001
 49
0.01
 49
-0.0600000000000001
 49
0.01
 49
-0.0600000000000001
 49
0.01
 49
-0.0600000000000001
  0
LTYPE
  2
ISO-07___
 70
   64
  3
-              --              -
 72
   65
 73
    2
 40
0.0699999999999999
 49
0.01
 49
-0.0599999999999999
  0
LTYPE
  2
ISO-08_____
 70
   64
  3
-----------   -----   ----------
 72
   65
 73
    4
 40
0.7199999999999999
 49
0.4799999999999999
 49
-0.0600000000000001
 49
0.12
 49
-0.0599999999999999
  0
LTYPE
  2
ISO-09_____
 70
   64
  3
---------  ----  ----  ---------
 72
   65
 73
    6
 40
0.8999999999999999
 49
0.4799999999999999
 49
-0.0600000000000001
 49
0.12
 49
-0.0599999999999999
 49
0.12
 49
-0.0599999999999999
  0
LTYPE
  2
ISO-10______
 70
   64
  3
-----------     -     ----------
 72
   65
 73
    4
 40
0.37
 49
0.2399999999999999
 49
-0.0599999999999999
 49
0.01
 49
-0.0599999999999999
  0
LTYPE
  2
ISO-11_______
 70
   64
  3
------   -----------   -   -----
 72
   65
 73
    6
 40
0.6700000000000001
 49
0.2399999999999999
 49
-0.0599999999999999
 49
0.2399999999999999
 49
-0.0600000000000001
 49
0.01
 49
-0.0600000000000001
  0
LTYPE
  2
ISO-12______
 70
   64
  3
---------    -    -    ---------
 72
   65
 73
    6
 40
0.44
 49
0.2399999999999999
 49
-0.0599999999999999
 49
0.01
 49
-0.0599999999999999
 49
0.01
 49
-0.0599999999999999
  0
LTYPE
  2
ISO-13_______
 70
   64
  3
-----   ---------   -   -   ----
 72
   65
 73
    8
 40
0.7400000000000002
 49
0.2399999999999999
 49
-0.0599999999999999
 49
0.2399999999999999
 49
-0.0600000000000001
 49
0.01
 49
-0.0600000000000001
 49
0.01
 49
-0.0600000000000001
  0
LTYPE
  2
ISO-14______
 70
   64
  3
-------    -    -    -    ------
 72
   65
 73
    8
 40
0.51
 49
0.2399999999999999
 49
-0.0599999999999999
 49
0.01
 49
-0.0599999999999999
 49
0.01
 49
-0.0599999999999999
 49
0.01
 49
-0.0599999999999999
  0
LTYPE
  2
VW-01____
 70
   64
  3
----        --------        ----
 72
   65
 73
    2
 40
0.1666239999999999
 49
0.0833119999999999
 49
-0.0833119999999999
  0
LTYPE
  2
VW-02____
 70
   64
  3
------     -----------     -----
 72
   65
 73
    2
 40
0.2777399999999999
 49
0.1944279999999999
 49
-0.0833119999999999
  0
LTYPE
  2
DOT_32
 70
   64
  3
---           -----           --
 72
   65
 73
    2
 40
0.1889763779527559
 49
0.0629921259842519
 49
-0.1259842519685039
  0
ENDTAB
  0
TABLE
  2
STYLE
  5
3
100
AcDbSymbolTable
 70
     1
  0
STYLE
  5
10
100
AcDbSymbolTableRecord
100
AcDbTextStyleTableRecord
  2
STANDARD
 70
     0
 40
0.0
 41
1.0
 50
0.0
 71
     0
 42
0.2
  3
txt
  4
bigfont.shx
  0
STYLE
  5
26
100
AcDbSymbolTableRecord
100
AcDbTextStyleTableRecord
  2
TATEGAKI
 70
    68
 40
0.0
 41
1.0
 50
0.0
 71
     0
 42
1.0
  3
txt
  4
bigfont.shx
  0
ENDTAB
  0
TABLE
  2
LAYER
 70
    3
  0
LAYER
  2
_0-0_0
 70
   64
 62
    7
  6
CONTINUOUS
  0
LAYER
  2
_0-3___-2
 70
   64
 62
    7
  6
CONTINUOUS
  0
LAYER
  2
ADD_LINE
 70
   64
 62
    7
  6
CONTINUOUS
  0
ENDTAB
  0
ENDSEC
  0
SECTION
  2
BLOCKS
  0
ENDSEC
  0
SECTION
  2
ENTITIES
  0
TEXT
  8
_0-0_0
 62
    7
 10
101.59495063007944
 20
170.74127374013551
 40
5.9999998954628779
 41
1.0000000000000007
 50
0
  1
LED外部ｽﾎﾟｯﾄﾗｲﾄ
  0
TEXT
  8
_0-0_0
 62
    7
 10
101.59495063007944
 20
160.93358160331627
 40
5.9999998954628779
 41
1.0000000000000007
 50
0
  1
BGSL-20072　(1/2照度角　58°) 
  0
TEXT
  8
_0-0_0
 62
    7
 10
137.36418077610779
 20
151.12588946650612
 40
5.999999895462885
 41
0.9999999999999995
 50
0
  1
LED118W  (5000K) 
  0
TEXT
  8
_0-3___-2
 62
    7
 10
163.37861703704311
 20
134.27325738716536
 40
6.0000038191759657
 41
1
 50
0
  1
Re:ray
  0
TEXT
  8
_0-3___-2
 62
    7
 10
78.450743254876215
 20
33.302076630505326
 40
5
 41
0.9999999999999997
 50
0
  1
幅:282　長さ:428　高さ:205(mm)
  0
LINE
  8
_0-0_0
  6
CONTINUOUS
 62
    4
 10
96.214170760201341
 20
124.65606999395459
 11
93.834029243336772
 21
122.30623188433492
  0
LINE
  8
_0-0_0
  6
CONTINUOUS
 62
    4
 10
93.834029243336772
 20
122.30623188433492
 11
93.779927402975773
 21
122.17172447857592
  0
LINE
  8
_0-0_0
  6
CONTINUOUS
 62
    4
 10
93.779927402975773
 20
122.17172447857592
 11
93.779927402975773
 21
110.39536047499496
  0
LINE
  8
_0-0_0
  6
CONTINUOUS
 62
    4
 10
93.779927402975773
 20
110.39536047499496
 11
93.779927402975773
 21
107.86318932604627
  0
LINE
  8
_0-0_0
  6
CONTINUOUS
 62
    4
 10
93.779927402975773
 20
107.86318932604627
 11
93.575632665747435
 21
102.83447573561534
  0
LINE
  8
_0-0_0
  6
CONTINUOUS
 62
    4
 10
93.575632665747435
 20
102.83447573561534
 11
93.575632665747435
 21
99.544646282914982
  0
LINE
  8
_0-0_0
  6
CONTINUOUS
 62
    4
 10
93.575632665747435
 20
99.544646282914982
 11
94.045933956726003
 21
98.821606831384997
  0
LINE
  8
_0-0_0
  6
CONTINUOUS
 62
    4
 10
94.045933956726003
 20
98.821606831384997
 11
112.22812913700545
 21
86.84500322981512
  0
LINE
  8
_0-0_0
  6
CONTINUOUS
 62
    4
 10
112.22812913700545
 20
86.84500322981512
 11
113.50327850405665
 21
86.02345752234578
  0
LINE
  8
_0-0_0
  6
CONTINUOUS
 62
    4
 10
113.50327850405665
 20
86.02345752234578
 11
115.27595208881485
 21
86.348825154786027
  0
LINE
  8
_0-0_0
  6
CONTINUOUS
 62
    4
 10
115.27595208881485
 20
86.348825154786027
 11
116.19846560715359
 21
86.348825154786027
  0
LINE
  8
_0-0_0
  6
CONTINUOUS
 62
    4
 10
117.08480239953315
 20
86.728420840954641
 11
119.61719283453931
 21
87.523764306644807
  0
LINE
  8
_0-0_0
  6
CONTINUOUS
 62
    4
 10
119.61719283453931
 20
87.523764306644807
 11
120.35882167212549
 21
87.867208071995265
  0
LINE
  8
_0-0_0
  6
CONTINUOUS
 62
    4
 10
120.35882167212549
 20
87.867208071995265
 11
120.57588377947559
 21
87.650296202034951
  0
LINE
  8
_0-0_0
  6
CONTINUOUS
 62
    4
 10
120.57588377947559
 20
87.650296202034951
 11
120.57588377947559
 21
87.14416862046528
  0
LINE
  8
_0-0_0
  6
CONTINUOUS
 62
    4
 10
120.57588377947559
 20
87.14416862046528
 11
120.99191928087657
 21
86.583812985154509
  0
LINE
  8
_0-0_0
  6
CONTINUOUS
 62
    4
 10
120.99191928087657
 20
86.583812985154509
 11
121.3717777060001
 21
86.204217298974982
  0
LINE
  8
_0-0_0
  6
CONTINUOUS
 62
    4
 10
121.3717777060001
 20
86.204217298974982
 11
121.75163648144189
 21
85.951153508194693
  0
LINE
  8
_0-0_0
  6
CONTINUOUS
 62
    4
 10
121.75163648144189
 20
85.951153508194693
 11
122.36664537689558
 21
85.752317598646187
  0
LINE
  8
_0-0_0
  6
CONTINUOUS
 62
    4
 10
122.36664537689558
 20
85.752317598646187
 11
122.8731237441516
 21
85.553481861605178
  0
LINE
  8
_0-0_0
  6
CONTINUOUS
 62
    4
 10
122.8731237441516
 20
85.553481861605178
 11
123.32533632183095
 21
85.770393559056174
  0
LINE
  8
_0-0_0
  6
CONTINUOUS
 62
    4
 10
123.32533632183095
 20
85.770393559056174
 11
123.52430971588365
 21
85.37272191246484
  0
LINE
  8
_0-0_0
  6
CONTINUOUS
 62
    4
 10
123.52430971588365
 20
85.37272191246484
 11
123.84990270174785
 21
85.119658121684552
  0
LINE
  8
_0-0_0
  6
CONTINUOUS
 62
    4
 10
123.84990270174785
 20
85.119658121684552
 11
124.13931896165377
 21
85.119658121684552
  0
LINE
  8
_0-0_0
  6
CONTINUOUS
 62
    4
 10
124.13931896165377
 20
85.119658121684552
 11
124.13931896165377
 21
84.812366449665205
  0
LINE
  8
_0-0_0
  6
CONTINUOUS
 62
    4
 10
124.13931896165377
 20
84.812366449665205
 11
124.13931896165377
 21
84.649682460934855
  0
LINE
  8
_0-0_0
  6
CONTINUOUS
 62
    4
 10
124.13931896165377
 20
84.649682460934855
 11
125.96306097593788
 21
83.55280560272513
  0
LINE
  8
_0-0_0
  6
CONTINUOUS
 62
    4
 10
125.96306097593788
 20
83.55280560272513
 11
127.97624035513309
 21
82.157242232955468
  0
LINE
  8
_0-0_0
  6
CONTINUOUS
 62
    4
 10
127.97624035513309
 20
82.157242232955468
 11
130.08010326922522
 21
81.015417673364936
  0
LINE
  8
_0-0_0
  6
CONTINUOUS
 62
    4
 10
130.08010326922522
 20
81.015417673364936
 11
130.44283845977225
 21
81.015417673364936
  0
LINE
  8
_0-0_0
  6
CONTINUOUS
 62
    4
 10
133.02444063445182
 20
79.869078608855489
 11
134.05823538451841
 21
79.470346389995029
  0
LINE
  8
_0-0_0
  6
CONTINUOUS
 62
    4
 10
134.05823538451841
 20
79.470346389995029
 11
135.29153461199803
 21
79.071613998636167
  0
LINE
  8
_0-0_0
  6
CONTINUOUS
 62
    4
 10
135.29153461199803
 20
79.071613998636167
 11
136.45228666123876
 21
78.727254049264957
  0
LINE
  8
_0-0_0
  6
CONTINUOUS
 62
    4
 10
136.45228666123876
 20
78.727254049264957
 11
137.0145256285623
 21
78.727254049264957
  0
LINE
  8
_0-0_0
  6
CONTINUOUS
 62
    4
 10
137.0145256285623
 20
78.727254049264957
 11
137.739995659339
 21
78.727254049264957
  0
LINE
  8
_0-0_0
  6
CONTINUOUS
 62
    4
 10
137.739995659339
 20
78.727254049264957
 11
138.4836027474139
 21
78.727254049264957
  0
LINE
  8
_0-0_0
  6
CONTINUOUS
 62
    4
 10
138.4836027474139
 20
78.727254049264957
 11
138.88261100160162
 21
78.727254049264957
  0
LINE
  8
_0-0_0
  6
CONTINUOUS
 62
    4
 10
138.88261100160162
 20
78.727254049264957
 11
139.06397877203563
 21
78.727254049264957
  0
LINE
  8
_0-0_0
  6
CONTINUOUS
 62
    4
 10
139.06397877203563
 20
78.727254049264957
 11
139.21085274821598
 21
78.727254049264957
  0
LINE
  8
_0-0_0
  6
CONTINUOUS
 62
    4
 10
139.21085274821598
 20
78.727254049264957
 11
139.21085274821598
 21
78.179806585905681
  0
LINE
  8
_0-0_0
  6
CONTINUOUS
 62
    4
 10
139.21085274821598
 20
78.179806585905681
 11
139.21085274821598
 21
77.781074194544999
  0
LINE
  8
_0-0_0
  6
CONTINUOUS
 62
    4
 10
139.21085274821598
 20
77.781074194544999
 11
139.21085274821598
 21
77.327969188674615
  0
LINE
  8
_0-0_0
  6
CONTINUOUS
 62
    4
 10
139.21085274821598
 20
77.327969188674615
 11
139.5373141744858
 21
76.747994863964777
  0
LINE
  8
_0-0_0
  6
CONTINUOUS
 62
    4
 10
139.5373141744858
 20
76.747994863964777
 11
139.7912287728368
 21
76.186144629085902
  0
LINE
  8
_0-0_0
  6
CONTINUOUS
 62
    4
 10
139.7912287728368
 20
76.186144629085902
 11
140.28092091224153
 21
75.67866700871491
  0
LINE
  8
_0-0_0
  6
CONTINUOUS
 62
    4
 10
140.28092091224153
 20
75.67866700871491
 11
140.80688681592437
 21
75.279934617345134
  0
LINE
  8
_0-0_0
  6
CONTINUOUS
 62
    4
 10
140.80688681592437
 20
75.279934617345134
 11
141.06080141427537
 21
75.279934617345134
  0
LINE
  8
_0-0_0
  6
CONTINUOUS
 62
    4
 10
141.06080141427537
 20
75.279934617345134
 11
141.06080141427537
 21
74.586502348305658
  0
LINE
  8
_0-0_0
  6
CONTINUOUS
 62
    4
 10
141.06080141427537
 20
74.586502348305658
 11
141.68036760751693
 21
73.843410180084902
  0
LINE
  8
_0-0_0
  6
CONTINUOUS
 62
    4
 10
141.68036760751693
 20
73.843410180084902
 11
142.06123915472563
 21
73.190938978535996
  0
LINE
  8
_0-0_0
  6
CONTINUOUS
 62
    4
 10
142.06123915472563
 20
73.190938978535996
 11
142.9318031916564
 21
72.71970988283465
  0
LINE
  8
_0-0_0
  6
CONTINUOUS
 62
    4
 10
142.9318031916564
 20
72.71970988283465
 11
143.91118782078502
 21
72.465971072644606
  0
LINE
  8
_0-0_0
  6
CONTINUOUS
 62
    4
 10
143.91118782078502
 20
72.465971072644606
 11
144.41901701748793
 21
72.465971072644606
  0
LINE
  8
_0-0_0
  6
CONTINUOUS
 62
    4
 10
144.41901701748793
 20
72.465971072644606
 11
144.89057244991363
 21
72.465971072644606
  0
LINE
  8
_0-0_0
  6
CONTINUOUS
 62
    4
 10
144.89057244991363
 20
72.465971072644606
 11
146.39592263240411
 21
72.900951816174711
  0
LINE
  8
_0-0_0
  6
CONTINUOUS
 62
    4
 10
146.39592263240411
 20
72.900951816174711
 11
147.37530726153182
 21
73.462802051055405
  0
LINE
  8
_0-0_0
  6
CONTINUOUS
 62
    4
 10
147.37530726153182
 20
73.462802051055405
 11
148.19146082720636
 21
74.169645694604696
  0
LINE
  8
_0-0_0
  6
CONTINUOUS
 62
    4
 10
148.19146082720636
 20
74.169645694604696
 11
148.84438403006425
 21
74.695247577315968
  0
LINE
  8
_0-0_0
  6
CONTINUOUS
 62
    4
 10
148.84438403006425
 20
74.695247577315968
 11
149.442896761665
 21
75.438339745534904
  0
LINE
  8
_0-0_0
  6
CONTINUOUS
 62
    4
 10
149.442896761665
 20
75.438339745534904
 11
150.07768290722379
 21
75.909568841236251
  0
LINE
  8
_0-0_0
  6
CONTINUOUS
 62
    4
 10
143.87491440682516
 20
72.465971072644606
 11
144.45529043144688
 21
72.212232262454563
  0
LINE
  8
_0-0_0
  6
CONTINUOUS
 62
    4
 10
144.45529043144688
 20
72.212232262454563
 11
145.03566645606679
 21
72.212232262454563
  0
LINE
  8
_0-0_0
  6
CONTINUOUS
 62
    4
 10
145.03566645606679
 20
72.212232262454563
 11
145.96064061393827
 21
72.212232262454563
  0
LINE
  8
_0-0_0
  6
CONTINUOUS
 62
    4
 10
145.96064061393827
 20
72.212232262454563
 11
147.10325595620088
 21
72.5747161291456
  0
LINE
  8
_0-0_0
  6
CONTINUOUS
 62
    4
 10
147.10325595620088
 20
72.5747161291456
 11
147.81058927999675
 21
73.009697045185021
  0
LINE
  8
_0-0_0
  6
CONTINUOUS
 62
    4
 10
147.81058927999675
 20
73.009697045185021
 11
148.73556343786822
 21
73.607795632235138
  0
LINE
  8
_0-0_0
  6
CONTINUOUS
 62
    4
 10
148.73556343786822
 20
73.607795632235138
 11
149.3522128764489
 21
74.115273080094994
  0
LINE
  8
_0-0_0
  6
CONTINUOUS
 62
    4
 10
149.3522128764489
 20
74.115273080094994
 11
150.04140949326666
 21
74.731495929485391
  0
LINE
  8
_0-0_0
  6
CONTINUOUS
 62
    4
 10
150.04140949326666
 20
74.731495929485391
 11
150.51296492569054
 21
75.166476673015495
  0
LINE
  8
_0-0_0
  6
CONTINUOUS
 62
    4
 10
150.51296492569054
 20
75.166476673015495
 11
150.83942670227952
 21
75.565209064376177
  0
LINE
  8
_0-0_0
  6
CONTINUOUS
 62
    4
 10
150.83942670227952
 20
75.565209064376177
 11
150.83942670227952
 21
75.80082361222594
  0
LINE
  8
_0-0_0
  6
CONTINUOUS
 62
    4
 10
150.83942670227952
 20
75.80082361222594
 11
151.05825091339375
 21
79.654230956164611
  0
LINE
  8
_0-0_0
  6
CONTINUOUS
 62
    4
 10
151.05825091339375
 20
79.654230956164611
 11
151.31216551174475
 21
80.342950509884759
  0
LINE
  8
_0-0_0
  6
CONTINUOUS
 62
    4
 10
151.31216551174475
 20
80.342950509884759
 11
151.51166998915778
 21
80.886676482425173
  0
LINE
  8
_0-0_0
  6
CONTINUOUS
 62
    4
 10
151.51166998915778
 20
80.886676482425173
 11
151.51166998915778
 21
81.26728461145467
  0
LINE
  8
_0-0_0
  6
CONTINUOUS
 62
    4
 10
151.51166998915778
 20
81.26728461145467
 11
151.91067824334641
 21
81.466650807135011
  0
LINE
  8
_0-0_0
  6
CONTINUOUS
 62
    4
 10
151.91067824334641
 20
81.466650807135011
 11
152.54546473922528
 21
81.466650807135011
  0
LINE
  8
_0-0_0
  6
CONTINUOUS
 62
    4
 10
152.54546473922528
 20
81.466650807135011
 11
153.07143029258805
 21
81.666017002815352
  0
LINE
  8
_0-0_0
  6
CONTINUOUS
 62
    4
 10
153.07143029258805
 20
81.666017002815352
 11
153.52484901803382
 21
81.466650807135011
  0
LINE
  8
_0-0_0
  6
CONTINUOUS
 62
    4
 10
153.52484901803382
 20
81.466650807135011
 11
153.96013103649875
 21
81.466650807135011
  0
LINE
  8
_0-0_0
  6
CONTINUOUS
 62
    4
 10
153.96013103649875
 20
81.466650807135011
 11
154.66746436029644
 21
81.176663644775545
  0
LINE
  8
_0-0_0
  6
CONTINUOUS
 62
    4
 10
154.66746436029644
 20
81.176663644775545
 11
155.24784038491725
 21
81.176663644775545
  0
LINE
  8
_0-0_0
  6
CONTINUOUS
 62
    4
 10
155.24784038491725
 20
81.176663644775545
 11
159.54625044863678
 21
81.883507460835972
  0
LINE
  8
_0-0_0
  6
CONTINUOUS
 62
    4
 10
159.54625044863678
 20
81.883507460835972
 11
159.8238984477548
 21
82.322694266995313
  0
LINE
  8
_0-0_0
  6
CONTINUOUS
 62
    4
 10
159.8238984477548
 20
82.322694266995313
 11
159.8238984477548
 21
86.001906755946038
  0
LINE
  8
_0-0_0
  6
CONTINUOUS
 62
    4
 10
159.8238984477548
 20
86.001906755946038
 11
160.58564189249046
 21
86.527508466155268
  0
LINE
  8
_0-0_0
  6
CONTINUOUS
 62
    4
 10
160.58564189249046
 20
86.527508466155268
 11
160.58564189249046
 21
95.759574777484886
  0
LINE
  8
_0-0_0
  6
CONTINUOUS
 62
    4
 10
160.58564189249046
 20
95.759574777484886
 11
160.25960645393025
 21
96.049561939846171
  0
LINE
  8
_0-0_0
  6
CONTINUOUS
 62
    4
 10
160.25960645393025
 20
96.049561939846171
 11
160.0056922058975
 21
96.049561939846171
  0
LINE
  8
_0-0_0
  6
CONTINUOUS
 62
    4
 10
160.0056922058975
 20
96.049561939846171
 11
159.71550419358664
 21
96.285176487695935
  0
LINE
  8
_0-0_0
  6
CONTINUOUS
 62
    4
 10
159.71550419358664
 20
96.285176487695935
 11
159.60668360139061
 21
96.285176487695935
  0
LINE
  8
_0-0_0
  6
CONTINUOUS
 62
    4
 10
159.60668360139061
 20
96.285176487695935
 11
159.60668360139061
 21
97.445125309615833
  0
LINE
  8
_0-0_0
  6
CONTINUOUS
 62
    4
 10
159.60668360139061
 20
97.445125309615833
 11
159.20767499688463
 21
97.644491505296173
  0
LINE
  8
_0-0_0
  6
CONTINUOUS
 62
    4
 10
159.20767499688463
 20
97.644491505296173
 11
156.4467691303762
 21
98.232415636844962
  0
LINE
  8
_0-0_0
  6
CONTINUOUS
 62
    4
 10
156.4467691303762
 20
98.232415636844962
 11
155.73943615689859
 21
98.232415636844962
  0
LINE
  8
_0-0_0
  6
CONTINUOUS
 62
    4
 10
155.73943615689859
 20
98.232415636844962
 11
154.39731633722295
 21
98.594899676045316
  0
LINE
  8
_0-0_0
  6
CONTINUOUS
 62
    4
 10
154.39731633722295
 20
98.594899676045316
 11
153.21842758100047
 21
98.594899676045316
  0
LINE
  8
_0-0_0
  6
CONTINUOUS
 62
    4
 10
153.21842758100047
 20
98.594899676045316
 11
151.04201748867126
 21
98.92113519056511
  0
LINE
  8
_0-0_0
  6
CONTINUOUS
 62
    4
 10
151.04201748867126
 20
98.92113519056511
 11
149.55480401315981
 21
98.92113519056511
  0
LINE
  8
_0-0_0
  6
CONTINUOUS
 62
    4
 10
149.55480401315981
 20
98.92113519056511
 11
147.55976169126461
 21
98.92113519056511
  0
LINE
  8
_0-0_0
  6
CONTINUOUS
 62
    4
 10
147.55976169126461
 20
98.92113519056511
 11
145.67353961124536
 21
98.92113519056511
  0
LINE
  8
_0-0_0
  6
CONTINUOUS
 62
    4
 10
145.67353961124536
 20
98.92113519056511
 11
144.73848818162605
 21
98.92113519056511
  0
LINE
  8
_0-0_0
  6
CONTINUOUS
 62
    4
 10
144.73848818162605
 20
98.92113519056511
 11
143.08804399297878
 21
98.92113519056511
  0
LINE
  8
_0-0_0
  6
CONTINUOUS
 62
    4
 10
143.08804399297878
 20
98.92113519056511
 11
141.87288182279826
 21
98.92113519056511
  0
LINE
  8
_0-0_0
  6
CONTINUOUS
 62
    4
 10
141.87288182279826
 20
98.92113519056511
 11
140.87536048669062
 21
98.92113519056511
  0
LINE
  8
_0-0_0
  6
CONTINUOUS
 62
    4
 10
140.87536048669062
 20
98.92113519056511
 11
140.00479644975894
 21
98.577414034154572
  0
LINE
  8
_0-0_0
  6
CONTINUOUS
 62
    4
 10
140.00479644975894
 20
98.577414034154572
 11
139.22491629804426
 21
98.577414034154572
  0
LINE
  8
_0-0_0
  6
CONTINUOUS
 62
    4
 10
139.22491629804426
 20
98.577414034154572
 11
138.68081368738149
 21
98.867401196515857
  0
LINE
  8
_0-0_0
  6
CONTINUOUS
 62
    4
 10
138.68081368738149
 20
98.867401196515857
 11
138.19112154797676
 21
98.867401196515857
  0
LINE
  8
_0-0_0
  6
CONTINUOUS
 62
    4
 10
138.19112154797676
 20
98.867401196515857
 11
137.59260881637692
 21
99.103015744354707
  0
LINE
  8
_0-0_0
  6
CONTINUOUS
 62
    4
 10
137.59260881637692
 20
99.103015744354707
 11
136.97595902747798
 21
99.103015744354707
  0
LINE
  8
_0-0_0
  6
CONTINUOUS
 62
    4
 10
136.97595902747798
 20
99.103015744354707
 11
136.46813018109333
 21
99.103015744354707
  0
LINE
  8
_0-0_0
  6
CONTINUOUS
 62
    4
 10
136.46813018109333
 20
99.103015744354707
 11
135.96030098439041
 21
98.668035000824602
  0
LINE
  8
_0-0_0
  6
CONTINUOUS
 62
    4
 10
135.96030098439041
 20
98.668035000824602
 11
135.5431556729045
 21
98.668035000824602
  0
LINE
  8
_0-0_0
  6
CONTINUOUS
 62
    4
 10
135.5431556729045
 20
98.668035000824602
 11
135.30737813185078
 21
98.668035000824602
  0
LINE
  8
_0-0_0
  6
CONTINUOUS
 62
    4
 10
135.30737813185078
 20
98.668035000824602
 11
134.92650623432382
 21
98.668035000824602
  0
LINE
  8
_0-0_0
  6
CONTINUOUS
 62
    4
 10
134.92650623432382
 20
98.668035000824602
 11
134.65445492899289
 21
99.048643129855918
  0
LINE
  8
_0-0_0
  6
CONTINUOUS
 62
    4
 10
134.65445492899289
 20
99.048643129855918
 11
134.9083695273448
 21
99.26613358787472
  0
LINE
  8
_0-0_0
  6
CONTINUOUS
 62
    4
 10
134.9083695273448
 20
99.26613358787472
 11
135.28924142487176
 21
99.592369102394514
  0
LINE
  8
_0-0_0
  6
CONTINUOUS
 62
    4
 10
135.28924142487176
 20
99.592369102394514
 11
135.5431556729045
 21
99.827983650246097
  0
LINE
  8
_0-0_0
  6
CONTINUOUS
 62
    4
 10
135.5431556729045
 20
99.827983650246097
 11
135.5431556729045
 21
100.0454741082649
  0
LINE
  8
_0-0_0
  6
CONTINUOUS
 62
    4
 10
135.5431556729045
 20
100.0454741082649
 11
135.5431556729045
 21
100.20859195177582
  0
LINE
  8
_0-0_0
  6
CONTINUOUS
 62
    4
 10
135.5431556729045
 20
100.20859195177582
 11
135.23483095361462
 21
100.44420649962558
  0
LINE
  8
_0-0_0
  6
CONTINUOUS
 62
    4
 10
135.23483095361462
 20
100.44420649962558
 11
134.72700210722996
 21
100.77044201415629
  0
LINE
  8
_0-0_0
  6
CONTINUOUS
 62
    4
 10
134.72700210722996
 20
100.77044201415629
 11
131.83806871749039
 21
102.5348097300157
  0
LINE
  8
_0-0_0
  6
CONTINUOUS
 62
    4
 10
131.83806871749039
 20
102.5348097300157
 11
124.39986054149995
 21
107.17830442765626
  0
LINE
  8
_0-0_0
  6
CONTINUOUS
 62
    4
 10
124.39986054149995
 20
107.17830442765626
 11
113.07679859676136
 21
114.32635192352609
  0
LINE
  8
_0-0_0
  6
CONTINUOUS
 62
    4
 10
113.07679859676136
 20
114.32635192352609
 11
105.96166146130781
 21
118.73991358724561
  0
LINE
  8
_0-0_0
  6
CONTINUOUS
 62
    4
 10
105.96166146130781
 20
118.73991358724561
 11
100.64447761873907
 21
122.04349477051619
  0
LINE
  8
_0-0_0
  6
CONTINUOUS
 62
    4
 10
100.64447761873907
 20
122.04349477051619
 11
98.250426692336077
 21
123.52967910696498
  0
LINE
  8
_0-0_0
  6
CONTINUOUS
 62
    4
 10
98.250426692336077
 20
123.52967910696498
 11
96.835760044742528
 21
124.36339224186486
  0
LINE
  8
_0-0_0
  6
CONTINUOUS
 62
    4
 10
96.835760044742528
 20
124.36339224186486
 11
96.527435325452643
 21
124.6171310520549
  0
LINE
  8
_0-0_0
  6
CONTINUOUS
 62
    4
 10
96.527435325452643
 20
124.6171310520549
 11
96.400478026275778
 21
124.6171310520549
  0
LINE
  8
_0-0_0
  6
CONTINUOUS
 62
    4
 10
96.400478026275778
 20
124.6171310520549
 11
96.255384020122619
 21
124.6171310520549
  0
LINE
  8
_0-0_0
  6
CONTINUOUS
 62
    4
 10
96.255384020122619
 20
124.6171310520549
 11
96.255384020122619
 21
124.66634674602574
  0
LINE
  8
_0-0_0
  6
CONTINUOUS
 62
    4
 10
150.07023652996395
 20
75.897716411365764
 11
150.24144049989536
 21
75.748016670126162
  0
LINE
  8
_0-0_0
  6
CONTINUOUS
 62
    4
 10
150.24144049989536
 20
75.748016670126162
 11
150.43404474711861
 21
75.662473960845091
  0
LINE
  8
_0-0_0
  6
CONTINUOUS
 62
    4
 10
150.43404474711861
 20
75.662473960845091
 11
150.65518316448924
 21
75.662473960845091
  0
LINE
  8
_0-0_0
  6
CONTINUOUS
 62
    4
 10
150.65518316448924
 20
75.662473960845091
 11
150.83352032663879
 21
75.555545574245116
  0
LINE
  8
_0-0_0
  6
CONTINUOUS
 62
    4
 10
142.45916772624878
 20
76.741177737274484
 11
142.45916772624878
 21
76.558481570966251
  0
LINE
  8
_0-0_0
  6
CONTINUOUS
 62
    4
 10
142.45916772624878
 20
76.558481570966251
 11
142.2032160238432
 21
76.174819725234556
  0
LINE
  8
_0-0_0
  6
CONTINUOUS
 62
    4
 10
142.2032160238432
 20
76.174819725234556
 11
142.2032160238432
 21
75.7728883663749
  0
LINE
  8
_0-0_0
  6
CONTINUOUS
 62
    4
 10
142.2032160238432
 20
75.7728883663749
 11
142.62370828152598
 21
75.316147950616141
  0
LINE
  8
_0-0_0
  6
CONTINUOUS
 62
    4
 10
142.62370828152598
 20
75.316147950616141
 11
143.13561168633623
 21
74.786329137345092
  0
LINE
  8
_0-0_0
  6
CONTINUOUS
 62
    4
 10
143.13561168633623
 20
74.786329137345092
 11
143.68407962006313
 21
74.475745861635005
  0
LINE
  8
_0-0_0
  6
CONTINUOUS
 62
    4
 10
143.68407962006313
 20
74.475745861635005
 11
144.61647493223791
 21
74.475745861635005
  0
LINE
  8
_0-0_0
  6
CONTINUOUS
 62
    4
 10
144.61647493223791
 20
74.475745861635005
 11
145.21978983449662
 21
74.475745861635005
  0
LINE
  8
_0-0_0
  6
CONTINUOUS
 62
    4
 10
147.72445989001881
 20
75.352687149375924
 11
148.38262141049017
 21
75.919045161415852
  0
LINE
  8
_0-0_0
  6
CONTINUOUS
 62
    4
 10
148.38262141049017
 20
75.919045161415852
 11
148.94937178383316
 21
76.448863974685082
  0
LINE
  8
_0-0_0
  6
CONTINUOUS
 62
    4
 10
148.94937178383316
 20
76.448863974685082
 11
148.94937178383316
 21
76.613290455356037
  0
LINE
  8
_0-0_0
  6
CONTINUOUS
 62
    4
 10
148.94937178383316
 20
76.613290455356037
 11
148.62029102359793
 21
77.01522198672501
  0
LINE
  8
_0-0_0
  6
CONTINUOUS
 62
    4
 10
148.62029102359793
 20
77.01522198672501
 11
148.09010517916977
 21
76.7046385385147
  0
LINE
  8
_0-0_0
  6
CONTINUOUS
 62
    4
 10
148.09010517916977
 20
76.7046385385147
 11
147.70617780072098
 21
76.467133660325999
  0
LINE
  8
_0-0_0
  6
CONTINUOUS
 62
    4
 10
147.70617780072098
 20
76.467133660325999
 11
147.04801628024961
 21
76.083471642084987
  0
LINE
  8
_0-0_0
  6
CONTINUOUS
 62
    4
 10
147.04801628024961
 20
76.083471642084987
 11
146.33500779124643
 21
76.083471642084987
  0
LINE
  8
_0-0_0
  6
CONTINUOUS
 62
    4
 10
146.33500779124643
 20
76.083471642084987
 11
145.18322530558089
 21
75.754618680744898
  0
LINE
  8
_0-0_0
  6
CONTINUOUS
 62
    4
 10
145.18322530558089
 20
75.754618680744898
 11
144.28739417200177
 21
75.754618680744898
  0
LINE
  8
_0-0_0
  6
CONTINUOUS
 62
    4
 10
144.28739417200177
 20
75.754618680744898
 11
143.50125697548719
 21
76.120011013355906
  0
LINE
  8
_0-0_0
  6
CONTINUOUS
 62
    4
 10
143.50125697548719
 20
76.120011013355906
 11
142.84309545501765
 21
76.375785577174611
  0
LINE
  8
_0-0_0
  6
CONTINUOUS
 62
    4
 10
142.84309545501765
 20
76.375785577174611
 11
142.40432110803522
 21
76.68636902538492
  0
LINE
  8
_0-0_0
  6
CONTINUOUS
 62
    4
 10
94.067096717843924
 20
120.88830817339476
 11
132.48189168784484
 21
95.902551580786167
  0
LINE
  8
_0-0_0
  6
CONTINUOUS
 62
    4
 10
132.45259767613334
 20
95.961099034175277
 11
132.83342017870382
 21
96.370931897945411
  0
LINE
  8
_0-0_0
  6
CONTINUOUS
 62
    4
 10
132.83342017870382
 20
96.370931897945411
 11
115.80658634135762
 21
107.71525001746522
  0
LINE
  8
_0-0_0
  6
CONTINUOUS
 62
    4
 10
115.80658634135762
 20
107.71525001746522
 11
94.626987497982554
 21
121.59102096730567
  0
LINE
  8
_0-0_0
  6
CONTINUOUS
 62
    4
 10
94.626987497982554
 20
121.59102096730567
 11
94.041106563111498
 21
121.09336657843596
  0
LINE
  8
_0-0_0
  6
CONTINUOUS
 62
    4
 10
94.041106563111498
 20
121.09336657843596
 11
94.041106563111498
 21
120.80062879395518
  0
LINE
  8
_0-0_0
  6
CONTINUOUS
 62
    4
 10
93.805530105072648
 20
122.20733524533534
 11
94.567175460532781
 21
121.76822848236588
  0
LINE
  8
_0-0_0
  6
CONTINUOUS
 62
    4
 10
94.567175460532781
 20
121.76822848236588
 11
99.429987710412206
 21
118.6652081048851
  0
LINE
  8
_0-0_0
  6
CONTINUOUS
 62
    4
 10
99.429987710412206
 20
118.6652081048851
 11
115.69617074748385
 21
108.05611342497468
  0
LINE
  8
_0-0_0
  6
CONTINUOUS
 62
    4
 10
115.69617074748385
 20
108.05611342497468
 11
133.77060014559447
 21
96.200233239806039
  0
LINE
  8
_0-0_0
  6
CONTINUOUS
 62
    4
 10
133.77060014559447
 20
96.200233239806039
 11
133.77060014559447
 21
96.785708808765776
  0
LINE
  8
_0-0_0
  6
CONTINUOUS
 62
    4
 10
133.77060014559447
 20
96.785708808765776
 11
133.77060014559447
 21
97.40045810441552
  0
LINE
  8
_0-0_0
  6
CONTINUOUS
 62
    4
 10
133.77060014559447
 20
97.40045810441552
 11
133.77060014559447
 21
97.839564867395893
  0
LINE
  8
_0-0_0
  6
CONTINUOUS
 62
    4
 10
133.77060014559447
 20
97.839564867395893
 11
133.77060014559447
 21
98.48358788974474
  0
LINE
  8
_0-0_0
  6
CONTINUOUS
 62
    4
 10
133.77060014559447
 20
98.48358788974474
 11
134.21001067158795
 21
98.805599573424843
  0
LINE
  8
_0-0_0
  6
CONTINUOUS
 62
    4
 10
134.21001067158795
 20
98.805599573424843
 11
134.6201275361891
 21
99.186158710495874
  0
LINE
  8
_0-0_0
  6
CONTINUOUS
 62
    4
 10
134.6201275361891
 20
99.186158710495874
 11
134.67871555961301
 21
99.186158710495874
  0
LINE
  8
_0-0_0
  6
CONTINUOUS
 62
    4
 10
94.043057138412223
 20
120.78248176071611
 11
94.043057138412223
 21
115.61042392734453
  0
LINE
  8
_0-0_0
  6
CONTINUOUS
 62
    4
 10
94.043057138412223
 20
115.61042392734453
 11
94.043057138412223
 21
111.17041575209623
  0
LINE
  8
_0-0_0
  6
CONTINUOUS
 62
    4
 10
96.07514252475903
 20
116.48568517062449
 11
96.07514252475903
 21
116.07402873667525
  0
LINE
  8
_0-0_0
  6
CONTINUOUS
 62
    4
 10
96.07514252475903
 20
116.07402873667525
 11
95.074713191961564
 21
115.16250396062605
  0
LINE
  8
_0-0_0
  6
CONTINUOUS
 62
    4
 10
95.074713191961564
 20
115.16250396062605
 11
94.633347186202627
 21
114.66263544600588
  0
LINE
  8
_0-0_0
  6
CONTINUOUS
 62
    4
 10
94.633347186202627
 20
114.66263544600588
 11
94.427376523643034
 21
114.66263544600588
  0
LINE
  8
_0-0_0
  6
CONTINUOUS
 62
    4
 10
93.986010517884097
 20
111.04593996615586
 11
93.986010517884097
 21
110.69309164348488
  0
LINE
  8
_0-0_0
  6
CONTINUOUS
 62
    4
 10
93.986010517884097
 20
110.69309164348488
 11
93.691766864364581
 21
110.69309164348488
  0
LINE
  8
_0-0_0
  6
CONTINUOUS
 62
    4
 10
96.080565810719236
 20
116.48350571876472
 11
128.92554555770948
 21
94.715878683786286
  0
LINE
  8
_0-0_0
  6
CONTINUOUS
 62
    4
 10
128.92554555770948
 20
94.715878683786286
 11
127.74810887307922
 21
92.616688406154935
  0
LINE
  8
_0-0_0
  6
CONTINUOUS
 62
    4
 10
127.74810887307922
 20
92.616688406154935
 11
121.77495755693326
 21
91.440527215594557
  0
LINE
  8
_0-0_0
  6
CONTINUOUS
 62
    4
 10
121.77495755693326
 20
91.440527215594557
 11
121.77495755693326
 21
91.558143265645413
  0
LINE
  8
_0-0_0
  6
CONTINUOUS
 62
    4
 10
121.77495755693326
 20
91.558143265645413
 11
122.53999154653229
 21
91.940395730205637
  0
LINE
  8
_0-0_0
  6
CONTINUOUS
 62
    4
 10
122.53999154653229
 20
91.940395730205637
 11
120.03891856485734
 21
93.498809212826018
  0
LINE
  8
_0-0_0
  6
CONTINUOUS
 62
    4
 10
120.03891856485734
 20
93.498809212826018
 11
103.79112306305433
 21
104.21105731138596
  0
LINE
  8
_0-0_0
  6
CONTINUOUS
 62
    4
 10
103.815098534139
 20
104.20499110711535
 11
99.74788489200364
 21
106.85318313504467
  0
LINE
  8
_0-0_0
  6
CONTINUOUS
 62
    4
 10
99.74788489200364
 20
106.85318313504467
 11
93.984245611569349
 21
110.71578820054492
  0
LINE
  8
_0-0_0
  6
CONTINUOUS
 62
    4
 10
94.44356826042349
 20
114.6565074842747
 11
94.16442089667089
 21
111.03010348999487
  0
LINE
  8
_0-0_0
  6
CONTINUOUS
 62
    4
 10
94.16442089667089
 20
111.03010348999487
 11
103.95797782458794
 21
104.5140328613852
  0
LINE
  8
_0-0_0
  6
CONTINUOUS
 62
    4
 10
103.95797782458794
 20
104.5140328613852
 11
109.50870942879465
 21
100.84408537168565
  0
LINE
  8
_0-0_0
  6
CONTINUOUS
 62
    4
 10
109.50870942879465
 20
100.84408537168565
 11
120.06405464225827
 21
93.977316373595386
  0
LINE
  8
_0-0_0
  6
CONTINUOUS
 62
    4
 10
120.06405464225827
 20
93.977316373595386
 11
122.83939609720164
 21
92.095115939035168
  0
LINE
  8
_0-0_0
  6
CONTINUOUS
 62
    4
 10
122.84439724896038
 20
92.092919236485614
 11
122.41956384021341
 21
92.010750244166047
  0
LINE
  8
_0-0_0
  6
CONTINUOUS
 62
    4
 10
159.98534323544391
 20
96.082882332815643
 11
159.27376089443806
 21
96.382288543065442
  0
LINE
  8
_0-0_0
  6
CONTINUOUS
 62
    4
 10
150.43515981198561
 20
97.542487844975767
 11
149.68612593476155
 21
97.542487844975767
  0
LINE
  8
_0-0_0
  6
CONTINUOUS
 62
    4
 10
149.68612593476155
 20
97.542487844975767
 11
148.74983332549255
 21
97.542487844975767
  0
LINE
  8
_0-0_0
  6
CONTINUOUS
 62
    4
 10
148.74983332549255
 20
97.542487844975767
 11
147.96334791205118
 21
97.542487844975767
  0
LINE
  8
_0-0_0
  6
CONTINUOUS
 62
    4
 10
147.96334791205118
 20
97.542487844975767
 11
147.23303962777663
 21
96.999813991866176
  0
LINE
  8
_0-0_0
  6
CONTINUOUS
 62
    4
 10
147.23303962777663
 20
96.999813991866176
 11
146.64316120462354
 21
96.362120591775238
  0
LINE
  8
_0-0_0
  6
CONTINUOUS
 62
    4
 10
146.64316120462354
 20
96.362120591775238
 11
146.34354751360661
 21
95.744595142974504
  0
LINE
  8
_0-0_0
  6
CONTINUOUS
 62
    4
 10
145.25744805882914
 20
92.263997582265802
 11
145.25744805882914
 21
91.740036584955305
  0
LINE
  8
_0-0_0
  6
CONTINUOUS
 62
    4
 10
145.25744805882914
 20
91.740036584955305
 11
145.65069111586854
 21
91.421917518904593
  0
LINE
  8
_0-0_0
  6
CONTINUOUS
 62
    4
 10
146.71806462737732
 20
91.141224164455707
 11
147.37346913857891
 21
90.879243665805916
  0
LINE
  8
_0-0_0
  6
CONTINUOUS
 62
    4
 10
147.37346913857891
 20
90.879243665805916
 11
147.67308282959584
 21
90.879243665805916
  0
LINE
  8
_0-0_0
  6
CONTINUOUS
 62
    4
 10
147.67308282959584
 20
90.879243665805916
 11
147.8790671545903
 21
90.879243665805916
  0
LINE
  8
_0-0_0
  6
CONTINUOUS
 62
    4
 10
147.22366229307045
 20
90.373995524285419
 11
146.5120799520646
 21
90.373995524285419
  0
LINE
  8
_0-0_0
  6
CONTINUOUS
 62
    4
 10
146.5120799520646
 20
90.373995524285419
 11
145.66941705913723
 21
90.598550311346116
  0
LINE
  8
_0-0_0
  6
CONTINUOUS
 62
    4
 10
145.66941705913723
 20
90.598550311346116
 11
144.80802787262201
 21
90.841817781705686
  0
LINE
  8
_0-0_0
  6
CONTINUOUS
 62
    4
 10
144.80802787262201
 20
90.841817781705686
 11
144.33988174314709
 21
91.178649876044801
  0
LINE
  8
_0-0_0
  6
CONTINUOUS
 62
    4
 10
144.33988174314709
 20
91.178649876044801
 11
144.33988174314709
 21
91.496769114595736
  0
LINE
  8
_0-0_0
  6
CONTINUOUS
 62
    4
 10
144.33988174314709
 20
91.496769114595736
 11
144.11517147488485
 21
91.833601036434629
  0
LINE
  8
_0-0_0
  6
CONTINUOUS
 62
    4
 10
144.11517147488485
 20
91.833601036434629
 11
144.11517147488485
 21
92.338849177955126
  0
LINE
  8
_0-0_0
  6
CONTINUOUS
 62
    4
 10
144.11517147488485
 20
92.338849177955126
 11
144.80802787262201
 21
93.835880401706163
  0
LINE
  8
_0-0_0
  6
CONTINUOUS
 62
    4
 10
144.80802787262201
 20
93.835880401706163
 11
145.53833580657738
 21
95.856872450254741
  0
LINE
  8
_0-0_0
  6
CONTINUOUS
 62
    4
 10
145.53833580657738
 20
95.856872450254741
 11
146.02520787932099
 21
96.960933012274836
  0
LINE
  8
_0-0_0
  6
CONTINUOUS
 62
    4
 10
146.02520787932099
 20
96.960933012274836
 11
146.4559024725786
 21
97.447468297996238
  0
LINE
  8
_0-0_0
  6
CONTINUOUS
 62
    4
 10
146.4559024725786
 20
97.447468297996238
 11
146.96150048858999
 21
97.653310056755799
  0
LINE
  8
_0-0_0
  6
CONTINUOUS
 62
    4
 10
146.96150048858999
 20
97.653310056755799
 11
147.31729165909292
 21
97.653310056755799
  0
LINE
  8
_0-0_0
  6
CONTINUOUS
 62
    4
 10
147.31729165909292
 20
97.653310056755799
 11
147.82288967510431
 21
97.653310056755799
  0
LINE
  8
_0-0_0
  6
CONTINUOUS
 62
    4
 10
146.35489609242541
 20
95.748601615156076
 11
146.01675573667035
 21
95.019527355614628
  0
LINE
  8
_0-0_0
  6
CONTINUOUS
 62
    4
 10
146.01675573667035
 20
95.019527355614628
 11
145.70964662375536
 21
94.311304347085752
  0
LINE
  8
_0-0_0
  6
CONTINUOUS
 62
    4
 10
145.70964662375536
 20
94.311304347085752
 11
145.40253751083947
 21
93.48504419922574
  0
LINE
  8
_0-0_0
  6
CONTINUOUS
 62
    4
 10
145.40253751083947
 20
93.48504419922574
 11
145.21354715276902
 21
92.552550694965248
  0
LINE
  8
_0-0_0
  6
CONTINUOUS
 62
    4
 10
145.21354715276902
 20
92.552550694965248
 11
145.26967068315298
 21
92.205448748814888
  0
LINE
  8
_0-0_0
  6
CONTINUOUS
 62
    4
 10
150.42841617431714
 20
97.544088018745242
 11
150.92628055161913
 21
97.544088018745242
  0
LINE
  8
_0-0_0
  6
CONTINUOUS
 62
    4
 10
150.92628055161913
 20
97.544088018745242
 11
152.04054879399428
 21
97.544088018745242
  0
LINE
  8
_0-0_0
  6
CONTINUOUS
 62
    4
 10
152.04054879399428
 20
97.544088018745242
 11
153.54599636512376
 21
97.401939420955387
  0
LINE
  8
_0-0_0
  6
CONTINUOUS
 62
    4
 10
153.54599636512376
 20
97.401939420955387
 11
154.41133224368878
 21
97.401939420955387
  0
LINE
  8
_0-0_0
  6
CONTINUOUS
 62
    4
 10
154.41133224368878
 20
97.401939420955387
 11
155.59672361821686
 21
97.176870908415367
  0
LINE
  8
_0-0_0
  6
CONTINUOUS
 62
    4
 10
155.59672361821686
 20
97.176870908415367
 11
156.9480701354978
 21
96.928110819155336
  0
LINE
  8
_0-0_0
  6
CONTINUOUS
 62
    4
 10
156.9480701354978
 20
96.928110819155336
 11
158.19273160423018
 21
96.667505200284722
  0
LINE
  8
_0-0_0
  6
CONTINUOUS
 62
    4
 10
158.19273160423018
 20
96.667505200284722
 11
159.60334751507799
 21
96.335825196274527
  0
LINE
  8
_0-0_0
  6
CONTINUOUS
 62
    4
 10
147.80613252371677
 20
97.657031375076258
 11
148.37087977393276
 21
97.657031375076258
  0
LINE
  8
_0-0_0
  6
CONTINUOUS
 62
    4
 10
148.37087977393276
 20
97.657031375076258
 11
149.08424453719635
 21
97.657031375076258
  0
LINE
  8
_0-0_0
  6
CONTINUOUS
 62
    4
 10
149.08424453719635
 20
97.657031375076258
 11
149.8644876192302
 21
97.657031375076258
  0
LINE
  8
_0-0_0
  6
CONTINUOUS
 62
    4
 10
149.8644876192302
 20
97.657031375076258
 11
150.3474949745314
 21
97.657031375076258
  0
LINE
  8
_0-0_0
  6
CONTINUOUS
 62
    4
 10
150.3474949745314
 20
97.657031375076258
 11
150.88251872213823
 21
97.657031375076258
  0
LINE
  8
_0-0_0
  6
CONTINUOUS
 62
    4
 10
150.88251872213823
 20
97.657031375076258
 11
151.62560698801099
 21
97.657031375076258
  0
LINE
  8
_0-0_0
  6
CONTINUOUS
 62
    4
 10
151.62560698801099
 20
97.657031375076258
 11
152.02687479871656
 21
97.575348334616137
  0
LINE
  8
_0-0_0
  6
CONTINUOUS
 62
    4
 10
159.80612221886076
 20
85.966711903265605
 11
159.3055982209271
 21
86.157255752335914
  0
LINE
  8
_0-0_0
  6
CONTINUOUS
 62
    4
 10
159.3055982209271
 20
86.157255752335914
 11
158.81699171960736
 21
86.157255752335914
  0
LINE
  8
_0-0_0
  6
CONTINUOUS
 62
    4
 10
158.81699171960736
 20
86.157255752335914
 11
158.2449641432604
 21
86.466889377696134
  0
LINE
  8
_0-0_0
  6
CONTINUOUS
 62
    4
 10
158.2449641432604
 20
86.466889377696134
 11
157.36308866130639
 21
86.847977075834933
  0
LINE
  8
_0-0_0
  6
CONTINUOUS
 62
    4
 10
157.36308866130639
 20
86.847977075834933
 11
156.58846854697276
 21
87.240973786105315
  0
LINE
  8
_0-0_0
  6
CONTINUOUS
 62
    4
 10
156.58846854697276
 20
87.240973786105315
 11
155.89726880702892
 21
87.610152299605033
  0
LINE
  8
_0-0_0
  6
CONTINUOUS
 62
    4
 10
155.89726880702892
 20
87.610152299605033
 11
155.40866195539002
 21
87.943604121735916
  0
LINE
  8
_0-0_0
  6
CONTINUOUS
 62
    4
 10
155.40866195539002
 20
87.943604121735916
 11
155.21798621338075
 21
87.943604121735916
  0
LINE
  8
_0-0_0
  6
CONTINUOUS
 62
    4
 10
150.09357442075998
 20
89.849042439926052
 11
150.70135343599395
 21
89.587044518075345
  0
LINE
  8
_0-0_0
  6
CONTINUOUS
 62
    4
 10
150.70135343599395
 20
89.587044518075345
 11
152.0241668340841
 21
89.229774844196072
  0
LINE
  8
_0-0_0
  6
CONTINUOUS
 62
    4
 10
152.0241668340841
 20
89.229774844196072
 11
153.40656631397178
 21
88.753415394025069
  0
LINE
  8
_0-0_0
  6
CONTINUOUS
 62
    4
 10
145.21735897206599
 20
92.244919701925028
 11
146.0992344540191
 21
92.042466840724956
  0
LINE
  8
_0-0_0
  6
CONTINUOUS
 62
    4
 10
146.0992344540191
 20
92.042466840724956
 11
147.08836495327341
 21
91.792378103506053
  0
LINE
  8
_0-0_0
  6
CONTINUOUS
 62
    4
 10
147.08836495327341
 20
91.792378103506053
 11
147.99407472781786
 21
91.566107218044635
  0
LINE
  8
_0-0_0
  6
CONTINUOUS
 62
    4
 10
147.99407472781786
 20
91.566107218044635
 11
147.99407472781786
 21
91.792378103506053
  0
LINE
  8
_0-0_0
  6
CONTINUOUS
 62
    4
 10
147.99407472781786
 20
91.792378103506053
 11
147.99407472781786
 21
93.161911910885465
  0
LINE
  8
_0-0_0
  6
CONTINUOUS
 62
    4
 10
147.99407472781786
 20
93.161911910885465
 11
147.99407472781786
 21
93.947905158915091
  0
LINE
  8
_0-0_0
  6
CONTINUOUS
 62
    4
 10
147.99407472781786
 20
93.947905158915091
 11
147.99407472781786
 21
94.79344329509513
  0
LINE
  8
_0-0_0
  6
CONTINUOUS
 62
    4
 10
147.99407472781786
 20
94.79344329509513
 11
147.99407472781786
 21
94.864897367875528
  0
LINE
  8
_0-0_0
  6
CONTINUOUS
 62
    4
 10
147.99407472781786
 20
94.864897367875528
 11
148.50651622236728
 21
94.864897367875528
  0
LINE
  8
_0-0_0
  6
CONTINUOUS
 62
    4
 10
148.50651622236728
 20
94.864897367875528
 11
148.8282812742691
 21
95.055441216945837
  0
LINE
  8
_0-0_0
  6
CONTINUOUS
 62
    4
 10
148.8282812742691
 20
95.055441216945837
 11
149.07854344839598
 21
95.055441216945837
  0
LINE
  8
_0-0_0
  6
CONTINUOUS
 62
    4
 10
149.07854344839598
 20
95.055441216945837
 11
149.29305383331575
 21
95.055441216945837
  0
LINE
  8
_0-0_0
  6
CONTINUOUS
 62
    4
 10
149.29305383331575
 20
95.055441216945837
 11
149.66248782072034
 21
95.055441216945837
  0
LINE
  8
_0-0_0
  6
CONTINUOUS
 62
    4
 10
149.66248782072034
 20
95.055441216945837
 11
149.96041893034908
 21
94.852988355745765
  0
LINE
  8
_0-0_0
  6
CONTINUOUS
 62
    4
 10
149.96041893034908
 20
94.852988355745765
 11
150.10342573685648
 21
94.495718681864673
  0
LINE
  8
_0-0_0
  6
CONTINUOUS
 62
    4
 10
150.10342573685648
 20
94.495718681864673
 11
150.10342573685648
 21
91.470835293515847
  0
LINE
  8
_0-0_0
  6
CONTINUOUS
 62
    4
 10
150.10342573685648
 20
91.470835293515847
 11
150.10342573685648
 21
89.755940824396021
  0
LINE
  8
_0-0_0
  6
CONTINUOUS
 62
    4
 10
145.66570017624599
 20
91.390776232785356
 11
146.80526844523865
 21
91.113573382444883
  0
LINE
  8
_0-0_0
  6
CONTINUOUS
 62
    4
 10
156.36936162855454
 20
88.132395128444841
 11
156.97771061254207
 21
87.884720624944748
  0
LINE
  8
_0-0_0
  6
CONTINUOUS
 62
    4
 10
156.97771061254207
 20
87.884720624944748
 11
157.69871723097913
 21
87.471929958295732
  0
LINE
  8
_0-0_0
  6
CONTINUOUS
 62
    4
 10
157.69871723097913
 20
87.471929958295732
 11
158.37466058544487
 21
87.104171003875308
  0
LINE
  8
_0-0_0
  6
CONTINUOUS
 62
    4
 10
158.37466058544487
 20
87.104171003875308
 11
159.30596045060793
 21
86.81146496065594
  0
LINE
  8
_0-0_0
  6
CONTINUOUS
 62
    4
 10
159.30596045060793
 20
86.81146496065594
 11
160.37995954233611
 21
86.623832682626016
  0
LINE
  8
_0-0_0
  6
CONTINUOUS
 62
    4
 10
160.37995954233611
 20
86.623832682626016
 11
160.60527411059775
 21
86.623832682626016
  0
LINE
  8
_0-0_0
  6
CONTINUOUS
 62
    4
 10
156.03303312184016
 20
88.094609567515363
 11
156.77782989269508
 21
87.650441625324675
  0
LINE
  8
_0-0_0
  6
CONTINUOUS
 62
    4
 10
156.77782989269508
 20
87.650441625324675
 11
157.57067814722541
 21
87.278300996274993
  0
LINE
  8
_0-0_0
  6
CONTINUOUS
 62
    4
 10
157.57067814722541
 20
87.278300996274993
 11
158.63982181983283
 21
86.750101332525446
  0
LINE
  8
_0-0_0
  6
CONTINUOUS
 62
    4
 10
158.63982181983283
 20
86.750101332525446
 11
159.74500384245675
 21
86.47399700596543
  0
LINE
  8
_0-0_0
  6
CONTINUOUS
 62
    4
 10
159.74500384245675
 20
86.47399700596543
 11
160.32162094592604
 21
86.47399700596543
  0
LINE
  8
_0-0_0
  6
CONTINUOUS
 62
    4
 10
160.32162094592604
 20
86.47399700596543
 11
160.32162094592604
 21
86.365956122535863
  0
LINE
  8
_0-0_0
  6
CONTINUOUS
 62
    4
 10
160.62270492511561
 20
88.361516345004929
 11
159.87001336888352
 21
88.612239907524781
  0
LINE
  8
_0-0_0
  6
CONTINUOUS
 62
    4
 10
159.87001336888352
 20
88.612239907524781
 11
159.34891934930783
 21
88.612239907524781
  0
LINE
  8
_0-0_0
  6
CONTINUOUS
 62
    4
 10
159.34891934930783
 20
88.612239907524781
 11
157.82423682163608
 21
89.094400418885925
  0
LINE
  8
_0-0_0
  6
CONTINUOUS
 62
    4
 10
157.82423682163608
 20
89.094400418885925
 11
156.56975101135686
 21
89.345123981405777
  0
LINE
  8
_0-0_0
  6
CONTINUOUS
 62
    4
 10
156.56975101135686
 20
89.345123981405777
 11
156.16445558494888
 21
89.345123981405777
  0
LINE
  8
_0-0_0
  6
CONTINUOUS
 62
    4
 10
150.12819713234512
 20
90.921031731255425
 11
150.89148548316462
 21
90.709573493644712
  0
LINE
  8
_0-0_0
  6
CONTINUOUS
 62
    4
 10
150.89148548316462
 20
90.709573493644712
 11
151.79080509175128
 21
90.452802875124689
  0
LINE
  8
_0-0_0
  6
CONTINUOUS
 62
    4
 10
151.79080509175128
 20
90.452802875124689
 11
152.78081243906126
 21
90.173375893646153
  0
LINE
  8
_0-0_0
  6
CONTINUOUS
 62
    4
 10
152.78081243906126
 20
90.173375893646153
 11
153.49875657020038
 21
89.98457384649555
  0
LINE
  8
_0-0_0
  6
CONTINUOUS
 62
    4
 10
153.49875657020038
 20
89.98457384649555
 11
153.89173688810934
 21
89.878844900194963
  0
LINE
  8
_0-0_0
  6
CONTINUOUS
 62
    4
 10
153.88546898342611
 20
89.893858691066271
 11
154.20030893250077
 21
89.893858691066271
  0
LINE
  8
_0-0_0
  6
CONTINUOUS
 62
    4
 10
154.20030893250077
 20
89.893858691066271
 11
154.20030893250077
 21
93.342601132206255
  0
LINE
  8
_0-0_0
  6
CONTINUOUS
 62
    4
 10
154.20030893250077
 20
93.342601132206255
 11
154.20030893250077
 21
93.463609702464964
  0
LINE
  8
_0-0_0
  6
CONTINUOUS
 62
    4
 10
154.20030893250077
 20
93.463609702464964
 11
154.46671204717586
 21
93.306298612875253
  0
LINE
  8
_0-0_0
  6
CONTINUOUS
 62
    4
 10
154.46671204717586
 20
93.306298612875253
 11
154.75733340389161
 21
93.499912221785053
  0
LINE
  8
_0-0_0
  6
CONTINUOUS
 62
    4
 10
154.75733340389161
 20
93.499912221785053
 11
155.15693825106428
 21
93.499912221785053
  0
LINE
  8
_0-0_0
  6
CONTINUOUS
 62
    4
 10
155.15693825106428
 20
93.499912221785053
 11
155.52021503453761
 21
93.499912221785053
  0
LINE
  8
_0-0_0
  6
CONTINUOUS
 62
    4
 10
155.52021503453761
 20
93.499912221785053
 11
155.60777173134557
 21
93.443039721254536
  0
LINE
  8
_0-0_0
  6
CONTINUOUS
 62
    4
 10
156.17411352504678
 20
90.232682549794845
 11
156.17411352504678
 21
89.918060370615422
  0
LINE
  8
_0-0_0
  6
CONTINUOUS
 62
    4
 10
156.17411352504678
 20
89.918060370615422
 11
156.17411352504678
 21
89.397723742755261
  0
LINE
  8
_0-0_0
  6
CONTINUOUS
 62
    4
 10
156.17411352504678
 20
89.397723742755261
 11
156.17411352504678
 21
88.88948812716626
  0
LINE
  8
_0-0_0
  6
CONTINUOUS
 62
    4
 10
156.17411352504678
 20
88.88948812716626
 11
156.17411352504678
 21
88.320748140205978
  0
LINE
  8
_0-0_0
  6
CONTINUOUS
 62
    4
 10
155.96790219344348
 20
88.036372626494995
 11
155.67944685811563
 21
87.937758898775428
  0
LINE
  8
_0-0_0
  6
CONTINUOUS
 62
    4
 10
155.67944685811563
 20
87.937758898775428
 11
155.43653682548211
 21
87.937758898775428
  0
LINE
  8
_0-0_0
  6
CONTINUOUS
 62
    4
 10
154.22202414643016
 20
89.896947771685518
 11
154.320969600848
 21
90.018642229275429
  0
LINE
  8
_0-0_0
  6
CONTINUOUS
 62
    4
 10
154.320969600848
 20
90.018642229275429
 11
154.47319329603306
 21
90.018642229275429
  0
LINE
  8
_0-0_0
  6
CONTINUOUS
 62
    4
 10
154.47319329603306
 20
90.018642229275429
 11
154.64063904544946
 21
90.132731031255389
  0
LINE
  8
_0-0_0
  6
CONTINUOUS
 62
    4
 10
154.64063904544946
 20
90.132731031255389
 11
154.79286274063452
 21
90.132731031255389
  0
LINE
  8
_0-0_0
  6
CONTINUOUS
 62
    4
 10
154.79286274063452
 20
90.132731031255389
 11
155.051642917354
 21
90.132731031255389
  0
LINE
  8
_0-0_0
  6
CONTINUOUS
 62
    4
 10
155.051642917354
 20
90.132731031255389
 11
155.33325652573876
 21
90.132731031255389
  0
LINE
  8
_0-0_0
  6
CONTINUOUS
 62
    4
 10
155.33325652573876
 20
90.132731031255389
 11
155.63009253867403
 21
90.132731031255389
  0
LINE
  8
_0-0_0
  6
CONTINUOUS
 62
    4
 10
155.63009253867403
 20
90.132731031255389
 11
155.79753863840961
 21
90.026248229914927
  0
LINE
  8
_0-0_0
  6
CONTINUOUS
 62
    4
 10
155.79753863840961
 20
90.026248229914927
 11
155.88126168827694
 21
90.026248229914927
  0
LINE
  8
_0-0_0
  6
CONTINUOUS
 62
    4
 10
155.88126168827694
 20
90.026248229914927
 11
156.09437465134488
 21
89.942583257974547
  0
LINE
  8
_0-0_0
  6
CONTINUOUS
 62
    4
 10
156.09437465134488
 20
89.942583257974547
 11
156.09437465134488
 21
89.85131228539467
  0
LINE
  8
_0-0_0
  6
CONTINUOUS
 62
    4
 10
156.09437465134488
 20
89.85131228539467
 11
156.19332010576363
 21
89.85131228539467
  0
LINE
  8
_0-0_0
  6
CONTINUOUS
 62
    4
 10
156.05218996169879
 20
88.3376574366157
 11
156.03625509405356
 21
88.388214623544627
  0
LINE
  8
_0-0_0
  6
CONTINUOUS
 62
    4
 10
156.03625509405356
 20
88.388214623544627
 11
155.989062859142
 21
88.436828926134694
  0
LINE
  8
_0-0_0
  6
CONTINUOUS
 62
    4
 10
155.989062859142
 20
88.436828926134694
 11
155.91242682808661
 21
88.481632123995951
  0
LINE
  8
_0-0_0
  6
CONTINUOUS
 62
    4
 10
155.91242682808661
 20
88.481632123995951
 11
155.80929208058296
 21
88.520902455366013
  0
LINE
  8
_0-0_0
  6
CONTINUOUS
 62
    4
 10
155.80929208058296
 20
88.520902455366013
 11
155.68362202713979
 21
88.553130783426241
  0
LINE
  8
_0-0_0
  6
CONTINUOUS
 62
    4
 10
155.68362202713979
 20
88.553130783426241
 11
155.54024609743465
 21
88.577078591615646
  0
LINE
  8
_0-0_0
  6
CONTINUOUS
 62
    4
 10
155.54024609743465
 20
88.577078591615646
 11
155.38467414803654
 21
88.591825579074793
  0
LINE
  8
_0-0_0
  6
CONTINUOUS
 62
    4
 10
155.38467414803654
 20
88.591825579074793
 11
155.22288472171931
 21
88.596805027365917
  0
LINE
  8
_0-0_0
  6
CONTINUOUS
 62
    4
 10
155.22288472171931
 20
88.596805027365917
 11
155.06109529540208
 21
88.591825579074793
  0
LINE
  8
_0-0_0
  6
CONTINUOUS
 62
    4
 10
155.06109529540208
 20
88.591825579074793
 11
154.90552334600488
 21
88.577078591615646
  0
LINE
  8
_0-0_0
  6
CONTINUOUS
 62
    4
 10
154.90552334600488
 20
88.577078591615646
 11
154.76214741629883
 21
88.553130783426241
  0
LINE
  8
_0-0_0
  6
CONTINUOUS
 62
    4
 10
154.76214741629883
 20
88.553130783426241
 11
154.63647736285475
 21
88.520902455366013
  0
LINE
  8
_0-0_0
  6
CONTINUOUS
 62
    4
 10
154.63647736285475
 20
88.520902455366013
 11
154.53334261535201
 21
88.481632123995951
  0
LINE
  8
_0-0_0
  6
CONTINUOUS
 62
    4
 10
154.53334261535201
 20
88.481632123995951
 11
154.45670658429663
 21
88.436828926134694
  0
LINE
  8
_0-0_0
  6
CONTINUOUS
 62
    4
 10
154.45670658429663
 20
88.436828926134694
 11
154.40951434938506
 21
88.388214623544627
  0
LINE
  8
_0-0_0
  6
CONTINUOUS
 62
    4
 10
154.40951434938506
 20
88.388214623544627
 11
154.39357948173893
 21
88.3376574366157
  0
LINE
  8
_0-0_0
  6
CONTINUOUS
 62
    4
 10
154.39357948173893
 20
88.3376574366157
 11
154.40951434938506
 21
88.287100249684954
  0
LINE
  8
_0-0_0
  6
CONTINUOUS
 62
    4
 10
154.40951434938506
 20
88.287100249684954
 11
154.45670658429663
 21
88.238485947094887
  0
LINE
  8
_0-0_0
  6
CONTINUOUS
 62
    4
 10
154.45670658429663
 20
88.238485947094887
 11
154.53334261535201
 21
88.19368274923545
  0
LINE
  8
_0-0_0
  6
CONTINUOUS
 62
    4
 10
154.53334261535201
 20
88.19368274923545
 11
154.63647736285475
 21
88.154412417865387
  0
LINE
  8
_0-0_0
  6
CONTINUOUS
 62
    4
 10
154.63647736285475
 20
88.154412417865387
 11
154.76214741629883
 21
88.12218408980516
  0
LINE
  8
_0-0_0
  6
CONTINUOUS
 62
    4
 10
154.76214741629883
 20
88.12218408980516
 11
154.90552334600488
 21
88.098236281615755
  0
LINE
  8
_0-0_0
  6
CONTINUOUS
 62
    4
 10
154.90552334600488
 20
88.098236281615755
 11
155.06109529540208
 21
88.083489294154788
  0
LINE
  8
_0-0_0
  6
CONTINUOUS
 62
    4
 10
155.06109529540208
 20
88.083489294154788
 11
155.22288472171931
 21
88.078509845865483
  0
LINE
  8
_0-0_0
  6
CONTINUOUS
 62
    4
 10
155.22288472171931
 20
88.078509845865483
 11
155.38467414803654
 21
88.083489294154788
  0
LINE
  8
_0-0_0
  6
CONTINUOUS
 62
    4
 10
155.38467414803654
 20
88.083489294154788
 11
155.54024609743465
 21
88.098236281615755
  0
LINE
  8
_0-0_0
  6
CONTINUOUS
 62
    4
 10
155.54024609743465
 20
88.098236281615755
 11
155.68362202713979
 21
88.12218408980516
  0
LINE
  8
_0-0_0
  6
CONTINUOUS
 62
    4
 10
155.68362202713979
 20
88.12218408980516
 11
155.80929208058296
 21
88.154412417865387
  0
LINE
  8
_0-0_0
  6
CONTINUOUS
 62
    4
 10
155.80929208058296
 20
88.154412417865387
 11
155.91242682808661
 21
88.19368274923545
  0
LINE
  8
_0-0_0
  6
CONTINUOUS
 62
    4
 10
155.91242682808661
 20
88.19368274923545
 11
155.989062859142
 21
88.238485947094887
  0
LINE
  8
_0-0_0
  6
CONTINUOUS
 62
    4
 10
155.989062859142
 20
88.238485947094887
 11
156.03625509405356
 21
88.287100249684954
  0
LINE
  8
_0-0_0
  6
CONTINUOUS
 62
    4
 10
156.03625509405356
 20
88.287100249684954
 11
156.05218996169879
 21
88.3376574366157
  0
LINE
  8
_0-0_0
  6
CONTINUOUS
 62
    4
 10
149.90025412624618
 20
89.824351013356136
 11
149.88431925860004
 21
89.874908200285063
  0
LINE
  8
_0-0_0
  6
CONTINUOUS
 62
    4
 10
149.88431925860004
 20
89.874908200285063
 11
149.83712702368848
 21
89.92352250287513
  0
LINE
  8
_0-0_0
  6
CONTINUOUS
 62
    4
 10
149.83712702368848
 20
89.92352250287513
 11
149.76049099263309
 21
89.968325700734567
  0
LINE
  8
_0-0_0
  6
CONTINUOUS
 62
    4
 10
149.76049099263309
 20
89.968325700734567
 11
149.65735624512945
 21
90.00759603210463
  0
LINE
  8
_0-0_0
  6
CONTINUOUS
 62
    4
 10
149.65735624512945
 20
90.00759603210463
 11
149.53168619168628
 21
90.039824360164857
  0
LINE
  8
_0-0_0
  6
CONTINUOUS
 62
    4
 10
149.53168619168628
 20
90.039824360164857
 11
149.38831026198022
 21
90.063772168356081
  0
LINE
  8
_0-0_0
  6
CONTINUOUS
 62
    4
 10
149.38831026198022
 20
90.063772168356081
 11
149.23273831258302
 21
90.078519155815229
  0
LINE
  8
_0-0_0
  6
CONTINUOUS
 62
    4
 10
149.23273831258302
 20
90.078519155815229
 11
149.0709488862658
 21
90.083498604104534
  0
LINE
  8
_0-0_0
  6
CONTINUOUS
 62
    4
 10
149.0709488862658
 20
90.083498604104534
 11
148.90915945994857
 21
90.078519155815229
  0
LINE
  8
_0-0_0
  6
CONTINUOUS
 62
    4
 10
148.90915945994857
 20
90.078519155815229
 11
148.75358751055137
 21
90.063772168356081
  0
LINE
  8
_0-0_0
  6
CONTINUOUS
 62
    4
 10
148.75358751055137
 20
90.063772168356081
 11
148.61021158084532
 21
90.039824360164857
  0
LINE
  8
_0-0_0
  6
CONTINUOUS
 62
    4
 10
148.61021158084532
 20
90.039824360164857
 11
148.48454152740214
 21
90.00759603210463
  0
LINE
  8
_0-0_0
  6
CONTINUOUS
 62
    4
 10
148.48454152740214
 20
90.00759603210463
 11
148.3814067798985
 21
89.968325700734567
  0
LINE
  8
_0-0_0
  6
CONTINUOUS
 62
    4
 10
148.3814067798985
 20
89.968325700734567
 11
148.30477074884311
 21
89.92352250287513
  0
LINE
  8
_0-0_0
  6
CONTINUOUS
 62
    4
 10
148.30477074884311
 20
89.92352250287513
 11
148.25757851393155
 21
89.874908200285063
  0
LINE
  8
_0-0_0
  6
CONTINUOUS
 62
    4
 10
148.25757851393155
 20
89.874908200285063
 11
148.24164364628541
 21
89.824351013356136
  0
LINE
  8
_0-0_0
  6
CONTINUOUS
 62
    4
 10
148.24164364628541
 20
89.824351013356136
 11
148.25757851393155
 21
89.77379382642539
  0
LINE
  8
_0-0_0
  6
CONTINUOUS
 62
    4
 10
148.25757851393155
 20
89.77379382642539
 11
148.30477074884311
 21
89.725179523835322
  0
LINE
  8
_0-0_0
  6
CONTINUOUS
 62
    4
 10
148.30477074884311
 20
89.725179523835322
 11
148.3814067798985
 21
89.680376325975885
  0
LINE
  8
_0-0_0
  6
CONTINUOUS
 62
    4
 10
148.3814067798985
 20
89.680376325975885
 11
148.48454152740214
 21
89.641105994605823
  0
LINE
  8
_0-0_0
  6
CONTINUOUS
 62
    4
 10
148.48454152740214
 20
89.641105994605823
 11
148.61021158084532
 21
89.608877666545595
  0
LINE
  8
_0-0_0
  6
CONTINUOUS
 62
    4
 10
148.61021158084532
 20
89.608877666545595
 11
148.75358751055137
 21
89.584929858365285
  0
LINE
  8
_0-0_0
  6
CONTINUOUS
 62
    4
 10
148.75358751055137
 20
89.584929858365285
 11
148.90915945994857
 21
89.570182870895223
  0
LINE
  8
_0-0_0
  6
CONTINUOUS
 62
    4
 10
148.90915945994857
 20
89.570182870895223
 11
149.0709488862658
 21
89.565203422605919
  0
LINE
  8
_0-0_0
  6
CONTINUOUS
 62
    4
 10
149.0709488862658
 20
89.565203422605919
 11
149.23273831258302
 21
89.570182870895223
  0
LINE
  8
_0-0_0
  6
CONTINUOUS
 62
    4
 10
149.23273831258302
 20
89.570182870895223
 11
149.38831026198022
 21
89.584929858365285
  0
LINE
  8
_0-0_0
  6
CONTINUOUS
 62
    4
 10
149.38831026198022
 20
89.584929858365285
 11
149.53168619168628
 21
89.608877666545595
  0
LINE
  8
_0-0_0
  6
CONTINUOUS
 62
    4
 10
149.53168619168628
 20
89.608877666545595
 11
149.65735624512945
 21
89.641105994605823
  0
LINE
  8
_0-0_0
  6
CONTINUOUS
 62
    4
 10
149.65735624512945
 20
89.641105994605823
 11
149.76049099263309
 21
89.680376325975885
  0
LINE
  8
_0-0_0
  6
CONTINUOUS
 62
    4
 10
149.76049099263309
 20
89.680376325975885
 11
149.83712702368848
 21
89.725179523835322
  0
LINE
  8
_0-0_0
  6
CONTINUOUS
 62
    4
 10
149.83712702368848
 20
89.725179523835322
 11
149.88431925860004
 21
89.77379382642539
  0
LINE
  8
_0-0_0
  6
CONTINUOUS
 62
    4
 10
149.88431925860004
 20
89.77379382642539
 11
149.90025412624618
 21
89.824351013356136
  0
LINE
  8
_0-0_0
  6
CONTINUOUS
 62
    4
 10
153.22687587014389
 20
88.161311765916253
 11
153.90113138843935
 21
88.38230670109624
  0
LINE
  8
_0-0_0
  6
CONTINUOUS
 62
    4
 10
153.90113138843935
 20
88.38230670109624
 11
154.32574129376644
 21
88.537256689085552
  0
LINE
  8
_0-0_0
  6
CONTINUOUS
 62
    4
 10
154.32574129376644
 20
88.537256689085552
 11
154.5697846078474
 21
88.537256689085552
  0
LINE
  8
_0-0_0
  6
CONTINUOUS
 62
    4
 10
154.5697846078474
 20
88.537256689085552
 11
154.86893447671991
 21
88.537256689085552
  0
LINE
  8
_0-0_0
  6
CONTINUOUS
 62
    4
 10
147.85963076471489
 20
90.88064442162613
 11
147.22780726558449
 21
90.337652120824714
  0
LINE
  8
_0-0_0
  6
CONTINUOUS
 62
    4
 10
147.22780726558449
 20
90.337652120824714
 11
147.22780726558449
 21
89.60524399341557
  0
LINE
  8
_0-0_0
  6
CONTINUOUS
 62
    4
 10
147.22780726558449
 20
89.60524399341557
 11
148.02390507767359
 21
89.908309419495708
  0
LINE
  8
_0-0_0
  6
CONTINUOUS
 62
    4
 10
148.02390507767359
 20
89.908309419495708
 11
148.44090851003057
 21
90.047214543024893
  0
LINE
  8
_0-0_0
  6
CONTINUOUS
 62
    4
 10
148.44090851003057
 20
90.047214543024893
 11
148.63045552473704
 21
90.047214543024893
  0
LINE
  8
_0-0_0
  6
CONTINUOUS
 62
    4
 10
156.17466807976962
 20
88.321947925514905
 11
156.17466807976962
 21
88.171277143075713
  0
LINE
  8
_0-0_0
  6
CONTINUOUS
 62
    4
 10
156.17466807976962
 20
88.171277143075713
 11
155.95247345109692
 21
88.020606533145838
  0
LINE
  8
_0-0_0
  6
CONTINUOUS
 62
    4
 10
150.08957483056565
 20
91.504604894395015
 11
149.77926380345161
 21
91.679531006026082
  0
LINE
  8
_0-0_0
  6
CONTINUOUS
 62
    4
 10
149.77926380345161
 20
91.679531006026082
 11
149.60421648552801
 21
91.679531006026082
  0
LINE
  8
_0-0_0
  6
CONTINUOUS
 62
    4
 10
149.60421648552801
 20
91.679531006026082
 11
149.1825121246593
 21
91.798798809404616
  0
LINE
  8
_0-0_0
  6
CONTINUOUS
 62
    4
 10
149.1825121246593
 20
91.798798809404616
 11
148.69715377962348
 21
91.798798809404616
  0
LINE
  8
_0-0_0
  6
CONTINUOUS
 62
    4
 10
148.69715377962348
 20
91.798798809404616
 11
148.31523267717057
 21
91.647726258455805
  0
LINE
  8
_0-0_0
  6
CONTINUOUS
 62
    4
 10
148.31523267717057
 20
91.647726258455805
 11
148.00492165005835
 21
91.552312015744974
  0
LINE
  8
_0-0_0
  6
CONTINUOUS
 62
    4
 10
144.1245214847213
 20
91.996314006315515
 11
143.18031902636631
 21
91.996314006315515
  0
LINE
  8
_0-0_0
  6
CONTINUOUS
 62
    4
 10
143.18031902636631
 20
91.996314006315515
 11
141.38959000859904
 21
92.516892661325983
  0
LINE
  8
_0-0_0
  6
CONTINUOUS
 62
    4
 10
141.38959000859904
 20
92.516892661325983
 11
140.86865082995064
 21
92.516892661325983
  0
LINE
  8
_0-0_0
  6
CONTINUOUS
 62
    4
 10
140.86865082995064
 20
92.516892661325983
 11
140.57756985491687
 21
92.024866654275684
  0
LINE
  8
_0-0_0
  6
CONTINUOUS
 62
    4
 10
140.57756985491687
 20
92.024866654275684
 11
139.72337551673627
 21
91.591694990345786
  0
LINE
  8
_0-0_0
  6
CONTINUOUS
 62
    4
 10
139.72337551673627
 20
91.591694990345786
 11
136.26383649481977
 21
90.277829151595142
  0
LINE
  8
_0-0_0
  6
CONTINUOUS
 62
    4
 10
136.26383649481977
 20
90.277829151595142
 11
135.12916007810782
 21
89.691773097005353
  0
LINE
  8
_0-0_0
  6
CONTINUOUS
 62
    4
 10
135.12916007810782
 20
89.691773097005353
 11
132.45183433138118
 21
88.404997910454767
  0
LINE
  8
_0-0_0
  6
CONTINUOUS
 62
    4
 10
132.45183433138118
 20
88.404997910454767
 11
128.34059647095364
 21
86.820813798254676
  0
LINE
  8
_0-0_0
  6
CONTINUOUS
 62
    4
 10
128.34059647095364
 20
86.820813798254676
 11
126.54296336948755
 21
86.056393052485873
  0
LINE
  8
_0-0_0
  6
CONTINUOUS
 62
    4
 10
126.54296336948755
 20
86.056393052485873
 11
125.49753137787775
 21
85.686922829854666
  0
LINE
  8
_0-0_0
  6
CONTINUOUS
 62
    4
 10
125.49753137787775
 20
85.686922829854666
 11
124.10787154003356
 21
85.075386129736216
  0
LINE
  8
_0-0_0
  6
CONTINUOUS
 62
    4
 10
140.57684329364292
 20
91.916724681805135
 11
141.85001966498749
 21
90.84016706341572
  0
LINE
  8
_0-0_0
  6
CONTINUOUS
 62
    4
 10
141.85001966498749
 20
90.84016706341572
 11
143.51494253128749
 21
89.763609445024485
  0
LINE
  8
_0-0_0
  6
CONTINUOUS
 62
    4
 10
143.51494253128749
 20
89.763609445024485
 11
147.31075891336604
 21
87.278398117645338
  0
LINE
  8
_0-0_0
  6
CONTINUOUS
 62
    4
 10
147.31075891336604
 20
87.278398117645338
 11
149.46536516110064
 21
86.071348708535879
  0
LINE
  8
_0-0_0
  6
CONTINUOUS
 62
    4
 10
149.46536516110064
 20
86.071348708535879
 11
152.56669230932857
 21
84.472823754786077
  0
LINE
  8
_0-0_0
  6
CONTINUOUS
 62
    4
 10
152.56669230932857
 20
84.472823754786077
 11
154.98246300380561
 21
83.46151203174486
  0
LINE
  8
_0-0_0
  6
CONTINUOUS
 62
    4
 10
154.98246300380561
 20
83.46151203174486
 11
157.00648685300803
 21
82.906921748715831
  0
LINE
  8
_0-0_0
  6
CONTINUOUS
 62
    4
 10
157.00648685300803
 20
82.906921748715831
 11
159.25902998721995
 21
82.287085570325871
  0
LINE
  8
_0-0_0
  6
CONTINUOUS
 62
    4
 10
159.25902998721995
 20
82.287085570325871
 11
159.8140040424405
 21
82.287085570325871
  0
LINE
  8
_0-0_0
  6
CONTINUOUS
 62
    4
 10
140.4551933248913
 20
91.878235120315367
 11
141.36926871333344
 21
90.801677501925951
  0
LINE
  8
_0-0_0
  6
CONTINUOUS
 62
    4
 10
141.36926871333344
 20
90.801677501925951
 11
143.6871028716514
 21
88.909546019074696
  0
LINE
  8
_0-0_0
  6
CONTINUOUS
 62
    4
 10
143.6871028716514
 20
88.909546019074696
 11
146.59255659724295
 21
87.082660431575277
  0
LINE
  8
_0-0_0
  6
CONTINUOUS
 62
    4
 10
146.59255659724295
 20
87.082660431575277
 11
148.91039075556
 21
85.777742006925109
  0
LINE
  8
_0-0_0
  6
CONTINUOUS
 62
    4
 10
148.91039075556
 20
85.777742006925109
 11
152.43610991079822
 21
83.983479367105247
  0
LINE
  8
_0-0_0
  6
CONTINUOUS
 62
    4
 10
152.43610991079822
 20
83.983479367105247
 11
154.72129855706225
 21
83.167905502645226
  0
LINE
  8
_0-0_0
  6
CONTINUOUS
 62
    4
 10
154.72129855706225
 20
83.167905502645226
 11
159.32854830876749
 21
81.826915545374504
  0
LINE
  8
_0-0_0
  6
CONTINUOUS
 62
    4
 10
139.0427687178726
 20
78.751716386705084
 11
139.0427687178726
 21
79.059017719115218
  0
LINE
  8
_0-0_0
  6
CONTINUOUS
 62
    4
 10
139.0427687178726
 20
79.059017719115218
 11
138.71475362754882
 21
79.059017719115218
  0
LINE
  8
_0-0_0
  6
CONTINUOUS
 62
    4
 10
138.71475362754882
 20
79.059017719115218
 11
138.38673853722412
 21
79.284372075544525
  0
LINE
  8
_0-0_0
  6
CONTINUOUS
 62
    4
 10
138.38673853722412
 20
79.284372075544525
 11
138.38673853722412
 21
79.571186663955814
  0
LINE
  8
_0-0_0
  6
CONTINUOUS
 62
    4
 10
138.38673853722412
 20
79.571186663955814
 11
138.96076503287077
 21
79.571186663955814
  0
LINE
  8
_0-0_0
  6
CONTINUOUS
 62
    4
 10
138.96076503287077
 20
79.571186663955814
 11
140.86735254832911
 21
79.980921716334706
  0
LINE
  8
_0-0_0
  6
CONTINUOUS
 62
    4
 10
140.86735254832911
 20
79.980921716334706
 11
142.93794778410847
 21
80.247249560745331
  0
LINE
  8
_0-0_0
  6
CONTINUOUS
 62
    4
 10
142.93794778410847
 20
80.247249560745331
 11
144.86503630839707
 21
80.575037637145215
  0
LINE
  8
_0-0_0
  6
CONTINUOUS
 62
    4
 10
144.86503630839707
 20
80.575037637145215
 11
146.68962013885175
 21
80.575037637145215
  0
LINE
  8
_0-0_0
  6
CONTINUOUS
 62
    4
 10
146.68962013885175
 20
80.575037637145215
 11
148.14518721164313
 21
80.902825713545099
  0
LINE
  8
_0-0_0
  6
CONTINUOUS
 62
    4
 10
148.14518721164313
 20
80.902825713545099
 11
148.32969559047615
 21
80.902825713545099
  0
LINE
  8
_0-0_0
  6
CONTINUOUS
 62
    4
 10
140.97894976765019
 20
75.317491606674594
 11
140.97894976765019
 21
78.337515821365741
  0
LINE
  8
_0-0_0
  6
CONTINUOUS
 62
    4
 10
140.97894976765019
 20
78.337515821365741
 11
146.77567629473924
 21
79.271824695344549
  0
LINE
  8
_0-0_0
  6
CONTINUOUS
 62
    4
 10
148.54830120263432
 20
81.248886580704493
 11
148.3296325330848
 21
80.914683318625976
  0
LINE
  8
_0-0_0
  6
CONTINUOUS
 62
    4
 10
148.3296325330848
 20
80.914683318625976
 11
148.11096351321612
 21
80.593334061344649
  0
LINE
  8
_0-0_0
  6
CONTINUOUS
 62
    4
 10
148.11096351321612
 20
80.593334061344649
 11
147.81511750132177
 21
80.259130626765909
  0
LINE
  8
_0-0_0
  6
CONTINUOUS
 62
    4
 10
147.81511750132177
 20
80.259130626765909
 11
147.39064246874841
 21
79.88636552281605
  0
LINE
  8
_0-0_0
  6
CONTINUOUS
 62
    4
 10
147.39064246874841
 20
79.88636552281605
 11
147.00475645766619
 21
79.500746241576053
  0
LINE
  8
_0-0_0
  6
CONTINUOUS
 62
    4
 10
147.00475645766619
 20
79.500746241576053
 11
146.72177310261577
 21
79.217958826166068
  0
LINE
  8
_0-0_0
  6
CONTINUOUS
 62
    4
 10
146.72177310261577
 20
79.217958826166068
 11
145.96286338697792
 21
78.678092004925929
  0
LINE
  8
_0-0_0
  6
CONTINUOUS
 62
    4
 10
145.96286338697792
 20
78.678092004925929
 11
145.51266269039479
 21
78.40815859430586
  0
LINE
  8
_0-0_0
  6
CONTINUOUS
 62
    4
 10
145.51266269039479
 20
78.40815859430586
 11
145.07532500097659
 21
78.253910881814591
  0
LINE
  8
_0-0_0
  6
CONTINUOUS
 62
    4
 10
145.07532500097659
 20
78.253910881814591
 11
144.63798731155839
 21
78.009685308275948
  0
LINE
  8
_0-0_0
  6
CONTINUOUS
 62
    4
 10
144.63798731155839
 20
78.009685308275948
 11
144.14919794380421
 21
77.662628041405696
  0
LINE
  8
_0-0_0
  6
CONTINUOUS
 62
    4
 10
144.14919794380421
 20
77.662628041405696
 11
144.11842033180619
 21
77.6349473371356
  0
LINE
  8
_0-0_0
  6
CONTINUOUS
 62
    4
 10
149.93749196355293
 20
81.004661179666073
 11
149.70595993652023
 21
80.464794185925712
  0
LINE
  8
_0-0_0
  6
CONTINUOUS
 62
    4
 10
149.70595993652023
 20
80.464794185925712
 11
149.34579958944596
 21
79.899219355105743
  0
LINE
  8
_0-0_0
  6
CONTINUOUS
 62
    4
 10
149.34579958944596
 20
79.899219355105743
 11
148.97277623520858
 21
79.423622385325871
  0
LINE
  8
_0-0_0
  6
CONTINUOUS
 62
    4
 10
148.97277623520858
 20
79.423622385325871
 11
148.31676952592079
 21
78.832339717426294
  0
LINE
  8
_0-0_0
  6
CONTINUOUS
 62
    4
 10
148.31676952592079
 20
78.832339717426294
 11
147.55785981028203
 21
78.202494862645835
  0
LINE
  8
_0-0_0
  6
CONTINUOUS
 62
    4
 10
147.55785981028203
 20
78.202494862645835
 11
146.63173310342791
 21
77.572650180365599
  0
LINE
  8
_0-0_0
  6
CONTINUOUS
 62
    4
 10
146.63173310342791
 20
77.572650180365599
 11
145.96286338697792
 21
77.084199205795812
  0
LINE
  8
_0-0_0
  6
CONTINUOUS
 62
    4
 10
145.96286338697792
 20
77.084199205795812
 11
145.55125136156676
 21
76.839973804755573
  0
LINE
  8
_0-0_0
  6
CONTINUOUS
 62
    4
 10
150.92561354454756
 20
80.837114912164907
 11
150.29365131915711
 21
79.032758722565632
  0
LINE
  8
_0-0_0
  6
CONTINUOUS
 62
    4
 10
150.29365131915711
 20
79.032758722565632
 11
149.86804440641117
 21
78.040362723415456
  0
LINE
  8
_0-0_0
  6
CONTINUOUS
 62
    4
 10
151.42860343679695
 20
80.682455770765955
 11
150.83533322663516
 21
79.264747348404853
  0
LINE
  8
_0-0_0
  6
CONTINUOUS
 62
    4
 10
150.83533322663516
 20
79.264747348404853
 11
150.30654865756696
 21
77.963033238966091
  0
LINE
  8
_0-0_0
  6
CONTINUOUS
 62
    4
 10
150.30654865756696
 20
77.963033238966091
 11
150.0486050422378
 21
77.25417902778463
  0
LINE
  8
_0-0_0
  6
CONTINUOUS
 62
    4
 10
150.0486050422378
 20
77.25417902778463
 11
150.0486050422378
 21
75.86727412309483
  0
LINE
  8
_0-0_0
  6
CONTINUOUS
 62
    4
 10
149.84349581370498
 20
78.006725090295731
 11
149.84349581370498
 21
77.014329263645777
  0
LINE
  8
_0-0_0
  6
CONTINUOUS
 62
    4
 10
149.84349581370498
 20
77.014329263645777
 11
149.84349581370498
 21
75.751279810176129
  0
LINE
  8
_0-0_0
  6
CONTINUOUS
 62
    4
 10
149.61127225728251
 20
85.389379176334842
 11
149.01800169680246
 21
85.389379176334842
  0
LINE
  8
_0-0_0
  6
CONTINUOUS
 62
    4
 10
149.01800169680246
 20
85.389379176334842
 11
148.25706783890564
 21
85.389379176334842
  0
LINE
  8
_0-0_0
  6
CONTINUOUS
 62
    4
 10
147.48323699291814
 20
84.60319548071493
 11
147.48323699291814
 21
84.087665066896079
  0
LINE
  8
_0-0_0
  6
CONTINUOUS
 62
    4
 10
147.48323699291814
 20
84.087665066896079
 11
147.81856358775076
 21
84.087665066896079
  0
LINE
  8
_0-0_0
  6
CONTINUOUS
 62
    4
 10
147.81856358775076
 20
84.087665066896079
 11
148.15389053290164
 21
84.345430187555394
  0
LINE
  8
_0-0_0
  6
CONTINUOUS
 62
    4
 10
148.15389053290164
 20
84.345430187555394
 11
148.50211446614412
 21
84.345430187555394
  0
LINE
  8
_0-0_0
  6
CONTINUOUS
 62
    4
 10
148.50211446614412
 20
84.345430187555394
 11
149.17276800612763
 21
84.345430187555394
  0
LINE
  8
_0-0_0
  6
CONTINUOUS
 62
    4
 10
149.17276800612763
 20
84.345430187555394
 11
149.74024388978796
 21
84.345430187555394
  0
LINE
  8
_0-0_0
  6
CONTINUOUS
 62
    4
 10
149.74024388978796
 20
84.345430187555394
 11
150.28192579726601
 21
84.345430187555394
  0
LINE
  8
_0-0_0
  6
CONTINUOUS
 62
    4
 10
150.28192579726601
 20
84.345430187555394
 11
150.57856072718732
 21
84.345430187555394
  0
LINE
  8
_0-0_0
  6
CONTINUOUS
 62
    4
 10
150.57856072718732
 20
84.345430187555394
 11
151.09444830816483
 21
84.087665066896079
  0
LINE
  8
_0-0_0
  6
CONTINUOUS
 62
    4
 10
151.09444830816483
 20
84.087665066896079
 11
151.64902720373448
 21
83.82989994624586
  0
LINE
  8
_0-0_0
  6
CONTINUOUS
 62
    4
 10
151.64902720373448
 20
83.82989994624586
 11
151.79089617464979
 21
83.82989994624586
  0
LINE
  8
_0-0_0
  6
CONTINUOUS
 62
    4
 10
151.79089617464979
 20
83.82989994624586
 11
151.79089617464979
 21
84.242324208295031
  0
LINE
  8
_0-0_0
  6
CONTINUOUS
 62
    4
 10
148.2653118921653
 20
85.388074851854981
 11
148.02247087234355
 21
85.388074851854981
  0
LINE
  8
_0-0_0
  6
CONTINUOUS
 62
    4
 10
148.02247087234355
 20
85.388074851854981
 11
147.74421542035725
 21
85.388074851854981
  0
LINE
  8
_0-0_0
  6
CONTINUOUS
 62
    4
 10
147.74421542035725
 20
85.388074851854981
 11
147.58738082860145
 21
85.388074851854981
  0
LINE
  8
_0-0_0
  6
CONTINUOUS
 62
    4
 10
147.58738082860145
 20
85.388074851854981
 11
147.54184813738539
 21
85.388074851854981
  0
LINE
  8
_0-0_0
  6
CONTINUOUS
 62
    4
 10
147.54184813738539
 20
85.388074851854981
 11
147.47607857774346
 21
85.24145987855627
  0
LINE
  8
_0-0_0
  6
CONTINUOUS
 62
    4
 10
147.47607857774346
 20
85.24145987855627
 11
147.47607857774346
 21
85.069566437794492
  0
LINE
  8
_0-0_0
  6
CONTINUOUS
 62
    4
 10
147.47607857774346
 20
85.069566437794492
 11
147.42042727715489
 21
84.887561679044666
  0
LINE
  8
_0-0_0
  6
CONTINUOUS
 62
    4
 10
147.42042727715489
 20
84.887561679044666
 11
147.48113753211055
 21
84.584220414464653
  0
LINE
  8
_0-0_0
  6
CONTINUOUS
 62
    4
 10
147.7963032777061
 20
84.085678477726105
 11
147.70713241955946
 21
83.461914317786068
  0
LINE
  8
_0-0_0
  6
CONTINUOUS
 62
    4
 10
147.70713241955946
 20
83.461914317786068
 11
147.83683551780177
 21
83.089276006396176
  0
LINE
  8
_0-0_0
  6
CONTINUOUS
 62
    4
 10
147.83683551780177
 20
83.089276006396176
 11
148.08813533633293
 21
82.870553504264535
  0
LINE
  8
_0-0_0
  6
CONTINUOUS
 62
    4
 10
148.08813533633293
 20
82.870553504264535
 11
148.24215791876122
 21
82.773343464996287
  0
LINE
  8
_0-0_0
  6
CONTINUOUS
 62
    4
 10
148.24215791876122
 20
82.773343464996287
 11
148.24215791876122
 21
82.173881728615015
  0
LINE
  8
_0-0_0
  6
CONTINUOUS
 62
    4
 10
148.24215791876122
 20
82.173881728615015
 11
148.24215791876122
 21
82.011865168995428
  0
LINE
  8
_0-0_0
  6
CONTINUOUS
 62
    4
 10
148.24215791876122
 20
82.011865168995428
 11
148.00707085613976
 21
81.857949187215127
  0
LINE
  8
_0-0_0
  6
CONTINUOUS
 62
    4
 10
148.00707085613976
 20
81.857949187215127
 11
148.00707085613976
 21
81.695932627595539
  0
LINE
  8
_0-0_0
  6
CONTINUOUS
 62
    4
 10
148.00707085613976
 20
81.695932627595539
 11
148.00707085613976
 21
81.420504355475714
  0
LINE
  8
_0-0_0
  6
CONTINUOUS
 62
    4
 10
148.00707085613976
 20
81.420504355475714
 11
148.1448803323392
 21
81.25848762334499
  0
LINE
  8
_0-0_0
  6
CONTINUOUS
 62
    4
 10
148.1448803323392
 20
81.25848762334499
 11
148.26647705262712
 21
81.25848762334499
  0
LINE
  8
_0-0_0
  6
CONTINUOUS
 62
    4
 10
148.26647705262712
 20
81.25848762334499
 11
148.51777687115737
 21
81.25848762334499
  0
LINE
  8
_0-0_0
  6
CONTINUOUS
 62
    4
 10
148.51777687115737
 20
81.25848762334499
 11
148.78528944559821
 21
81.25848762334499
  0
LINE
  8
_0-0_0
  6
CONTINUOUS
 62
    4
 10
148.78528944559821
 20
81.25848762334499
 11
149.19061149623849
 21
81.25848762334499
  0
LINE
  8
_0-0_0
  6
CONTINUOUS
 62
    4
 10
149.19061149623849
 20
81.25848762334499
 11
149.53108217291538
 21
81.25848762334499
  0
LINE
  8
_0-0_0
  6
CONTINUOUS
 62
    4
 10
149.53108217291538
 20
81.25848762334499
 11
149.79048836940092
 21
81.072168467655501
  0
LINE
  8
_0-0_0
  6
CONTINUOUS
 62
    4
 10
149.79048836940092
 20
81.072168467655501
 11
149.96883008569512
 21
81.072168467655501
  0
LINE
  8
_0-0_0
  6
CONTINUOUS
 62
    4
 10
149.96883008569512
 20
81.072168467655501
 11
150.60923919895504
 21
80.877748389095359
  0
LINE
  8
_0-0_0
  6
CONTINUOUS
 62
    4
 10
150.60923919895504
 20
80.877748389095359
 11
151.04698711173478
 21
81.096470891216086
  0
LINE
  8
_0-0_0
  6
CONTINUOUS
 62
    4
 10
151.04698711173478
 20
81.096470891216086
 11
151.04698711173478
 21
81.598722588314558
  0
LINE
  8
_0-0_0
  6
CONTINUOUS
 62
    4
 10
151.04698711173478
 20
81.598722588314558
 11
150.90107125758095
 21
81.760739320445282
  0
LINE
  8
_0-0_0
  6
CONTINUOUS
 62
    4
 10
150.90107125758095
 20
81.760739320445282
 11
150.79568729320454
 21
81.760739320445282
  0
LINE
  8
_0-0_0
  6
CONTINUOUS
 62
    4
 10
150.79568729320454
 20
81.760739320445282
 11
150.62545195486564
 21
81.963260149355847
  0
LINE
  8
_0-0_0
  6
CONTINUOUS
 62
    4
 10
150.62545195486564
 20
81.963260149355847
 11
150.48764247866711
 21
82.10097428541485
  0
LINE
  8
_0-0_0
  6
CONTINUOUS
 62
    4
 10
150.48764247866711
 20
82.10097428541485
 11
150.48764247866711
 21
82.295394191465675
  0
LINE
  8
_0-0_0
  6
CONTINUOUS
 62
    4
 10
150.48764247866711
 20
82.295394191465675
 11
150.48764247866711
 21
82.473612596804742
  0
LINE
  8
_0-0_0
  6
CONTINUOUS
 62
    4
 10
150.48764247866711
 20
82.473612596804742
 11
150.48764247866711
 21
82.676133425715307
  0
LINE
  8
_0-0_0
  6
CONTINUOUS
 62
    4
 10
150.48764247866711
 20
82.676133425715307
 11
150.65787781700601
 21
82.813847561776129
  0
LINE
  8
_0-0_0
  6
CONTINUOUS
 62
    4
 10
150.65787781700601
 20
82.813847561776129
 11
150.82000677738961
 21
82.911057601046195
  0
LINE
  8
_0-0_0
  6
CONTINUOUS
 62
    4
 10
150.82000677738961
 20
82.911057601046195
 11
151.04698711173478
 21
83.024469313535519
  0
LINE
  8
_0-0_0
  6
CONTINUOUS
 62
    4
 10
151.04698711173478
 20
83.024469313535519
 11
151.33071279240539
 21
83.162183449594522
  0
LINE
  8
_0-0_0
  6
CONTINUOUS
 62
    4
 10
151.33071279240539
 20
83.162183449594522
 11
151.50094813074429
 21
83.324200009215929
  0
LINE
  8
_0-0_0
  6
CONTINUOUS
 62
    4
 10
151.50094813074429
 20
83.324200009215929
 11
151.50094813074429
 21
83.542922511345751
  0
LINE
  8
_0-0_0
  6
CONTINUOUS
 62
    4
 10
151.50094813074429
 20
83.542922511345751
 11
151.40367054432318
 21
83.713040166336214
  0
LINE
  8
_0-0_0
  6
CONTINUOUS
 62
    4
 10
151.40367054432318
 20
83.713040166336214
 11
151.40367054432318
 21
83.939863418805544
  0
LINE
  8
_0-0_0
  6
CONTINUOUS
 62
    4
 10
151.40367054432318
 20
83.939863418805544
 11
151.51716088665489
 21
84.028972535224966
  0
LINE
  8
_0-0_0
  6
CONTINUOUS
 62
    4
 10
147.7557713879296
 20
83.275595162085665
 11
147.97464534431947
 21
83.470015068134671
  0
LINE
  8
_0-0_0
  6
CONTINUOUS
 62
    4
 10
147.97464534431947
 20
83.470015068134671
 11
148.21783843457524
 21
83.607729204195493
  0
LINE
  8
_0-0_0
  6
CONTINUOUS
 62
    4
 10
148.21783843457524
 20
83.607729204195493
 11
148.42860601301163
 21
83.607729204195493
  0
LINE
  8
_0-0_0
  6
CONTINUOUS
 62
    4
 10
148.42860601301163
 20
83.607729204195493
 11
148.63937359144438
 21
83.607729204195493
  0
LINE
  8
_0-0_0
  6
CONTINUOUS
 62
    4
 10
148.63937359144438
 20
83.607729204195493
 11
148.93931202802651
 21
83.607729204195493
  0
LINE
  8
_0-0_0
  6
CONTINUOUS
 62
    4
 10
148.93931202802651
 20
83.607729204195493
 11
149.27167597642983
 21
83.607729204195493
  0
LINE
  8
_0-0_0
  6
CONTINUOUS
 62
    4
 10
149.27167597642983
 20
83.607729204195493
 11
149.84723371572636
 21
83.607729204195493
  0
LINE
  8
_0-0_0
  6
CONTINUOUS
 62
    4
 10
149.84723371572636
 20
83.607729204195493
 11
150.23634301045513
 21
83.607729204195493
  0
LINE
  8
_0-0_0
  6
CONTINUOUS
 62
    4
 10
150.23634301045513
 20
83.607729204195493
 11
150.52006834080748
 21
83.607729204195493
  0
LINE
  8
_0-0_0
  6
CONTINUOUS
 62
    4
 10
150.52006834080748
 20
83.607729204195493
 11
150.77947453729303
 21
83.453813394924509
  0
LINE
  8
_0-0_0
  6
CONTINUOUS
 62
    4
 10
150.77947453729303
 20
83.453813394924509
 11
150.94970987563192
 21
83.453813394924509
  0
LINE
  8
_0-0_0
  6
CONTINUOUS
 62
    4
 10
150.94970987563192
 20
83.453813394924509
 11
151.1847965879324
 21
83.235090892805601
  0
LINE
  8
_0-0_0
  6
CONTINUOUS
 62
    4
 10
151.1847965879324
 20
83.235090892805601
 11
151.32260606413092
 21
83.121679180316278
  0
LINE
  8
_0-0_0
  6
CONTINUOUS
 62
    4
 10
148.24215791876122
 20
81.971360899706269
 11
148.63126721348908
 21
81.971360899706269
  0
LINE
  8
_0-0_0
  6
CONTINUOUS
 62
    4
 10
148.63126721348908
 20
81.971360899706269
 11
148.87446030374576
 21
81.971360899706269
  0
LINE
  8
_0-0_0
  6
CONTINUOUS
 62
    4
 10
148.87446030374576
 20
81.971360899706269
 11
149.19871822451205
 21
81.971360899706269
  0
LINE
  8
_0-0_0
  6
CONTINUOUS
 62
    4
 10
149.19871822451205
 20
81.971360899706269
 11
149.53108217291538
 21
81.971360899706269
  0
LINE
  8
_0-0_0
  6
CONTINUOUS
 62
    4
 10
149.53108217291538
 20
81.971360899706269
 11
149.91208508968884
 21
81.833646763654542
  0
LINE
  8
_0-0_0
  6
CONTINUOUS
 62
    4
 10
149.91208508968884
 20
81.833646763654542
 11
150.23634301045513
 21
81.720235051156124
  0
LINE
  8
_0-0_0
  6
CONTINUOUS
 62
    4
 10
150.23634301045513
 20
81.720235051156124
 11
150.55249420294786
 21
81.61492426152472
  0
LINE
  8
_0-0_0
  6
CONTINUOUS
 62
    4
 10
150.55249420294786
 20
81.61492426152472
 11
150.8119003994334
 21
81.517714222254654
  0
LINE
  8
_0-0_0
  6
CONTINUOUS
 62
    4
 10
150.8119003994334
 20
81.517714222254654
 11
151.03888073377948
 21
81.428605105835231
  0
LINE
  8
_0-0_0
  6
CONTINUOUS
 62
    4
 10
151.03888073377948
 20
81.428605105835231
 11
151.06320021796455
 21
81.428605105835231
  0
LINE
  8
_0-0_0
  6
CONTINUOUS
 62
    4
 10
144.11996313597683
 20
77.58860896389524
 11
144.11996313597683
 21
77.276808997195985
  0
LINE
  8
_0-0_0
  6
CONTINUOUS
 62
    4
 10
144.11996313597683
 20
77.276808997195985
 11
144.11996313597683
 21
77.003984026336184
  0
LINE
  8
_0-0_0
  6
CONTINUOUS
 62
    4
 10
144.11996313597683
 20
77.003984026336184
 11
144.57498632170882
 21
76.692184232146246
  0
LINE
  8
_0-0_0
  6
CONTINUOUS
 62
    4
 10
144.57498632170882
 20
76.692184232146246
 11
145.01700882497335
 21
76.692184232146246
  0
LINE
  8
_0-0_0
  6
CONTINUOUS
 62
    4
 10
145.01700882497335
 20
76.692184232146246
 11
145.42002928083457
 21
76.692184232146246
  0
LINE
  8
_0-0_0
  6
CONTINUOUS
 62
    4
 10
145.42002928083457
 20
76.692184232146246
 11
145.60203848506353
 21
76.900050876614841
  0
LINE
  8
_0-0_0
  6
CONTINUOUS
 62
    4
 10
144.11842033180619
 20
77.585497284884696
 11
144.11842033180619
 21
77.632865257715821
  0
LINE
  8
_0-0_0
  6
CONTINUOUS
 62
    4
 10
144.11842033180619
 20
77.632865257715821
 11
144.11842033180619
 21
77.647823673885796
  0
LINE
  8
_0-0_0
  6
CONTINUOUS
 62
    4
 10
136.15907597446858
 20
96.907550230975176
 11
136.08496294109591
 21
96.662525851856117
  0
LINE
  8
_0-0_0
  6
CONTINUOUS
 62
    4
 10
136.08496294109591
 20
96.662525851856117
 11
136.06975586449153
 21
96.402313825736201
  0
LINE
  8
_0-0_0
  6
CONTINUOUS
 62
    4
 10
136.06975586449153
 20
96.402313825736201
 11
136.11403914408129
 21
96.136913954826014
  0
LINE
  8
_0-0_0
  6
CONTINUOUS
 62
    4
 10
136.11403914408129
 20
96.136913954826014
 11
136.21611099826532
 21
95.876525407335066
  0
LINE
  8
_0-0_0
  6
CONTINUOUS
 62
    4
 10
136.21611099826532
 20
95.876525407335066
 11
136.37204886292875
 21
95.63115476913481
  0
LINE
  8
_0-0_0
  6
CONTINUOUS
 62
    4
 10
136.37204886292875
 20
95.63115476913481
 11
136.5758601333855
 21
95.410231496225606
  0
LINE
  8
_0-0_0
  6
CONTINUOUS
 62
    4
 10
136.5758601333855
 20
95.410231496225606
 11
136.81971245680779
 21
95.222245546096019
  0
LINE
  8
_0-0_0
  6
CONTINUOUS
 62
    4
 10
136.81971245680779
 20
95.222245546096019
 11
137.09423472516301
 21
95.074421113386052
  0
LINE
  8
_0-0_0
  6
CONTINUOUS
 62
    4
 10
137.09423472516301
 20
95.074421113386052
 11
137.38887720163075
 21
94.972439008144647
  0
LINE
  8
_0-0_0
  6
CONTINUOUS
 62
    4
 10
137.38887720163075
 20
94.972439008144647
 11
137.69231694107839
 21
94.920218345485409
  0
LINE
  8
_0-0_0
  6
CONTINUOUS
 62
    4
 10
137.69231694107839
 20
94.920218345485409
 11
137.99289292448975
 21
94.919765936176191
  0
LINE
  8
_0-0_0
  6
CONTINUOUS
 62
    4
 10
137.99289292448975
 20
94.919765936176191
 11
138.27905418538739
 21
94.971099166075874
  0
LINE
  8
_0-0_0
  6
CONTINUOUS
 62
    4
 10
138.27905418538739
 20
94.971099166075874
 11
138.53980370699446
 21
95.072245327924975
  0
LINE
  8
_0-0_0
  6
CONTINUOUS
 62
    4
 10
138.53980370699446
 20
95.072245327924975
 11
138.76512103142886
 21
95.219317431465242
  0
LINE
  8
_0-0_0
  6
CONTINUOUS
 62
    4
 10
138.76512103142886
 20
95.219317431465242
 11
138.94634734026931
 21
95.406663578225562
  0
LINE
  8
_0-0_0
  6
CONTINUOUS
 62
    4
 10
138.94634734026931
 20
95.406663578225562
 11
139.07651820810133
 21
95.627084160854793
  0
LINE
  8
_0-0_0
  6
CONTINUOUS
 62
    4
 10
139.07651820810133
 20
95.627084160854793
 11
139.150631241474
 21
95.872108539964756
  0
LINE
  8
_0-0_0
  6
CONTINUOUS
 62
    4
 10
139.150631241474
 20
95.872108539964756
 11
139.16583831807839
 21
96.132320566095586
  0
LINE
  8
_0-0_0
  6
CONTINUOUS
 62
    4
 10
139.16583831807839
 20
96.132320566095586
 11
139.12155503848862
 21
96.397720437005773
  0
LINE
  8
_0-0_0
  6
CONTINUOUS
 62
    4
 10
139.12155503848862
 20
96.397720437005773
 11
139.01948318430459
 21
96.658108984485807
  0
LINE
  8
_0-0_0
  6
CONTINUOUS
 62
    4
 10
139.01948318430459
 20
96.658108984485807
 11
138.86354531964116
 21
96.903479622695158
  0
LINE
  8
_0-0_0
  6
CONTINUOUS
 62
    4
 10
138.86354531964116
 20
96.903479622695158
 11
138.65973404918441
 21
97.124402895606181
  0
LINE
  8
_0-0_0
  6
CONTINUOUS
 62
    4
 10
138.65973404918441
 20
97.124402895606181
 11
138.41588172576121
 21
97.312388845735768
  0
LINE
  8
_0-0_0
  6
CONTINUOUS
 62
    4
 10
138.41588172576121
 20
97.312388845735768
 11
138.14135945740691
 21
97.460213278445735
  0
LINE
  8
_0-0_0
  6
CONTINUOUS
 62
    4
 10
138.14135945740691
 20
97.460213278445735
 11
137.84671698093916
 21
97.562195383685321
  0
LINE
  8
_0-0_0
  6
CONTINUOUS
 62
    4
 10
137.84671698093916
 20
97.562195383685321
 11
137.54327724149152
 21
97.614416046344559
  0
LINE
  8
_0-0_0
  6
CONTINUOUS
 62
    4
 10
137.54327724149152
 20
97.614416046344559
 11
137.24270125808016
 21
97.614868455644682
  0
LINE
  8
_0-0_0
  6
CONTINUOUS
 62
    4
 10
137.24270125808016
 20
97.614868455644682
 11
136.95653999718252
 21
97.563535225755913
  0
LINE
  8
_0-0_0
  6
CONTINUOUS
 62
    4
 10
136.95653999718252
 20
97.563535225755913
 11
136.69579047557545
 21
97.462389063895898
  0
LINE
  8
_0-0_0
  6
CONTINUOUS
 62
    4
 10
136.69579047557545
 20
97.462389063895898
 11
136.47047315114105
 21
97.315316960364726
  0
LINE
  8
_0-0_0
  6
CONTINUOUS
 62
    4
 10
136.47047315114105
 20
97.315316960364726
 11
136.2892468423006
 21
97.127970813606225
  0
LINE
  8
_0-0_0
  6
CONTINUOUS
 62
    4
 10
136.2892468423006
 20
97.127970813606225
 11
136.15907597446858
 21
96.907550230975176
  0
LINE
  8
_0-0_0
  6
CONTINUOUS
 62
    4
 10
128.90759635523591
 20
97.20917310333607
 11
128.87907531256405
 21
97.152725264324545
  0
LINE
  8
_0-0_0
  6
CONTINUOUS
 62
    4
 10
128.87907531256405
 20
97.152725264324545
 11
128.87144417662239
 21
97.082809121695391
  0
LINE
  8
_0-0_0
  6
CONTINUOUS
 62
    4
 10
128.87144417662239
 20
97.082809121695391
 11
128.88499620768289
 21
97.002111513585987
  0
LINE
  8
_0-0_0
  6
CONTINUOUS
 62
    4
 10
128.88499620768289
 20
97.002111513585987
 11
128.91921060879486
 21
96.913733603825676
  0
LINE
  8
_0-0_0
  6
CONTINUOUS
 62
    4
 10
128.91921060879486
 20
96.913733603825676
 11
128.9727725397106
 21
96.821071705924624
  0
LINE
  8
_0-0_0
  6
CONTINUOUS
 62
    4
 10
128.9727725397106
 20
96.821071705924624
 11
129.0436236454625
 21
96.727686764656028
  0
LINE
  8
_0-0_0
  6
CONTINUOUS
 62
    4
 10
129.0436236454625
 20
96.727686764656028
 11
129.12904115778838
 21
96.637167510934887
  0
LINE
  8
_0-0_0
  6
CONTINUOUS
 62
    4
 10
129.12904115778838
 20
96.637167510934887
 11
129.22574252959475
 21
96.552992548924522
  0
LINE
  8
_0-0_0
  6
CONTINUOUS
 62
    4
 10
129.22574252959475
 20
96.552992548924522
 11
129.3300115813945
 21
96.478396675205659
  0
LINE
  8
_0-0_0
  6
CONTINUOUS
 62
    4
 10
129.3300115813945
 20
96.478396675205659
 11
129.43784131199936
 21
96.416246567365306
  0
LINE
  8
_0-0_0
  6
CONTINUOUS
 62
    4
 10
129.43784131199936
 20
96.416246567365306
 11
129.5450878853344
 21
96.368930619204548
  0
LINE
  8
_0-0_0
  6
CONTINUOUS
 62
    4
 10
129.5450878853344
 20
96.368930619204548
 11
129.64762987573249
 21
96.338267156075744
  0
LINE
  8
_0-0_0
  6
CONTINUOUS
 62
    4
 10
129.64762987573249
 20
96.338267156075744
 11
129.74152665200654
 21
96.325434557666085
  0
LINE
  8
_0-0_0
  6
CONTINUOUS
 62
    4
 10
129.74152665200654
 20
96.325434557666085
 11
129.82316981370423
 21
96.330925973536068
  0
LINE
  8
_0-0_0
  6
CONTINUOUS
 62
    4
 10
129.82316981370423
 20
96.330925973536068
 11
129.88942185990618
 21
96.354530371645524
  0
LINE
  8
_0-0_0
  6
CONTINUOUS
 62
    4
 10
129.88942185990618
 20
96.354530371645524
 11
129.93773676163164
 21
96.395340648225101
  0
LINE
  8
_0-0_0
  6
CONTINUOUS
 62
    4
 10
129.93773676163164
 20
96.395340648225101
 11
129.9662578043035
 21
96.451788487234808
  0
LINE
  8
_0-0_0
  6
CONTINUOUS
 62
    4
 10
129.9662578043035
 20
96.451788487234808
 11
129.97388894024516
 21
96.521704629865781
  0
LINE
  8
_0-0_0
  6
CONTINUOUS
 62
    4
 10
129.97388894024516
 20
96.521704629865781
 11
129.96033690918375
 21
96.602402237975184
  0
LINE
  8
_0-0_0
  6
CONTINUOUS
 62
    4
 10
129.96033690918375
 20
96.602402237975184
 11
129.92612250807178
 21
96.690780147735495
  0
LINE
  8
_0-0_0
  6
CONTINUOUS
 62
    4
 10
129.92612250807178
 20
96.690780147735495
 11
129.87256057715695
 21
96.783442045634729
  0
LINE
  8
_0-0_0
  6
CONTINUOUS
 62
    4
 10
129.87256057715695
 20
96.783442045634729
 11
129.80170947140505
 21
96.876826986905144
  0
LINE
  8
_0-0_0
  6
CONTINUOUS
 62
    4
 10
129.80170947140505
 20
96.876826986905144
 11
129.71629195907917
 21
96.967346240626284
  0
LINE
  8
_0-0_0
  6
CONTINUOUS
 62
    4
 10
129.71629195907917
 20
96.967346240626284
 11
129.61959058727189
 21
97.051521202634831
  0
LINE
  8
_0-0_0
  6
CONTINUOUS
 62
    4
 10
129.61959058727189
 20
97.051521202634831
 11
129.51532153547305
 21
97.126117076355513
  0
LINE
  8
_0-0_0
  6
CONTINUOUS
 62
    4
 10
129.51532153547305
 20
97.126117076355513
 11
129.40749180486819
 21
97.188267184195865
  0
LINE
  8
_0-0_0
  6
CONTINUOUS
 62
    4
 10
129.40749180486819
 20
97.188267184195865
 11
129.30024523153315
 21
97.235583132354805
  0
LINE
  8
_0-0_0
  6
CONTINUOUS
 62
    4
 10
129.30024523153315
 20
97.235583132354805
 11
129.19770324113506
 21
97.266246595485427
  0
LINE
  8
_0-0_0
  6
CONTINUOUS
 62
    4
 10
129.19770324113506
 20
97.266246595485427
 11
129.10380646486101
 21
97.279079193895086
  0
LINE
  8
_0-0_0
  6
CONTINUOUS
 62
    4
 10
129.10380646486101
 20
97.279079193895086
 11
129.02216330316332
 21
97.273587778036017
  0
LINE
  8
_0-0_0
  6
CONTINUOUS
 62
    4
 10
129.02216330316332
 20
97.273587778036017
 11
128.95591125696137
 21
97.249983379915648
  0
LINE
  8
_0-0_0
  6
CONTINUOUS
 62
    4
 10
128.95591125696137
 20
97.249983379915648
 11
128.90759635523591
 21
97.20917310333607
  0
LINE
  8
_0-0_0
  6
CONTINUOUS
 62
    4
 10
121.81365631214703
 20
101.94012412901611
 11
121.78513526947518
 21
101.88367629000459
  0
LINE
  8
_0-0_0
  6
CONTINUOUS
 62
    4
 10
121.78513526947518
 20
101.88367629000459
 11
121.77750413353351
 21
101.81376014737543
  0
LINE
  8
_0-0_0
  6
CONTINUOUS
 62
    4
 10
121.77750413353351
 20
101.81376014737543
 11
121.79105616459401
 21
101.73306253927512
  0
LINE
  8
_0-0_0
  6
CONTINUOUS
 62
    4
 10
121.79105616459401
 20
101.73306253927512
 11
121.82527056570598
 21
101.64468462951481
  0
LINE
  8
_0-0_0
  6
CONTINUOUS
 62
    4
 10
121.82527056570598
 20
101.64468462951481
 11
121.87883249662264
 21
101.55202273161558
  0
LINE
  8
_0-0_0
  6
CONTINUOUS
 62
    4
 10
121.87883249662264
 20
101.55202273161558
 11
121.94968360237363
 21
101.45863779033607
  0
LINE
  8
_0-0_0
  6
CONTINUOUS
 62
    4
 10
121.94968360237363
 20
101.45863779033607
 11
122.0351011146995
 21
101.36811853661493
  0
LINE
  8
_0-0_0
  6
CONTINUOUS
 62
    4
 10
122.0351011146995
 20
101.36811853661493
 11
122.13180248650679
 21
101.28394357460456
  0
LINE
  8
_0-0_0
  6
CONTINUOUS
 62
    4
 10
122.13180248650679
 20
101.28394357460456
 11
122.23607153830562
 21
101.2093477008857
  0
LINE
  8
_0-0_0
  6
CONTINUOUS
 62
    4
 10
122.23607153830562
 20
101.2093477008857
 11
122.34390126891049
 21
101.14719759305626
  0
LINE
  8
_0-0_0
  6
CONTINUOUS
 62
    4
 10
122.34390126891049
 20
101.14719759305626
 11
122.45114784224552
 21
101.0998816448955
  0
LINE
  8
_0-0_0
  6
CONTINUOUS
 62
    4
 10
122.45114784224552
 20
101.0998816448955
 11
122.55368983264361
 21
101.06921818175579
  0
LINE
  8
_0-0_0
  6
CONTINUOUS
 62
    4
 10
122.55368983264361
 20
101.06921818175579
 11
122.64758660891675
 21
101.05638558334613
  0
LINE
  8
_0-0_0
  6
CONTINUOUS
 62
    4
 10
122.64758660891675
 20
101.05638558334613
 11
122.72922977061535
 21
101.06187699921611
  0
LINE
  8
_0-0_0
  6
CONTINUOUS
 62
    4
 10
122.72922977061535
 20
101.06187699921611
 11
122.7954818168173
 21
101.08548139733466
  0
LINE
  8
_0-0_0
  6
CONTINUOUS
 62
    4
 10
122.7954818168173
 20
101.08548139733466
 11
122.84379671854276
 21
101.12629167391606
  0
LINE
  8
_0-0_0
  6
CONTINUOUS
 62
    4
 10
122.84379671854276
 20
101.12629167391606
 11
122.87231776121462
 21
101.18273951291485
  0
LINE
  8
_0-0_0
  6
CONTINUOUS
 62
    4
 10
122.87231776121462
 20
101.18273951291485
 11
122.87994889715628
 21
101.25265565554582
  0
LINE
  8
_0-0_0
  6
CONTINUOUS
 62
    4
 10
122.87994889715628
 20
101.25265565554582
 11
122.86639686609578
 21
101.33335326365523
  0
LINE
  8
_0-0_0
  6
CONTINUOUS
 62
    4
 10
122.86639686609578
 20
101.33335326365523
 11
122.83218246498382
 21
101.42173117341554
  0
LINE
  8
_0-0_0
  6
CONTINUOUS
 62
    4
 10
122.83218246498382
 20
101.42173117341554
 11
122.77862053406807
 21
101.51439307131477
  0
LINE
  8
_0-0_0
  6
CONTINUOUS
 62
    4
 10
122.77862053406807
 20
101.51439307131477
 11
122.70776942831617
 21
101.60777801258519
  0
LINE
  8
_0-0_0
  6
CONTINUOUS
 62
    4
 10
122.70776942831617
 20
101.60777801258519
 11
122.62235191599029
 21
101.69829726630451
  0
LINE
  8
_0-0_0
  6
CONTINUOUS
 62
    4
 10
122.62235191599029
 20
101.69829726630451
 11
122.52565054418301
 21
101.78247222832579
  0
LINE
  8
_0-0_0
  6
CONTINUOUS
 62
    4
 10
122.52565054418301
 20
101.78247222832579
 11
122.42138149238417
 21
101.85706810204465
  0
LINE
  8
_0-0_0
  6
CONTINUOUS
 62
    4
 10
122.42138149238417
 20
101.85706810204465
 11
122.31355176177931
 21
101.91921820987591
  0
LINE
  8
_0-0_0
  6
CONTINUOUS
 62
    4
 10
122.31355176177931
 20
101.91921820987591
 11
122.20630518844428
 21
101.96653415803485
  0
LINE
  8
_0-0_0
  6
CONTINUOUS
 62
    4
 10
122.20630518844428
 20
101.96653415803485
 11
122.10376319804618
 21
101.99719762117456
  0
LINE
  8
_0-0_0
  6
CONTINUOUS
 62
    4
 10
122.10376319804618
 20
101.99719762117456
 11
122.00986642177213
 21
102.01003021958604
  0
LINE
  8
_0-0_0
  6
CONTINUOUS
 62
    4
 10
122.00986642177213
 20
102.01003021958604
 11
121.92822326007445
 21
102.00453880371606
  0
LINE
  8
_0-0_0
  6
CONTINUOUS
 62
    4
 10
121.92822326007445
 20
102.00453880371606
 11
121.86197121387249
 21
101.98093440559569
  0
LINE
  8
_0-0_0
  6
CONTINUOUS
 62
    4
 10
121.86197121387249
 20
101.98093440559569
 11
121.81365631214703
 21
101.94012412901611
  0
LINE
  8
_0-0_0
  6
CONTINUOUS
 62
    4
 10
112.64743319710851
 20
107.96745017635476
 11
112.61891215443575
 21
107.91100233734505
  0
LINE
  8
_0-0_0
  6
CONTINUOUS
 62
    4
 10
112.61891215443575
 20
107.91100233734505
 11
112.61128101849499
 21
107.8410861947159
  0
LINE
  8
_0-0_0
  6
CONTINUOUS
 62
    4
 10
112.61128101849499
 20
107.8410861947159
 11
112.62483304955549
 21
107.76038858660468
  0
LINE
  8
_0-0_0
  6
CONTINUOUS
 62
    4
 10
112.62483304955549
 20
107.76038858660468
 11
112.65904745066746
 21
107.67201067684618
  0
LINE
  8
_0-0_0
  6
CONTINUOUS
 62
    4
 10
112.65904745066746
 20
107.67201067684618
 11
112.71260938158321
 21
107.57934877895605
  0
LINE
  8
_0-0_0
  6
CONTINUOUS
 62
    4
 10
112.71260938158321
 20
107.57934877895605
 11
112.78346048733511
 21
107.48596383767472
  0
LINE
  8
_0-0_0
  6
CONTINUOUS
 62
    4
 10
112.78346048733511
 20
107.48596383767472
 11
112.86887799966098
 21
107.3954445839554
  0
LINE
  8
_0-0_0
  6
CONTINUOUS
 62
    4
 10
112.86887799966098
 20
107.3954445839554
 11
112.96557937146827
 21
107.31126962194503
  0
LINE
  8
_0-0_0
  6
CONTINUOUS
 62
    4
 10
112.96557937146827
 20
107.31126962194503
 11
113.0698484232671
 21
107.23667374822617
  0
LINE
  8
_0-0_0
  6
CONTINUOUS
 62
    4
 10
113.0698484232671
 20
107.23667374822617
 11
113.17767815387197
 21
107.17452364038581
  0
LINE
  8
_0-0_0
  6
CONTINUOUS
 62
    4
 10
113.17767815387197
 20
107.17452364038581
 11
113.284924727207
 21
107.12720769223597
  0
LINE
  8
_0-0_0
  6
CONTINUOUS
 62
    4
 10
113.284924727207
 20
107.12720769223597
 11
113.38746671760509
 21
107.09654422909625
  0
LINE
  8
_0-0_0
  6
CONTINUOUS
 62
    4
 10
113.38746671760509
 20
107.09654422909625
 11
113.48136349387914
 21
107.08371163068477
  0
LINE
  8
_0-0_0
  6
CONTINUOUS
 62
    4
 10
113.48136349387914
 20
107.08371163068477
 11
113.56300665557683
 21
107.08920304655476
  0
LINE
  8
_0-0_0
  6
CONTINUOUS
 62
    4
 10
113.56300665557683
 20
107.08920304655476
 11
113.62925870177878
 21
107.11280744466603
  0
LINE
  8
_0-0_0
  6
CONTINUOUS
 62
    4
 10
113.62925870177878
 20
107.11280744466603
 11
113.67757360350424
 21
107.1536177212547
  0
LINE
  8
_0-0_0
  6
CONTINUOUS
 62
    4
 10
113.67757360350424
 20
107.1536177212547
 11
113.7060946461761
 21
107.21006556025532
  0
LINE
  8
_0-0_0
  6
CONTINUOUS
 62
    4
 10
113.7060946461761
 20
107.21006556025532
 11
113.71372578211776
 21
107.27998170288629
  0
LINE
  8
_0-0_0
  6
CONTINUOUS
 62
    4
 10
113.71372578211776
 20
107.27998170288629
 11
113.70017375105726
 21
107.36067931099569
  0
LINE
  8
_0-0_0
  6
CONTINUOUS
 62
    4
 10
113.70017375105726
 20
107.36067931099569
 11
113.6659593499453
 21
107.449057220756
  0
LINE
  8
_0-0_0
  6
CONTINUOUS
 62
    4
 10
113.6659593499453
 20
107.449057220756
 11
113.61239741902955
 21
107.54171911865524
  0
LINE
  8
_0-0_0
  6
CONTINUOUS
 62
    4
 10
113.61239741902955
 20
107.54171911865524
 11
113.54154631327765
 21
107.63510405992565
  0
LINE
  8
_0-0_0
  6
CONTINUOUS
 62
    4
 10
113.54154631327765
 20
107.63510405992565
 11
113.45612880095177
 21
107.72562331364497
  0
LINE
  8
_0-0_0
  6
CONTINUOUS
 62
    4
 10
113.45612880095177
 20
107.72562331364497
 11
113.35942742914449
 21
107.80979827566625
  0
LINE
  8
_0-0_0
  6
CONTINUOUS
 62
    4
 10
113.35942742914449
 20
107.80979827566625
 11
113.25515837734565
 21
107.88439414938512
  0
LINE
  8
_0-0_0
  6
CONTINUOUS
 62
    4
 10
113.25515837734565
 20
107.88439414938512
 11
113.14732864674079
 21
107.94654425721455
  0
LINE
  8
_0-0_0
  6
CONTINUOUS
 62
    4
 10
113.14732864674079
 20
107.94654425721455
 11
113.04008207340576
 21
107.99386020537531
  0
LINE
  8
_0-0_0
  6
CONTINUOUS
 62
    4
 10
113.04008207340576
 20
107.99386020537531
 11
112.93754008300675
 21
108.02452366850594
  0
LINE
  8
_0-0_0
  6
CONTINUOUS
 62
    4
 10
112.93754008300675
 20
108.02452366850594
 11
112.84364330673361
 21
108.03735626692469
  0
LINE
  8
_0-0_0
  6
CONTINUOUS
 62
    4
 10
112.84364330673361
 20
108.03735626692469
 11
112.76200014503593
 21
108.03186485105471
  0
LINE
  8
_0-0_0
  6
CONTINUOUS
 62
    4
 10
112.76200014503593
 20
108.03186485105471
 11
112.69574809883397
 21
108.00826045293616
  0
LINE
  8
_0-0_0
  6
CONTINUOUS
 62
    4
 10
112.69574809883397
 20
108.00826045293616
 11
112.64743319710851
 21
107.96745017635476
  0
LINE
  8
_0-0_0
  6
CONTINUOUS
 62
    4
 10
103.46237799219307
 20
114.01143417758612
 11
103.43385694952121
 21
113.95498633858551
  0
LINE
  8
_0-0_0
  6
CONTINUOUS
 62
    4
 10
103.43385694952121
 20
113.95498633858551
 11
103.42622581357955
 21
113.88507019595454
  0
LINE
  8
_0-0_0
  6
CONTINUOUS
 62
    4
 10
103.42622581357955
 20
113.88507019595454
 11
103.43977784464005
 21
113.80437258784514
  0
LINE
  8
_0-0_0
  6
CONTINUOUS
 62
    4
 10
103.43977784464005
 20
113.80437258784514
 11
103.47399224575202
 21
113.71599467808483
  0
LINE
  8
_0-0_0
  6
CONTINUOUS
 62
    4
 10
103.47399224575202
 20
113.71599467808483
 11
103.52755417666776
 21
113.62333278018559
  0
LINE
  8
_0-0_0
  6
CONTINUOUS
 62
    4
 10
103.52755417666776
 20
113.62333278018559
 11
103.59840528241875
 21
113.52994783891518
  0
LINE
  8
_0-0_0
  6
CONTINUOUS
 62
    4
 10
103.59840528241875
 20
113.52994783891518
 11
103.68382279474554
 21
113.43942858519586
  0
LINE
  8
_0-0_0
  6
CONTINUOUS
 62
    4
 10
103.68382279474554
 20
113.43942858519586
 11
103.78052416655282
 21
113.35525362317458
  0
LINE
  8
_0-0_0
  6
CONTINUOUS
 62
    4
 10
103.78052416655282
 20
113.35525362317458
 11
103.88479321835075
 21
113.28065774945571
  0
LINE
  8
_0-0_0
  6
CONTINUOUS
 62
    4
 10
103.88479321835075
 20
113.28065774945571
 11
103.99262294895652
 21
113.21850764162627
  0
LINE
  8
_0-0_0
  6
CONTINUOUS
 62
    4
 10
103.99262294895652
 20
113.21850764162627
 11
104.09986952229156
 21
113.17119169346552
  0
LINE
  8
_0-0_0
  6
CONTINUOUS
 62
    4
 10
104.09986952229156
 20
113.17119169346552
 11
104.20241151268965
 21
113.14052823033489
  0
LINE
  8
_0-0_0
  6
CONTINUOUS
 62
    4
 10
104.20241151268965
 20
113.14052823033489
 11
104.29630828896279
 21
113.12769563191614
  0
LINE
  8
_0-0_0
  6
CONTINUOUS
 62
    4
 10
104.29630828896279
 20
113.12769563191614
 11
104.37795145066139
 21
113.13318704778612
  0
LINE
  8
_0-0_0
  6
CONTINUOUS
 62
    4
 10
104.37795145066139
 20
113.13318704778612
 11
104.44420349686334
 21
113.15679144590467
  0
LINE
  8
_0-0_0
  6
CONTINUOUS
 62
    4
 10
104.44420349686334
 20
113.15679144590467
 11
104.4925183985888
 21
113.19760172248607
  0
LINE
  8
_0-0_0
  6
CONTINUOUS
 62
    4
 10
104.4925183985888
 20
113.19760172248607
 11
104.52103944126065
 21
113.25404956149578
  0
LINE
  8
_0-0_0
  6
CONTINUOUS
 62
    4
 10
104.52103944126065
 20
113.25404956149578
 11
104.52867057720232
 21
113.32396570412493
  0
LINE
  8
_0-0_0
  6
CONTINUOUS
 62
    4
 10
104.52867057720232
 20
113.32396570412493
 11
104.51511854614182
 21
113.40466331223615
  0
LINE
  8
_0-0_0
  6
CONTINUOUS
 62
    4
 10
104.51511854614182
 20
113.40466331223615
 11
104.48090414502985
 21
113.49304122199464
  0
LINE
  8
_0-0_0
  6
CONTINUOUS
 62
    4
 10
104.48090414502985
 20
113.49304122199464
 11
104.42734221411411
 21
113.58570311988478
  0
LINE
  8
_0-0_0
  6
CONTINUOUS
 62
    4
 10
104.42734221411411
 20
113.58570311988478
 11
104.35649110836221
 21
113.67908806116611
  0
LINE
  8
_0-0_0
  6
CONTINUOUS
 62
    4
 10
104.35649110836221
 20
113.67908806116611
 11
104.27107359603633
 21
113.76960731488543
  0
LINE
  8
_0-0_0
  6
CONTINUOUS
 62
    4
 10
104.27107359603633
 20
113.76960731488543
 11
104.17437222422905
 21
113.8537822768958
  0
LINE
  8
_0-0_0
  6
CONTINUOUS
 62
    4
 10
104.17437222422905
 20
113.8537822768958
 11
104.07010317243021
 21
113.92837815061466
  0
LINE
  8
_0-0_0
  6
CONTINUOUS
 62
    4
 10
104.07010317243021
 20
113.92837815061466
 11
103.96227344182535
 21
113.99052825845502
  0
LINE
  8
_0-0_0
  6
CONTINUOUS
 62
    4
 10
103.96227344182535
 20
113.99052825845502
 11
103.85502686849031
 21
114.03784420660486
  0
LINE
  8
_0-0_0
  6
CONTINUOUS
 62
    4
 10
103.85502686849031
 20
114.03784420660486
 11
103.75248487809222
 21
114.06850766974458
  0
LINE
  8
_0-0_0
  6
CONTINUOUS
 62
    4
 10
103.75248487809222
 20
114.06850766974458
 11
103.65858810181817
 21
114.08134026815605
  0
LINE
  8
_0-0_0
  6
CONTINUOUS
 62
    4
 10
103.65858810181817
 20
114.08134026815605
 11
103.57694494012048
 21
114.07584885228607
  0
LINE
  8
_0-0_0
  6
CONTINUOUS
 62
    4
 10
103.57694494012048
 20
114.07584885228607
 11
103.51069289391853
 21
114.0522444541748
  0
LINE
  8
_0-0_0
  6
CONTINUOUS
 62
    4
 10
103.51069289391853
 20
114.0522444541748
 11
103.46237799219307
 21
114.01143417758612
  0
LINE
  8
_0-0_0
  6
CONTINUOUS
 62
    4
 10
94.377625376881952
 20
119.94129918814542
 11
94.349104334210097
 21
119.88485134913572
  0
LINE
  8
_0-0_0
  6
CONTINUOUS
 62
    4
 10
94.349104334210097
 20
119.88485134913572
 11
94.341473198268432
 21
119.81493520650474
  0
LINE
  8
_0-0_0
  6
CONTINUOUS
 62
    4
 10
94.341473198268432
 20
119.81493520650474
 11
94.35502522932893
 21
119.73423759840625
  0
LINE
  8
_0-0_0
  6
CONTINUOUS
 62
    4
 10
94.35502522932893
 20
119.73423759840625
 11
94.389239630440898
 21
119.64585968864594
  0
LINE
  8
_0-0_0
  6
CONTINUOUS
 62
    4
 10
94.389239630440898
 20
119.64585968864594
 11
94.442801561356646
 21
119.55319779074489
  0
LINE
  8
_0-0_0
  6
CONTINUOUS
 62
    4
 10
94.442801561356646
 20
119.55319779074489
 11
94.513652667108545
 21
119.45981284946538
  0
LINE
  8
_0-0_0
  6
CONTINUOUS
 62
    4
 10
94.513652667108545
 20
119.45981284946538
 11
94.59907017943442
 21
119.36929359574606
  0
LINE
  8
_0-0_0
  6
CONTINUOUS
 62
    4
 10
94.59907017943442
 20
119.36929359574606
 11
94.695771551242615
 21
119.28511863373569
  0
LINE
  8
_0-0_0
  6
CONTINUOUS
 62
    4
 10
94.695771551242615
 20
119.28511863373569
 11
94.800040603040543
 21
119.21052276001501
  0
LINE
  8
_0-0_0
  6
CONTINUOUS
 62
    4
 10
94.800040603040543
 20
119.21052276001501
 11
94.907870333645405
 21
119.14837265217466
  0
LINE
  8
_0-0_0
  6
CONTINUOUS
 62
    4
 10
94.907870333645405
 20
119.14837265217466
 11
95.015116906980438
 21
119.10105670402481
  0
LINE
  8
_0-0_0
  6
CONTINUOUS
 62
    4
 10
95.015116906980438
 20
119.10105670402481
 11
95.117658897378533
 21
119.0703932408851
  0
LINE
  8
_0-0_0
  6
CONTINUOUS
 62
    4
 10
95.117658897378533
 20
119.0703932408851
 11
95.211555673652583
 21
119.05756064247544
  0
LINE
  8
_0-0_0
  6
CONTINUOUS
 62
    4
 10
95.211555673652583
 20
119.05756064247544
 11
95.293198835350267
 21
119.06305205834542
  0
LINE
  8
_0-0_0
  6
CONTINUOUS
 62
    4
 10
95.293198835350267
 20
119.06305205834542
 11
95.35945088155222
 21
119.08665645645488
  0
LINE
  8
_0-0_0
  6
CONTINUOUS
 62
    4
 10
95.35945088155222
 20
119.08665645645488
 11
95.407765783276773
 21
119.12746673304537
  0
LINE
  8
_0-0_0
  6
CONTINUOUS
 62
    4
 10
95.407765783276773
 20
119.12746673304537
 11
95.436286825949537
 21
119.18391457204598
  0
LINE
  8
_0-0_0
  6
CONTINUOUS
 62
    4
 10
95.436286825949537
 20
119.18391457204598
 11
95.443917961891202
 21
119.25383071467513
  0
LINE
  8
_0-0_0
  6
CONTINUOUS
 62
    4
 10
95.443917961891202
 20
119.25383071467513
 11
95.430365930831613
 21
119.33452832278454
  0
LINE
  8
_0-0_0
  6
CONTINUOUS
 62
    4
 10
95.430365930831613
 20
119.33452832278454
 11
95.396151529719646
 21
119.42290623254485
  0
LINE
  8
_0-0_0
  6
CONTINUOUS
 62
    4
 10
95.396151529719646
 20
119.42290623254485
 11
95.342589598802988
 21
119.5155681304459
  0
LINE
  8
_0-0_0
  6
CONTINUOUS
 62
    4
 10
95.342589598802988
 20
119.5155681304459
 11
95.271738493051089
 21
119.6089530717145
  0
LINE
  8
_0-0_0
  6
CONTINUOUS
 62
    4
 10
95.271738493051089
 20
119.6089530717145
 11
95.186320980725213
 21
119.69947232543564
  0
LINE
  8
_0-0_0
  6
CONTINUOUS
 62
    4
 10
95.186320980725213
 20
119.69947232543564
 11
95.089619608917928
 21
119.7836472874551
  0
LINE
  8
_0-0_0
  6
CONTINUOUS
 62
    4
 10
95.089619608917928
 20
119.7836472874551
 11
94.985350557119091
 21
119.85824316117578
  0
LINE
  8
_0-0_0
  6
CONTINUOUS
 62
    4
 10
94.985350557119091
 20
119.85824316117578
 11
94.877520826514228
 21
119.92039326900522
  0
LINE
  8
_0-0_0
  6
CONTINUOUS
 62
    4
 10
94.877520826514228
 20
119.92039326900522
 11
94.770274253179196
 21
119.96770921716598
  0
LINE
  8
_0-0_0
  6
CONTINUOUS
 62
    4
 10
94.770274253179196
 20
119.96770921716598
 11
94.667732262781101
 21
119.99837268029478
  0
LINE
  8
_0-0_0
  6
CONTINUOUS
 62
    4
 10
94.667732262781101
 20
119.99837268029478
 11
94.573835486507051
 21
120.01120527871535
  0
LINE
  8
_0-0_0
  6
CONTINUOUS
 62
    4
 10
94.573835486507051
 20
120.01120527871535
 11
94.492192324809366
 21
120.00571386284537
  0
LINE
  8
_0-0_0
  6
CONTINUOUS
 62
    4
 10
94.492192324809366
 20
120.00571386284537
 11
94.425940278607413
 21
119.982109464725
  0
LINE
  8
_0-0_0
  6
CONTINUOUS
 62
    4
 10
94.425940278607413
 20
119.982109464725
 11
94.377625376881952
 21
119.94129918814542
  0
LINE
  8
_0-0_0
  6
CONTINUOUS
 62
    4
 10
137.74689308697816
 20
97.029558317315605
 11
137.35116381713124
 21
96.873023853675477
  0
LINE
  8
_0-0_0
  6
CONTINUOUS
 62
    4
 10
137.35116381713124
 20
96.873023853675477
 11
137.17803239294335
 21
96.601148360656225
  0
LINE
  8
_0-0_0
  6
CONTINUOUS
 62
    4
 10
137.17803239294335
 20
96.601148360656225
 11
137.17803239294335
 21
96.131545142256073
  0
LINE
  8
_0-0_0
  6
CONTINUOUS
 62
    4
 10
137.17803239294335
 20
96.131545142256073
 11
137.17803239294335
 21
95.991488017825759
  0
LINE
  8
_0-0_0
  6
CONTINUOUS
 62
    4
 10
137.17803239294335
 20
95.991488017825759
 11
137.68093820867034
 21
95.521884799425607
  0
LINE
  8
_0-0_0
  6
CONTINUOUS
 62
    4
 10
137.68093820867034
 20
95.521884799425607
 11
138.14262235682418
 21
95.686657846405069
  0
LINE
  8
_0-0_0
  6
CONTINUOUS
 62
    4
 10
138.14262235682418
 20
95.686657846405069
 11
138.30750972775331
 21
96.321034111784684
  0
LINE
  8
_0-0_0
  6
CONTINUOUS
 62
    4
 10
138.30750972775331
 20
96.321034111784684
 11
138.19208842797525
 21
96.790637330184836
  0
LINE
  8
_0-0_0
  6
CONTINUOUS
 62
    4
 10
138.19208842797525
 20
96.790637330184836
 11
137.73040463013876
 21
97.054274239855658
  0
LINE
  8
_0-0_0
  6
CONTINUOUS
 62
    4
 10
140.11147974671258
 20
98.087506066514834
 11
140.72422873532923
 21
98.087506066514834
  0
LINE
  8
_0-0_0
  6
CONTINUOUS
 62
    4
 10
140.72422873532923
 20
98.087506066514834
 11
141.463753207644
 21
98.467569763844949
  0
LINE
  8
_0-0_0
  6
CONTINUOUS
 62
    4
 10
141.463753207644
 20
98.467569763844949
 11
142.66812170404864
 21
98.467569763844949
  0
LINE
  8
_0-0_0
  6
CONTINUOUS
 62
    4
 10
142.66812170404864
 20
98.467569763844949
 11
143.21748260049753
 21
98.467569763844949
  0
LINE
  8
_0-0_0
  6
CONTINUOUS
 62
    4
 10
143.21748260049753
 20
98.467569763844949
 11
143.64006801324922
 21
98.087506066514834
  0
LINE
  8
_0-0_0
  6
CONTINUOUS
 62
    4
 10
143.64006801324922
 20
98.087506066514834
 11
143.64006801324922
 21
97.242920168286219
  0
LINE
  8
_0-0_0
  6
CONTINUOUS
 62
    4
 10
143.64006801324922
 20
97.242920168286219
 11
143.2808706926653
 21
96.039385069245327
  0
LINE
  8
_0-0_0
  6
CONTINUOUS
 62
    4
 10
143.2808706926653
 20
96.039385069245327
 11
143.00618989412214
 21
95.215913667534551
  0
LINE
  8
_0-0_0
  6
CONTINUOUS
 62
    4
 10
143.00618989412214
 20
95.215913667534551
 11
142.54134587003227
 21
94.075722575546024
  0
LINE
  8
_0-0_0
  6
CONTINUOUS
 62
    4
 10
142.54134587003227
 20
94.075722575546024
 11
142.11876045728059
 21
93.378939187945434
  0
LINE
  8
_0-0_0
  6
CONTINUOUS
 62
    4
 10
142.11876045728059
 20
93.378939187945434
 11
141.5060118189831
 21
93.146678001245164
  0
LINE
  8
_0-0_0
  6
CONTINUOUS
 62
    4
 10
141.5060118189831
 20
93.146678001245164
 11
140.34390158359838
 21
93.526741698566184
  0
LINE
  8
_0-0_0
  6
CONTINUOUS
 62
    4
 10
140.34390158359838
 20
93.526741698566184
 11
139.56211849994543
 21
93.526741698566184
  0
LINE
  8
_0-0_0
  6
CONTINUOUS
 62
    4
 10
139.56211849994543
 20
93.526741698566184
 11
138.88598211979843
 21
93.801232223306215
  0
LINE
  8
_0-0_0
  6
CONTINUOUS
 62
    4
 10
138.88598211979843
 20
93.801232223306215
 11
138.37887948436946
 21
93.801232223306215
  0
LINE
  8
_0-0_0
  6
CONTINUOUS
 62
    4
 10
138.37887948436946
 20
93.801232223306215
 11
137.95629407161778
 21
93.801232223306215
  0
LINE
  8
_0-0_0
  6
CONTINUOUS
 62
    4
 10
137.95629407161778
 20
93.801232223306215
 11
137.47032056669923
 21
93.801232223306215
  0
LINE
  8
_0-0_0
  6
CONTINUOUS
 62
    4
 10
137.47032056669923
 20
93.801232223306215
 11
136.89983053973992
 21
94.265754424204715
  0
LINE
  8
_0-0_0
  6
CONTINUOUS
 62
    4
 10
136.89983053973992
 20
94.265754424204715
 11
136.47724477666998
 21
94.540244948944746
  0
LINE
  8
_0-0_0
  6
CONTINUOUS
 62
    4
 10
136.47724477666998
 20
94.540244948944746
 11
136.09691797525829
 21
94.772505963144795
  0
LINE
  8
_0-0_0
  6
CONTINUOUS
 62
    4
 10
136.09691797525829
 20
94.772505963144795
 11
135.67433256250661
 21
95.131455163966166
  0
LINE
  8
_0-0_0
  6
CONTINUOUS
 62
    4
 10
135.67433256250661
 20
95.131455163966166
 11
135.37852263345303
 21
95.701550709954972
  0
LINE
  8
_0-0_0
  6
CONTINUOUS
 62
    4
 10
135.37852263345303
 20
95.701550709954972
 11
135.37852263345303
 21
96.250531586925717
  0
LINE
  8
_0-0_0
  6
CONTINUOUS
 62
    4
 10
136.98434741209894
 20
98.488684432864829
 11
137.44919143618881
 21
98.488684432864829
  0
LINE
  8
_0-0_0
  6
CONTINUOUS
 62
    4
 10
137.47851942882789
 20
98.484394014365535
 11
138.23686302922215
 21
98.484394014365535
  0
LINE
  8
_0-0_0
  6
CONTINUOUS
 62
    4
 10
138.23686302922215
 20
98.484394014365535
 11
138.91538122716156
 21
98.112131940475592
  0
LINE
  8
_0-0_0
  6
CONTINUOUS
 62
    4
 10
138.91538122716156
 20
98.112131940475592
 11
139.24798794652088
 21
98.112131940475592
  0
LINE
  8
_0-0_0
  6
CONTINUOUS
 62
    4
 10
139.24798794652088
 20
98.112131940475592
 11
139.63381195116926
 21
98.112131940475592
  0
LINE
  8
_0-0_0
  6
CONTINUOUS
 62
    4
 10
139.63381195116926
 20
98.112131940475592
 11
140.16598305246316
 21
98.112131940475592
  0
LINE
  8
_0-0_0
  6
CONTINUOUS
 62
    4
 10
129.48970322131845
 20
89.045432444785547
 11
129.10112886345814
 21
88.349160540064986
  0
LINE
  8
_0-0_0
  6
CONTINUOUS
 62
    4
 10
129.10112886345814
 20
88.349160540064986
 11
128.79294917616789
 21
87.853736320075768
  0
LINE
  8
_0-0_0
  6
CONTINUOUS
 62
    4
 10
128.79294917616789
 20
87.853736320075768
 11
128.431173158604
 21
87.626109013055611
  0
LINE
  8
_0-0_0
  6
CONTINUOUS
 62
    4
 10
128.431173158604
 20
87.626109013055611
 11
128.12299347131375
 21
87.318142666645144
  0
LINE
  8
_0-0_0
  6
CONTINUOUS
 62
    4
 10
128.12299347131375
 20
87.318142666645144
 11
127.97560312516362
 21
86.970006714294868
  0
LINE
  8
_0-0_0
  6
CONTINUOUS
 62
    4
 10
127.97560312516362
 20
86.970006714294868
 11
127.97560312516362
 21
86.635260745584674
  0
LINE
  8
_0-0_0
  6
CONTINUOUS
 62
    4
 10
129.51650156161486
 20
89.058822255934501
 11
129.7710845683132
 21
88.884754366004927
  0
LINE
  8
_0-0_0
  6
CONTINUOUS
 62
    4
 10
129.7710845683132
 20
88.884754366004927
 11
129.52990055660393
 21
88.429499579455296
  0
LINE
  8
_0-0_0
  6
CONTINUOUS
 62
    4
 10
129.52990055660393
 20
88.429499579455296
 11
129.11452785844722
 21
87.867126303735859
  0
LINE
  8
_0-0_0
  6
CONTINUOUS
 62
    4
 10
129.11452785844722
 20
87.867126303735859
 11
128.57856350475504
 21
87.465430934285905
  0
LINE
  8
_0-0_0
  6
CONTINUOUS
 62
    4
 10
128.57856350475504
 20
87.465430934285905
 11
128.28378281245386
 21
87.157464587875438
  0
LINE
  8
_0-0_0
  6
CONTINUOUS
 62
    4
 10
128.28378281245386
 20
87.157464587875438
 11
128.28378281245386
 21
86.755769218414571
  0
LINE
  8
_0-0_0
  6
CONTINUOUS
 62
    4
 10
129.7710845683132
 20
88.857974571204977
 11
129.7710845683132
 21
87.385091894895595
  0
LINE
  8
_0-0_0
  6
CONTINUOUS
 62
    4
 10
135.60425443145323
 20
91.821425156174882
 11
135.21568007359292
 21
91.12515325145614
  0
LINE
  8
_0-0_0
  6
CONTINUOUS
 62
    4
 10
135.21568007359292
 20
91.12515325145614
 11
134.90750038630176
 21
90.629729031465104
  0
LINE
  8
_0-0_0
  6
CONTINUOUS
 62
    4
 10
134.90750038630176
 20
90.629729031465104
 11
134.54572436873877
 21
90.402101724444947
  0
LINE
  8
_0-0_0
  6
CONTINUOUS
 62
    4
 10
134.54572436873877
 20
90.402101724444947
 11
134.23754468144853
 21
90.09413537803448
  0
LINE
  8
_0-0_0
  6
CONTINUOUS
 62
    4
 10
134.23754468144853
 20
90.09413537803448
 11
134.09015433529748
 21
89.745999425675109
  0
LINE
  8
_0-0_0
  6
CONTINUOUS
 62
    4
 10
134.09015433529748
 20
89.745999425675109
 11
134.09015433529748
 21
89.204359751285665
  0
LINE
  8
_0-0_0
  6
CONTINUOUS
 62
    4
 10
135.63105277174964
 20
91.834814967314742
 11
135.88563577844707
 21
91.660747077396081
  0
LINE
  8
_0-0_0
  6
CONTINUOUS
 62
    4
 10
135.88563577844707
 20
91.660747077396081
 11
135.6444517667378
 21
91.205492290844631
  0
LINE
  8
_0-0_0
  6
CONTINUOUS
 62
    4
 10
135.6444517667378
 20
91.205492290844631
 11
135.229079068582
 21
90.643119015125194
  0
LINE
  8
_0-0_0
  6
CONTINUOUS
 62
    4
 10
135.229079068582
 20
90.643119015125194
 11
134.69311471488982
 21
90.241423645666146
  0
LINE
  8
_0-0_0
  6
CONTINUOUS
 62
    4
 10
134.69311471488982
 20
90.241423645666146
 11
134.39833402258864
 21
89.933457299255679
  0
LINE
  8
_0-0_0
  6
CONTINUOUS
 62
    4
 10
134.39833402258864
 20
89.933457299255679
 11
134.39833402258864
 21
89.346554063406074
  0
LINE
  8
_0-0_0
  6
CONTINUOUS
 62
    4
 10
135.88563577844707
 20
91.633967282596132
 11
136.00904469809393
 21
90.161084606275836
  0
LINE
  8
_0-0_0
  6
CONTINUOUS
 62
    4
 10
135.88052007242823
 20
98.683739509226143
 11
135.3624955465275
 21
98.209212082076192
  0
LINE
  8
_0-0_0
  6
CONTINUOUS
 62
    4
 10
135.3624955465275
 20
98.209212082076192
 11
135.08189856341596
 21
97.864101210276203
  0
LINE
  8
_0-0_0
  6
CONTINUOUS
 62
    4
 10
140.27743348819058
 20
91.82053243309565
 11
139.96595274647188
 21
92.131797800984714
  0
LINE
  8
_0-0_0
  6
CONTINUOUS
 62
    4
 10
139.96595274647188
 20
92.131797800984714
 11
139.47841752016393
 21
92.470129670105962
  0
LINE
  8
_0-0_0
  6
CONTINUOUS
 62
    4
 10
139.47841752016393
 20
92.470129670105962
 11
139.07213804813546
 21
92.767861701126094
  0
LINE
  8
_0-0_0
  6
CONTINUOUS
 62
    4
 10
139.07213804813546
 20
92.767861701126094
 11
138.43563358866595
 21
92.95732738222614
  0
LINE
  8
_0-0_0
  6
CONTINUOUS
 62
    4
 10
138.43563358866595
 20
92.95732738222614
 11
137.77204422808882
 21
93.146793235835503
  0
LINE
  8
_0-0_0
  6
CONTINUOUS
 62
    4
 10
137.77204422808882
 20
93.146793235835503
 11
137.13553976861931
 21
93.349792426304703
  0
LINE
  8
_0-0_0
  6
CONTINUOUS
 62
    4
 10
137.13553976861931
 20
93.349792426304703
 11
136.62091929088638
 21
93.539258279915884
  0
LINE
  8
_0-0_0
  6
CONTINUOUS
 62
    4
 10
136.62091929088638
 20
93.539258279915884
 11
135.94378695427713
 21
93.972322989586246
  0
LINE
  8
_0-0_0
  6
CONTINUOUS
 62
    4
 10
135.94378695427713
 20
93.972322989586246
 11
135.44270910225714
 21
94.567787051635605
  0
LINE
  8
_0-0_0
  6
CONTINUOUS
 62
    4
 10
135.44270910225714
 20
94.567787051635605
 11
134.96871650166304
 21
95.460982972195779
  0
LINE
  8
_0-0_0
  6
CONTINUOUS
 62
    4
 10
134.96871650166304
 20
95.460982972195779
 11
134.96871650166304
 21
95.907581018735073
  0
LINE
  8
_0-0_0
  6
CONTINUOUS
 62
    4
 10
134.96871650166304
 20
95.907581018735073
 11
134.80620464278763
 21
96.611311258195201
  0
LINE
  8
_0-0_0
  6
CONTINUOUS
 62
    4
 10
134.80620464278763
 20
96.611311258195201
 11
134.80620464278763
 21
97.220308657115311
  0
LINE
  8
_0-0_0
  6
CONTINUOUS
 62
    4
 10
134.80620464278763
 20
97.220308657115311
 11
135.02288700451663
 21
97.734573042975171
  0
LINE
  8
_0-0_0
  6
CONTINUOUS
 62
    4
 10
135.08932322090914
 20
97.866540802506279
 11
135.02026206544815
 21
97.712588249274631
  0
LINE
  8
_0-0_0
  6
CONTINUOUS
 62
    4
 10
136.97284154012141
 20
98.482853700475971
 11
136.69908733490956
 21
98.482853700475971
  0
LINE
  8
_0-0_0
  6
CONTINUOUS
 62
    4
 10
136.69908733490956
 20
98.482853700475971
 11
136.35689484113391
 21
98.250323748065057
  0
LINE
  8
_0-0_0
  6
CONTINUOUS
 62
    4
 10
136.35689484113391
 20
98.250323748065057
 11
135.98732668161392
 21
97.949402409934919
  0
LINE
  8
_0-0_0
  6
CONTINUOUS
 62
    4
 10
135.98732668161392
 20
97.949402409934919
 11
135.72726013411375
 21
97.648481244305003
  0
LINE
  8
_0-0_0
  6
CONTINUOUS
 62
    4
 10
135.72726013411375
 20
97.648481244305003
 11
135.50825655975405
 21
97.22445572239485
  0
LINE
  8
_0-0_0
  6
CONTINUOUS
 62
    4
 10
135.50825655975405
 20
97.22445572239485
 11
135.34400396656292
 21
96.75939564505461
  0
LINE
  8
_0-0_0
  6
CONTINUOUS
 62
    4
 10
135.34400396656292
 20
96.75939564505461
 11
135.34400396656292
 21
96.198587869224866
  0
LINE
  8
_0-0_0
  6
CONTINUOUS
 62
    4
 10
155.25569138043829
 20
87.942798514624883
 11
154.91136509460921
 21
87.695055180885902
  0
LINE
  8
_0-0_0
  6
CONTINUOUS
 62
    4
 10
150.09079779363401
 20
89.759582789534761
 11
150.09079779363401
 21
89.55313001142531
  0
LINE
  8
_0-0_0
  6
CONTINUOUS
 62
    4
 10
150.09079779363401
 20
89.55313001142531
 11
149.53987587643496
 21
89.30538667768451
  0
LINE
  8
_0-0_0
  6
CONTINUOUS
 62
    4
 10
149.53987587643496
 20
89.30538667768451
 11
149.19554959060497
 21
89.30538667768451
  0
LINE
  8
_0-0_0
  6
CONTINUOUS
 62
    4
 10
149.19554959060497
 20
89.30538667768451
 11
148.988953959235
 21
89.30538667768451
  0
LINE
  8
_0-0_0
  6
CONTINUOUS
 62
    4
 10
149.03077467202456
 20
89.30392519943598
 11
148.65824141384292
 21
89.138469542755047
  0
LINE
  8
_0-0_0
  6
CONTINUOUS
 62
    4
 10
153.95649262502775
 20
89.869232472095973
 11
154.13586042520456
 21
89.703776642905723
  0
LINE
  8
_0-0_0
  6
CONTINUOUS
 62
    4
 10
154.13586042520456
 20
89.703776642905723
 11
154.13586042520456
 21
89.483168985645534
  0
LINE
  8
_0-0_0
  6
CONTINUOUS
 62
    4
 10
154.13586042520456
 20
89.483168985645534
 11
154.13586042520456
 21
89.207409327826099
  0
LINE
  8
_0-0_0
  6
CONTINUOUS
 62
    4
 10
154.13586042520456
 20
89.207409327826099
 11
153.92889765968994
 21
89.014377584604517
  0
LINE
  8
_0-0_0
  6
CONTINUOUS
 62
    4
 10
153.92889765968994
 20
89.014377584604517
 11
153.74952985951404
 21
88.82134584137566
  0
LINE
  8
_0-0_0
  6
CONTINUOUS
 62
    4
 10
153.74952985951404
 20
88.82134584137566
 11
153.58395936684701
 21
88.82134584137566
  0
LINE
  8
_0-0_0
  6
CONTINUOUS
 62
    4
 10
153.58395936684701
 20
88.82134584137566
 11
153.40590175913258
 21
88.751086378704713
  0
LINE
  8
_0-0_0
  6
CONTINUOUS
 62
    4
 10
156.16124841596957
 20
90.237657475565356
 11
156.16124841596957
 21
93.264864186516206
  0
LINE
  8
_0-0_0
  6
CONTINUOUS
 62
    4
 10
156.16124841596957
 20
93.264864186516206
 11
155.60753620921059
 21
93.443115540674626
  0
LINE
  8
_0-0_0
  6
CONTINUOUS
 62
    4
 10
130.45808188345381
 20
81.012636172516068
 11
130.65437218551051
 21
81.226622843385485
  0
LINE
  8
_0-0_0
  6
CONTINUOUS
 62
    4
 10
130.65437218551051
 20
81.226622843385485
 11
130.82389567596601
 21
81.37819669932469
  0
LINE
  8
_0-0_0
  6
CONTINUOUS
 62
    4
 10
130.82389567596601
 20
81.37819669932469
 11
131.1094086833582
 21
81.37819669932469
  0
LINE
  8
_0-0_0
  6
CONTINUOUS
 62
    4
 10
131.1094086833582
 20
81.37819669932469
 11
131.57336780205878
 21
81.37819669932469
  0
LINE
  8
_0-0_0
  6
CONTINUOUS
 62
    4
 10
131.57336780205878
 20
81.37819669932469
 11
132.35852901028557
 21
81.217706653034838
  0
LINE
  8
_0-0_0
  6
CONTINUOUS
 62
    4
 10
132.35852901028557
 20
81.217706653034838
 11
132.92955537538819
 21
80.88781054262472
  0
LINE
  8
_0-0_0
  6
CONTINUOUS
 62
    4
 10
132.92955537538819
 20
80.88781054262472
 11
133.25075746491439
 21
80.540082224006255
  0
LINE
  8
_0-0_0
  6
CONTINUOUS
 62
    4
 10
133.25075746491439
 20
80.540082224006255
 11
133.25075746491439
 21
80.290431136734696
  0
LINE
  8
_0-0_0
  6
CONTINUOUS
 62
    4
 10
133.25075746491439
 20
80.290431136734696
 11
133.12584567744489
 21
80.08536048370479
  0
LINE
  8
_0-0_0
  6
CONTINUOUS
 62
    4
 10
133.12584567744489
 20
80.08536048370479
 11
133.00093353965622
 21
80.08536048370479
  0
LINE
  8
_0-0_0
  6
CONTINUOUS
 62
    4
 10
133.00093353965622
 20
80.08536048370479
 11
132.77787642599924
 21
80.201269923245491
  0
LINE
  8
_0-0_0
  6
CONTINUOUS
 62
    4
 10
132.77787642599924
 20
80.201269923245491
 11
132.56374158287508
 21
80.201269923245491
  0
LINE
  8
_0-0_0
  6
CONTINUOUS
 62
    4
 10
132.56374158287508
 20
80.201269923245491
 11
132.20685006089661
 21
80.406340576275397
  0
LINE
  8
_0-0_0
  6
CONTINUOUS
 62
    4
 10
132.20685006089661
 20
80.406340576275397
 11
131.72504675144864
 21
80.406340576275397
  0
LINE
  8
_0-0_0
  6
CONTINUOUS
 62
    4
 10
131.72504675144864
 20
80.406340576275397
 11
131.14509811581138
 21
80.406340576275397
  0
LINE
  8
_0-0_0
  6
CONTINUOUS
 62
    4
 10
131.14509811581138
 20
80.406340576275397
 11
130.788206593832
 21
80.406340576275397
  0
LINE
  8
_0-0_0
  6
CONTINUOUS
 62
    4
 10
130.788206593832
 20
80.406340576275397
 11
130.49377096558783
 21
80.406340576275397
  0
LINE
  8
_0-0_0
  6
CONTINUOUS
 62
    4
 10
130.49377096558783
 20
80.406340576275397
 11
130.32424747513141
 21
80.566830450055932
  0
LINE
  8
_0-0_0
  6
CONTINUOUS
 62
    4
 10
130.32424747513141
 20
80.566830450055932
 11
130.45808188345381
 21
81.021552190355578
  0
LINE
  8
_0-0_0
  6
CONTINUOUS
 62
    4
 10
133.02689496824405
 20
80.066111131525759
 11
133.02689496824405
 21
79.822809504816178
  0
LINE
  8
_0-0_0
  6
CONTINUOUS
 62
    4
 10
133.02689496824405
 20
79.822809504816178
 11
132.75478095584094
 21
79.550883984806205
  0
LINE
  8
_0-0_0
  6
CONTINUOUS
 62
    4
 10
132.75478095584094
 20
79.550883984806205
 11
132.75478095584094
 21
79.422077241244551
  0
LINE
  8
_0-0_0
  6
CONTINUOUS
 62
    4
 10
132.75478095584094
 20
79.422077241244551
 11
132.75478095584094
 21
79.064280731365216
  0
LINE
  8
_0-0_0
  6
CONTINUOUS
 62
    4
 10
132.75478095584094
 20
79.064280731365216
 11
132.75478095584094
 21
78.74941980267613
  0
LINE
  8
_0-0_0
  6
CONTINUOUS
 62
    4
 10
132.75478095584094
 20
78.74941980267613
 11
132.55427631814018
 21
78.477494282666157
  0
LINE
  8
_0-0_0
  6
CONTINUOUS
 62
    4
 10
132.55427631814018
 20
78.477494282666157
 11
132.13894495760724
 21
78.277128237135912
  0
LINE
  8
_0-0_0
  6
CONTINUOUS
 62
    4
 10
130.67812380285613
 20
80.380972060214845
 11
130.67812380285613
 21
80.109046712716008
  0
LINE
  8
_0-0_0
  6
CONTINUOUS
 62
    4
 10
130.67812380285613
 20
80.109046712716008
 11
130.84998532124882
 21
79.794185784025103
  0
LINE
  8
_0-0_0
  6
CONTINUOUS
 62
    4
 10
130.84998532124882
 20
79.794185784025103
 11
130.84998532124882
 21
79.622443459285932
  0
LINE
  8
_0-0_0
  6
CONTINUOUS
 62
    4
 10
130.84998532124882
 20
79.622443459285932
 11
130.62083686360347
 21
79.465012822425706
  0
LINE
  8
_0-0_0
  6
CONTINUOUS
 62
    4
 10
130.62083686360347
 20
79.465012822425706
 11
130.62083686360347
 21
79.221711195716125
  0
LINE
  8
_0-0_0
  6
CONTINUOUS
 62
    4
 10
130.62083686360347
 20
79.221711195716125
 11
130.62083686360347
 21
78.74941980267613
  0
LINE
  8
_0-0_0
  6
CONTINUOUS
 62
    4
 10
130.62083686360347
 20
78.74941980267613
 11
130.84998532124882
 21
78.420246841085827
  0
LINE
  8
_0-0_0
  6
CONTINUOUS
 62
    4
 10
130.84998532124882
 20
78.420246841085827
 11
131.16506418777317
 21
78.262816376734918
  0
LINE
  8
_0-0_0
  6
CONTINUOUS
 62
    4
 10
131.16506418777317
 20
78.262816376734918
 11
131.32260362103443
 21
78.262816376734918
  0
LINE
  8
_0-0_0
  6
CONTINUOUS
 62
    4
 10
130.69244553766839
 20
78.763731663075305
 11
131.15074245296
 21
78.97840956899563
  0
LINE
  8
_0-0_0
  6
CONTINUOUS
 62
    4
 10
131.15074245296
 20
78.97840956899563
 11
131.35124709066076
 21
78.97840956899563
  0
LINE
  8
_0-0_0
  6
CONTINUOUS
 62
    4
 10
131.35124709066076
 20
78.97840956899563
 11
131.62336110306387
 21
78.97840956899563
  0
LINE
  8
_0-0_0
  6
CONTINUOUS
 62
    4
 10
131.62336110306387
 20
78.97840956899563
 11
131.86683094520322
 21
78.97840956899563
  0
LINE
  8
_0-0_0
  6
CONTINUOUS
 62
    4
 10
131.86683094520322
 20
78.97840956899563
 11
132.18191016204582
 21
78.97840956899563
  0
LINE
  8
_0-0_0
  6
CONTINUOUS
 62
    4
 10
132.18191016204582
 20
78.97840956899563
 11
132.33944959530709
 21
78.97840956899563
  0
LINE
  8
_0-0_0
  6
CONTINUOUS
 62
    4
 10
132.33944959530709
 20
78.97840956899563
 11
132.65452881214878
 21
78.706484221494975
  0
LINE
  8
_0-0_0
  6
CONTINUOUS
 62
    4
 10
130.8356632361174
 20
79.608131598884938
 11
131.19370765739859
 21
79.608131598884938
  0
LINE
  8
_0-0_0
  6
CONTINUOUS
 62
    4
 10
131.19370765739859
 20
79.608131598884938
 11
131.52310860905436
 21
79.608131598884938
  0
LINE
  8
_0-0_0
  6
CONTINUOUS
 62
    4
 10
131.52310860905436
 20
79.608131598884938
 11
131.85250921039096
 21
79.608131598884938
  0
LINE
  8
_0-0_0
  6
CONTINUOUS
 62
    4
 10
131.85250921039096
 20
79.608131598884938
 11
132.23919710129758
 21
79.608131598884938
  0
LINE
  8
_0-0_0
  6
CONTINUOUS
 62
    4
 10
132.23919710129758
 20
79.608131598884938
 11
132.56859805295335
 21
79.608131598884938
  0
LINE
  8
_0-0_0
  6
CONTINUOUS
 62
    4
 10
132.56859805295335
 20
79.608131598884938
 11
132.82638998022503
 21
79.407765380845376
  0
LINE
  8
_0-0_0
  6
CONTINUOUS
 62
    4
 10
131.33287812228991
 20
78.529903768925578
 11
131.33287812228991
 21
78.350417610556178
  0
LINE
  8
_0-0_0
  6
CONTINUOUS
 62
    4
 10
131.33287812228991
 20
78.350417610556178
 11
131.33287812228991
 21
77.177185241725965
  0
LINE
  8
_0-0_0
  6
CONTINUOUS
 62
    4
 10
131.33287812228991
 20
77.177185241725965
 11
131.42025534797722
 21
76.128558384005373
  0
LINE
  8
_0-0_0
  6
CONTINUOUS
 62
    4
 10
131.42025534797722
 20
76.128558384005373
 11
131.42025534797722
 21
75.070287529424604
  0
LINE
  8
_0-0_0
  6
CONTINUOUS
 62
    4
 10
131.42025534797722
 20
75.070287529424604
 11
131.42025534797722
 21
74.845123620574668
  0
LINE
  8
_0-0_0
  6
CONTINUOUS
 62
    4
 10
131.42025534797722
 20
74.845123620574668
 11
131.28506345415008
 21
74.580555863805785
  0
LINE
  8
_0-0_0
  6
CONTINUOUS
 62
    4
 10
131.28506345415008
 20
74.580555863805785
 11
131.12644819173147
 21
74.26754921151587
  0
LINE
  8
_0-0_0
  6
CONTINUOUS
 62
    4
 10
131.12644819173147
 20
74.26754921151587
 11
130.90112836868684
 21
73.963577779324623
  0
LINE
  8
_0-0_0
  6
CONTINUOUS
 62
    4
 10
130.90112836868684
 20
73.963577779324623
 11
130.70397347973358
 21
73.721526482446279
  0
LINE
  8
_0-0_0
  6
CONTINUOUS
 62
    4
 10
130.70397347973358
 20
73.721526482446279
 11
130.49555233688807
 21
73.563911780755006
  0
LINE
  8
_0-0_0
  6
CONTINUOUS
 62
    4
 10
130.49555233688807
 20
73.563911780755006
 11
130.29276432098959
 21
73.411925978405634
  0
LINE
  8
_0-0_0
  6
CONTINUOUS
 62
    4
 10
130.29276432098959
 20
73.411925978405634
 11
130.06744449794496
 21
73.310602167675825
  0
LINE
  8
_0-0_0
  6
CONTINUOUS
 62
    4
 10
130.06744449794496
 20
73.310602167675825
 11
129.85339057847341
 21
73.310602167675825
  0
LINE
  8
_0-0_0
  6
CONTINUOUS
 62
    4
 10
129.85339057847341
 20
73.310602167675825
 11
129.53794247589303
 21
73.310602167675825
  0
LINE
  8
_0-0_0
  6
CONTINUOUS
 62
    4
 10
129.53794247589303
 20
73.310602167675825
 11
129.26755868823875
 21
73.310602167675825
  0
LINE
  8
_0-0_0
  6
CONTINUOUS
 62
    4
 10
129.26755868823875
 20
73.310602167675825
 11
129.00280767721324
 21
73.310602167675825
  0
LINE
  8
_0-0_0
  6
CONTINUOUS
 62
    4
 10
129.00280767721324
 20
73.310602167675825
 11
128.78312063079557
 21
73.310602167675825
  0
LINE
  8
_0-0_0
  6
CONTINUOUS
 62
    4
 10
128.78312063079557
 20
73.310602167675825
 11
128.56343393469706
 21
73.310602167675825
  0
LINE
  8
_0-0_0
  6
CONTINUOUS
 62
    4
 10
128.56343393469706
 20
73.310602167675825
 11
128.18602283698965
 21
73.518878860975747
  0
LINE
  8
_0-0_0
  6
CONTINUOUS
 62
    4
 10
128.18602283698965
 20
73.518878860975747
 11
127.68783931922462
 21
73.801188777355492
  0
LINE
  8
_0-0_0
  6
CONTINUOUS
 62
    4
 10
127.68783931922462
 20
73.801188777355492
 11
127.38929024716253
 21
73.981319938935485
  0
LINE
  8
_0-0_0
  6
CONTINUOUS
 62
    4
 10
127.38929024716253
 20
73.981319938935485
 11
127.05694346438213
 21
74.229000307665046
  0
LINE
  8
_0-0_0
  6
CONTINUOUS
 62
    4
 10
127.05694346438213
 20
74.229000307665046
 11
126.79219245335662
 21
74.504826380634768
  0
LINE
  8
_0-0_0
  6
CONTINUOUS
 62
    4
 10
126.79219245335662
 20
74.504826380634768
 11
126.60067069134675
 21
74.724361217635305
  0
LINE
  8
_0-0_0
  6
CONTINUOUS
 62
    4
 10
126.60067069134675
 20
74.724361217635305
 11
126.39788267544827
 21
74.94952529897455
  0
LINE
  8
_0-0_0
  6
CONTINUOUS
 62
    4
 10
126.39788267544827
 20
74.94952529897455
 11
126.12749853747664
 21
75.264754874864593
  0
LINE
  8
_0-0_0
  6
CONTINUOUS
 62
    4
 10
126.12749853747664
 20
75.264754874864593
 11
124.96037664076812
 21
76.686324863625487
  0
LINE
  8
_0-0_0
  6
CONTINUOUS
 62
    4
 10
124.96037664076812
 20
76.686324863625487
 11
124.52663602519806
 21
77.294267728015257
  0
LINE
  8
_0-0_0
  6
CONTINUOUS
 62
    4
 10
124.52663602519806
 20
77.294267728015257
 11
123.20202514114135
 21
79.161254781245589
  0
LINE
  8
_0-0_0
  6
CONTINUOUS
 62
    4
 10
123.20202514114135
 20
79.161254781245589
 11
122.55423025578057
 21
79.988732482624982
  0
LINE
  8
_0-0_0
  6
CONTINUOUS
 62
    4
 10
122.55423025578057
 20
79.988732482624982
 11
121.7261795119839
 21
81.080777940785993
  0
LINE
  8
_0-0_0
  6
CONTINUOUS
 62
    4
 10
121.7261795119839
 20
81.080777940785993
 11
120.43463172003703
 21
82.71695838528467
  0
LINE
  8
_0-0_0
  6
CONTINUOUS
 62
    4
 10
120.43463172003703
 20
82.71695838528467
 11
119.60094784929515
 21
83.657018213594711
  0
LINE
  8
_0-0_0
  6
CONTINUOUS
 62
    4
 10
119.60094784929515
 20
83.657018213594711
 11
118.65460389187228
 21
84.861645626166137
  0
LINE
  8
_0-0_0
  6
CONTINUOUS
 62
    4
 10
118.65460389187228
 20
84.861645626166137
 11
117.37971095821194
 21
86.357843986725129
  0
LINE
  8
_0-0_0
  6
CONTINUOUS
 62
    4
 10
117.37971095821194
 20
86.357843986725129
 11
117.01356611439496
 21
86.757510157805882
  0
LINE
  8
_0-0_0
  6
CONTINUOUS
 62
    4
 10
117.01356611439496
 20
86.757510157805882
 11
116.78261316440603
 21
87.022077914574766
  0
LINE
  8
_0-0_0
  6
CONTINUOUS
 62
    4
 10
116.78261316440603
 20
87.022077914574766
 11
116.71501704233287
 21
87.100885265415855
  0
LINE
  8
_0-0_0
  6
CONTINUOUS
 62
    4
 10
116.71501704233287
 20
87.100885265415855
 11
116.59672417902493
 21
87.100885265415855
  0
LINE
  8
_0-0_0
  6
CONTINUOUS
 62
    4
 10
116.59672417902493
 20
87.100885265415855
 11
116.48406409234303
 21
87.005190526535443
  0
LINE
  8
_0-0_0
  6
CONTINUOUS
 62
    4
 10
116.48406409234303
 20
87.005190526535443
 11
116.36013810208897
 21
87.005190526535443
  0
LINE
  8
_0-0_0
  6
CONTINUOUS
 62
    4
 10
116.36013810208897
 20
87.005190526535443
 11
116.19114814722616
 21
86.92638317568526
  0
LINE
  8
_0-0_0
  6
CONTINUOUS
 62
    4
 10
116.19114814722616
 20
86.92638317568526
 11
115.95456207029019
 21
86.92638317568526
  0
LINE
  8
_0-0_0
  6
CONTINUOUS
 62
    4
 10
115.95456207029019
 20
86.92638317568526
 11
115.83626920698225
 21
86.82505936495545
  0
LINE
  8
_0-0_0
  6
CONTINUOUS
 62
    4
 10
115.83626920698225
 20
86.82505936495545
 11
116.12355202515391
 21
86.644928203384552
  0
LINE
  8
_0-0_0
  6
CONTINUOUS
 62
    4
 10
116.12355202515391
 20
86.644928203384552
 11
116.28127607644365
 21
86.459167797454938
  0
LINE
  8
_0-0_0
  6
CONTINUOUS
 62
    4
 10
116.28127607644365
 20
86.459167797454938
 11
116.43900012773429
 21
86.25652017599532
  0
LINE
  8
_0-0_0
  6
CONTINUOUS
 62
    4
 10
116.43900012773429
 20
86.25652017599532
 11
116.65305404720584
 21
86.02009795095546
  0
LINE
  8
_0-0_0
  6
CONTINUOUS
 62
    4
 10
116.65305404720584
 20
86.02009795095546
 11
116.83894303258694
 21
85.789304797755904
  0
LINE
  8
_0-0_0
  6
CONTINUOUS
 62
    4
 10
116.83894303258694
 20
85.789304797755904
 11
117.07552875920464
 21
85.575399032604764
  0
LINE
  8
_0-0_0
  6
CONTINUOUS
 62
    4
 10
117.07552875920464
 20
85.575399032604764
 11
117.43604082639285
 21
85.198249321414551
  0
LINE
  8
_0-0_0
  6
CONTINUOUS
 62
    4
 10
117.43604082639285
 20
85.198249321414551
 11
117.63319571534703
 21
84.933681564645667
  0
LINE
  8
_0-0_0
  6
CONTINUOUS
 62
    4
 10
117.63319571534703
 20
84.933681564645667
 11
118.19826035443202
 21
84.293270491245494
  0
LINE
  8
_0-0_0
  6
CONTINUOUS
 62
    4
 10
118.19826035443202
 20
84.293270491245494
 11
118.59820325928376
 21
83.747247762164989
  0
LINE
  8
_0-0_0
  6
CONTINUOUS
 62
    4
 10
118.59820325928376
 20
83.747247762164989
 11
119.02067832160265
 21
83.302548843816112
  0
LINE
  8
_0-0_0
  6
CONTINUOUS
 62
    4
 10
119.02067832160265
 20
83.302548843816112
 11
119.36429100795431
 21
82.931028204475297
  0
LINE
  8
_0-0_0
  6
CONTINUOUS
 62
    4
 10
119.36429100795431
 20
82.931028204475297
 11
119.84309593845228
 21
82.278052592815584
  0
LINE
  8
_0-0_0
  6
CONTINUOUS
 62
    4
 10
119.84309593845228
 20
82.278052592815584
 11
120.28912328669412
 21
81.683522482995613
  0
LINE
  8
_0-0_0
  6
CONTINUOUS
 62
    4
 10
120.28912328669412
 20
81.683522482995613
 11
120.64400222693803
 21
81.26133985202614
  0
LINE
  8
_0-0_0
  6
CONTINUOUS
 62
    4
 10
120.64400222693803
 20
81.26133985202614
 11
120.96508345646453
 21
80.878561068984709
  0
LINE
  8
_0-0_0
  6
CONTINUOUS
 62
    4
 10
120.96508345646453
 20
80.878561068984709
 11
121.2354672441179
 21
80.529556889525338
  0
LINE
  8
_0-0_0
  6
CONTINUOUS
 62
    4
 10
121.2354672441179
 20
80.529556889525338
 11
121.98544137710815
 21
79.401213052206003
  0
LINE
  8
_0-0_0
  6
CONTINUOUS
 62
    4
 10
121.98544137710815
 20
79.401213052206003
 11
122.48677811475045
 21
78.776382799775092
  0
LINE
  8
_0-0_0
  6
CONTINUOUS
 62
    4
 10
122.48677811475045
 20
78.776382799775092
 11
122.85855608551265
 21
78.258505602434525
  0
LINE
  8
_0-0_0
  6
CONTINUOUS
 62
    4
 10
122.85855608551265
 20
78.258505602434525
 11
123.14020612705735
 21
77.841952215814672
  0
LINE
  8
_0-0_0
  6
CONTINUOUS
 62
    4
 10
123.14020612705735
 20
77.841952215814672
 11
123.29229705140187
 21
77.577384459045788
  0
LINE
  8
_0-0_0
  6
CONTINUOUS
 62
    4
 10
123.29229705140187
 20
77.577384459045788
 11
123.67066662145589
 21
76.994871868175323
  0
LINE
  8
_0-0_0
  6
CONTINUOUS
 62
    4
 10
123.67066662145589
 20
76.994871868175323
 11
123.97484847014493
 21
76.499510958215978
  0
LINE
  8
_0-0_0
  6
CONTINUOUS
 62
    4
 10
125.07328335191323
 20
75.187930490545114
 11
125.49116328200762
 21
74.645423451585884
  0
LINE
  8
_0-0_0
  6
CONTINUOUS
 62
    4
 10
125.49116328200762
 20
74.645423451585884
 11
125.62072204888864
 21
74.487808577396208
  0
LINE
  8
_0-0_0
  6
CONTINUOUS
 62
    4
 10
125.62072204888864
 20
74.487808577396208
 11
125.77844610017837
 21
74.290790027775074
  0
LINE
  8
_0-0_0
  6
CONTINUOUS
 62
    4
 10
125.77844610017837
 20
74.290790027775074
 11
125.99250001964992
 21
74.076884262625754
  0
LINE
  8
_0-0_0
  6
CONTINUOUS
 62
    4
 10
125.99250001964992
 20
74.076884262625754
 11
126.17838900503102
 21
73.891124029205457
  0
LINE
  8
_0-0_0
  6
CONTINUOUS
 62
    4
 10
126.17838900503102
 20
73.891124029205457
 11
126.34174618326688
 21
73.733509155004867
  0
LINE
  8
_0-0_0
  6
CONTINUOUS
 62
    4
 10
126.34174618326688
 20
73.733509155004867
 11
126.52200204170185
 21
73.570265208965793
  0
LINE
  8
_0-0_0
  6
CONTINUOUS
 62
    4
 10
126.52200204170185
 20
73.570265208965793
 11
126.72479005760124
 21
73.390134047394895
  0
LINE
  8
_0-0_0
  6
CONTINUOUS
 62
    4
 10
126.72479005760124
 20
73.390134047394895
 11
126.97827481473632
 21
73.198744569615883
  0
LINE
  8
_0-0_0
  6
CONTINUOUS
 62
    4
 10
126.97827481473632
 20
73.198744569615883
 11
127.26555798322624
 21
72.984838804464744
  0
LINE
  8
_0-0_0
  6
CONTINUOUS
 62
    4
 10
127.26555798322624
 20
72.984838804464744
 11
127.48524467932475
 21
72.838482073964769
  0
LINE
  8
_0-0_0
  6
CONTINUOUS
 62
    4
 10
127.48524467932475
 20
72.838482073964769
 11
127.77252784781376
 21
72.641463696854771
  0
LINE
  8
_0-0_0
  6
CONTINUOUS
 62
    4
 10
127.77252784781376
 20
72.641463696854771
 11
128.20063568675778
 21
72.489477894505399
  0
LINE
  8
_0-0_0
  6
CONTINUOUS
 62
    4
 10
128.20063568675778
 20
72.489477894505399
 11
128.42032273317545
 21
72.489477894505399
  0
LINE
  8
_0-0_0
  6
CONTINUOUS
 62
    4
 10
128.42032273317545
 20
72.489477894505399
 11
128.57241365752088
 21
72.489477894505399
  0
LINE
  8
_0-0_0
  6
CONTINUOUS
 62
    4
 10
128.57241365752088
 20
72.489477894505399
 11
128.82589841465597
 21
72.489477894505399
  0
LINE
  8
_0-0_0
  6
CONTINUOUS
 62
    4
 10
128.82589841465597
 20
72.489477894505399
 11
129.13008026334501
 21
72.427557759196134
  0
LINE
  8
_0-0_0
  6
CONTINUOUS
 62
    4
 10
129.13008026334501
 20
72.427557759196134
 11
129.61615045626331
 21
72.534784237675922
  0
LINE
  8
_0-0_0
  6
CONTINUOUS
 62
    4
 10
129.61615045626331
 20
72.534784237675922
 11
129.94849723904463
 21
72.534784237675922
  0
LINE
  8
_0-0_0
  6
CONTINUOUS
 62
    4
 10
129.94849723904463
 20
72.534784237675922
 11
130.35407327084249
 21
72.720544471096218
  0
LINE
  8
_0-0_0
  6
CONTINUOUS
 62
    4
 10
130.35407327084249
 20
72.720544471096218
 11
130.69205318056811
 21
72.827497526175648
  0
LINE
  8
_0-0_0
  6
CONTINUOUS
 62
    4
 10
130.69205318056811
 20
72.827497526175648
 11
130.87230903900308
 21
72.934450408754856
  0
LINE
  8
_0-0_0
  6
CONTINUOUS
 62
    4
 10
130.87230903900308
 20
72.934450408754856
 11
131.04693212081202
 21
73.092065110446129
  0
LINE
  8
_0-0_0
  6
CONTINUOUS
 62
    4
 10
131.04693212081202
 20
73.092065110446129
 11
131.20465617210175
 21
73.215905381055563
  0
LINE
  8
_0-0_0
  6
CONTINUOUS
 62
    4
 10
131.20465617210175
 20
73.215905381055563
 11
131.49256255780892
 21
73.408587280346183
  0
LINE
  8
_0-0_0
  6
CONTINUOUS
 62
    4
 10
131.49256255780892
 20
73.408587280346183
 11
131.65591938572561
 21
73.588718614424579
  0
LINE
  8
_0-0_0
  6
CONTINUOUS
 62
    4
 10
131.65591938572561
 20
73.588718614424579
 11
131.8361752441615
 21
73.791366235886017
  0
LINE
  8
_0-0_0
  6
CONTINUOUS
 62
    4
 10
131.8361752441615
 20
73.791366235886017
 11
131.99953242239735
 21
73.988384612996015
  0
LINE
  8
_0-0_0
  6
CONTINUOUS
 62
    4
 10
131.99953242239735
 20
73.988384612996015
 11
132.07839444804176
 21
74.213548694346173
  0
LINE
  8
_0-0_0
  6
CONTINUOUS
 62
    4
 10
132.07839444804176
 20
74.213548694346173
 11
132.16288925031404
 21
74.478116451115056
  0
LINE
  8
_0-0_0
  6
CONTINUOUS
 62
    4
 10
132.16288925031404
 20
74.478116451115056
 11
132.16288925031404
 21
74.782942654876024
  0
LINE
  8
_0-0_0
  6
CONTINUOUS
 62
    4
 10
132.16288925031404
 20
74.782942654876024
 11
132.22531957077354
 21
75.064397627185826
  0
LINE
  8
_0-0_0
  6
CONTINUOUS
 62
    4
 10
132.22531957077354
 20
75.064397627185826
 11
132.22531957077354
 21
75.413401979154514
  0
LINE
  8
_0-0_0
  6
CONTINUOUS
 62
    4
 10
132.22531957077354
 20
75.413401979154514
 11
132.22531957077354
 21
75.734260626875766
  0
LINE
  8
_0-0_0
  6
CONTINUOUS
 62
    4
 10
132.22531957077354
 20
75.734260626875766
 11
132.22531957077354
 21
75.981940995605328
  0
LINE
  8
_0-0_0
  6
CONTINUOUS
 62
    4
 10
132.22531957077354
 20
75.981940995605328
 11
132.10707645274033
 21
78.399082145075226
  0
LINE
  8
_0-0_0
  6
CONTINUOUS
 62
    4
 10
132.10707645274033
 20
78.399082145075226
 11
132.00004949300455
 21
78.556697019264902
  0
LINE
  8
_0-0_0
  6
CONTINUOUS
 62
    4
 10
132.00004949300455
 20
78.556697019264902
 11
131.92118746736014
 21
78.61861698206485
  0
LINE
  8
_0-0_0
  6
CONTINUOUS
 62
    4
 10
131.92118746736014
 20
78.61861698206485
 11
131.77472966996083
 21
78.686166189225332
  0
LINE
  8
_0-0_0
  6
CONTINUOUS
 62
    4
 10
131.77472966996083
 20
78.686166189225332
 11
131.65080367970677
 21
78.686166189225332
  0
LINE
  8
_0-0_0
  6
CONTINUOUS
 62
    4
 10
131.65080367970677
 20
78.686166189225332
 11
131.56067575048928
 21
78.686166189225332
  0
LINE
  8
_0-0_0
  6
CONTINUOUS
 62
    4
 10
131.56067575048928
 20
78.686166189225332
 11
131.44801566380738
 21
78.596100694685447
  0
LINE
  8
_0-0_0
  6
CONTINUOUS
 62
    4
 10
131.44801566380738
 20
78.596100694685447
 11
131.31845689692636
 21
78.494776883955637
  0
LINE
  8
_0-0_0
  6
CONTINUOUS
 62
    4
 10
123.96634412998719
 20
76.50184928890485
 11
124.30119218928485
 21
76.067752470606138
  0
LINE
  8
_0-0_0
  6
CONTINUOUS
 62
    4
 10
124.30119218928485
 20
76.067752470606138
 11
124.69938980567713
 21
75.606524806005837
  0
LINE
  8
_0-0_0
  6
CONTINUOUS
 62
    4
 10
124.69938980567713
 20
75.606524806005837
 11
125.09758742206941
 21
75.154340641835006
  0
LINE
  8
_0-0_0
  6
CONTINUOUS
 62
    4
 10
94.043025259397837
 20
109.00920287008557
 11
121.10061060542102
 21
91.156146871695455
  0
LINE
  8
_0-0_0
  6
CONTINUOUS
 62
    4
 10
121.10061060542102
 20
91.156146871695455
 11
122.43495720035753
 21
92.045095672994648
  0
LINE
  8
_0-0_0
  6
CONTINUOUS
 62
    4
 10
94.10355825302031
 20
108.9890404390153
 11
93.987588704258087
 21
108.9890404390153
  0
LINE
  8
_0-0_0
  6
CONTINUOUS
 62
    4
 10
93.987588704258087
 20
108.9890404390153
 11
93.987588704258087
 21
108.24734954413543
  0
LINE
  8
_0-0_0
  6
CONTINUOUS
 62
    4
 10
93.987588704258087
 20
108.24734954413543
 11
117.32331768232052
 21
92.970225548775488
  0
LINE
  8
_0-0_0
  6
CONTINUOUS
 62
    4
 10
117.32331768232052
 20
92.970225548775488
 11
117.6944198880401
 21
93.433782228696145
  0
LINE
  8
_0-0_0
  6
CONTINUOUS
 62
    4
 10
93.96101561897558
 20
108.08842793036456
 11
93.96101561897558
 21
107.32355918424582
  0
LINE
  8
_0-0_0
  6
CONTINUOUS
 62
    4
 10
93.96101561897558
 20
107.32355918424582
 11
101.82374401867037
 21
102.34032409884458
  0
LINE
  8
_0-0_0
  6
CONTINUOUS
 62
    4
 10
101.82374401867037
 20
102.34032409884458
 11
111.037591578719
 21
96.261647412446109
  0
LINE
  8
_0-0_0
  6
CONTINUOUS
 62
    4
 10
111.037591578719
 20
96.261647412446109
 11
116.20982889936386
 21
92.831327498035535
  0
LINE
  8
_0-0_0
  6
CONTINUOUS
 62
    4
 10
116.20982889936386
 20
92.831327498035535
 11
116.55773719533136
 21
93.155817242984995
  0
LINE
  8
_0-0_0
  6
CONTINUOUS
 62
    4
 10
93.963449634276003
 20
108.06620766478591
 11
101.98853505191801
 21
102.82801621567523
  0
LINE
  8
_0-0_0
  6
CONTINUOUS
 62
    4
 10
101.98853505191801
 20
102.82801621567523
 11
107.95423333474537
 21
98.948277077295643
  0
LINE
  8
_0-0_0
  6
CONTINUOUS
 62
    4
 10
107.95423333474537
 20
98.948277077295643
 11
117.16220709880508
 21
92.782972095845253
  0
LINE
  8
_0-0_0
  6
CONTINUOUS
 62
    4
 10
117.16220709880508
 20
92.782972095845253
 11
117.16220709880508
 21
92.991572757066024
  0
LINE
  8
_0-0_0
  6
CONTINUOUS
 62
    4
 10
93.974753372282976
 20
107.13551823742455
 11
105.27853692094322
 21
99.778580268784935
  0
LINE
  8
_0-0_0
  6
CONTINUOUS
 62
    4
 10
105.27853692094322
 20
99.778580268784935
 11
116.08385984963479
 21
92.565789907615908
  0
LINE
  8
_0-0_0
  6
CONTINUOUS
 62
    4
 10
116.08385984963479
 20
92.565789907615908
 11
116.31649327910054
 21
92.565789907615908
  0
LINE
  8
_0-0_0
  6
CONTINUOUS
 62
    4
 10
116.31649327910054
 20
92.565789907615908
 11
116.70906232269226
 21
93.059793878495839
  0
LINE
  8
_0-0_0
  6
CONTINUOUS
 62
    4
 10
93.972775472112517
 20
107.09829228879607
 11
93.860230990648233
 21
106.51081650261585
  0
LINE
  8
_0-0_0
  6
CONTINUOUS
 62
    4
 10
93.860230990648233
 20
106.51081650261585
 11
101.69819885473862
 21
101.49425343394614
  0
LINE
  8
_0-0_0
  6
CONTINUOUS
 62
    4
 10
101.69819885473862
 20
101.49425343394614
 11
115.65744019718204
 21
92.315775003346062
  0
LINE
  8
_0-0_0
  6
CONTINUOUS
 62
    4
 10
115.65744019718204
 20
92.315775003346062
 11
115.87728383612102
 21
92.68192757374527
  0
LINE
  8
_0-0_0
  6
CONTINUOUS
 62
    4
 10
93.890231245140967
 20
106.27648523341486
 11
93.890231245140967
 21
105.63091137425545
  0
LINE
  8
_0-0_0
  6
CONTINUOUS
 62
    4
 10
93.890231245140967
 20
105.63091137425545
 11
97.810403458691326
 21
103.13664878363488
  0
LINE
  8
_0-0_0
  6
CONTINUOUS
 62
    4
 10
97.810403458691326
 20
103.13664878363488
 11
105.37527291443803
 21
98.171460159985145
  0
LINE
  8
_0-0_0
  6
CONTINUOUS
 62
    4
 10
105.37527291443803
 20
98.171460159985145
 11
116.02245000795665
 21
91.256179123454785
  0
LINE
  8
_0-0_0
  6
CONTINUOUS
 62
    4
 10
116.02245000795665
 20
91.256179123454785
 11
117.15298670693846
 21
92.796753152584643
  0
LINE
  8
_0-0_0
  6
CONTINUOUS
 62
    4
 10
93.891963571804808
 20
106.27573638106514
 11
99.309729908730333
 21
102.78376871970613
  0
LINE
  8
_0-0_0
  6
CONTINUOUS
 62
    4
 10
99.309729908730333
 20
102.78376871970613
 11
107.60914300352579
 21
97.360695442184806
  0
LINE
  8
_0-0_0
  6
CONTINUOUS
 62
    4
 10
107.60914300352579
 20
97.360695442184806
 11
115.65503981249094
 21
92.034711276624876
  0
LINE
  8
_0-0_0
  6
CONTINUOUS
 62
    4
 10
115.65503981249094
 20
92.034711276624876
 11
115.84590963113715
 21
92.240121078175434
  0
LINE
  8
_0-0_0
  6
CONTINUOUS
 62
    4
 10
115.84590963113715
 20
92.240121078175434
 11
116.05146166268332
 21
92.577580235016285
  0
LINE
  8
_0-0_0
  6
CONTINUOUS
 62
    4
 10
93.842031576596128
 20
105.469227235375
 11
93.822370482515907
 21
104.86771082377527
  0
LINE
  8
_0-0_0
  6
CONTINUOUS
 62
    4
 10
93.814028838356535
 20
104.6125044837554
 11
93.794742199806933
 21
104.02244425794561
  0
LINE
  8
_0-0_0
  6
CONTINUOUS
 62
    4
 10
93.788417707454755
 20
103.82895116295549
 11
93.774273120293401
 21
103.39620813869624
  0
LINE
  8
_0-0_0
  6
CONTINUOUS
 62
    4
 10
93.764592537833778
 20
103.10003798663456
 11
93.749019588778538
 21
102.6235953026553
  0
LINE
  8
_0-0_0
  6
CONTINUOUS
 62
    4
 10
93.739682989365065
 20
102.33794905366449
 11
93.724210910460897
 21
101.8645924162247
  0
LINE
  8
_0-0_0
  6
CONTINUOUS
 62
    4
 10
93.713969688447833
 20
101.55126991796533
 11
93.696672394062261
 21
101.02207218326475
  0
LINE
  8
_0-0_0
  6
CONTINUOUS
 62
    4
 10
93.689707098021245
 20
100.80897418051609
 11
93.674835538759908
 21
100.35398999067547
  0
LINE
  8
_0-0_0
  6
CONTINUOUS
 62
    4
 10
93.668023013487982
 20
100.14556589492531
 11
93.649972075168989
 21
99.593310989936072
  0
LINE
  8
_0-0_0
  6
CONTINUOUS
 62
    4
 10
93.854013882196341
 20
105.43560150523626
 11
108.4314667349272
 21
95.937607565434519
  0
LINE
  8
_0-0_0
  6
CONTINUOUS
 62
    4
 10
108.4314667349272
 20
95.937607565434519
 11
116.2895488558479
 21
90.777135638814798
  0
LINE
  8
_0-0_0
  6
CONTINUOUS
 62
    4
 10
116.3040667692112
 20
90.785319709984833
 11
117.20254105843742
 21
92.041782850965319
  0
LINE
  8
_0-0_0
  6
CONTINUOUS
 62
    4
 10
117.20254105843742
 20
92.041782850965319
 11
117.8258027651209
 21
92.976028680064701
  0
LINE
  8
_0-0_0
  6
CONTINUOUS
 62
    4
 10
117.8258027651209
 20
92.976028680064701
 11
117.8258027651209
 21
93.302273164945291
  0
LINE
  8
_0-0_0
  6
CONTINUOUS
 62
    4
 10
93.815139701169755
 20
104.87230048753554
 11
97.577481716821239
 21
102.48419276269487
  0
LINE
  8
_0-0_0
  6
CONTINUOUS
 62
    4
 10
97.577481716821239
 20
102.48419276269487
 11
104.92665530869363
 21
97.657427623365948
  0
LINE
  8
_0-0_0
  6
CONTINUOUS
 62
    4
 10
104.92665530869363
 20
97.657427623365948
 11
114.29042216659764
 21
91.473610411614573
  0
LINE
  8
_0-0_0
  6
CONTINUOUS
 62
    4
 10
114.29042216659764
 20
91.473610411614573
 11
117.08721924921065
 21
89.643264163694766
  0
LINE
  8
_0-0_0
  6
CONTINUOUS
 62
    4
 10
93.80415930745221
 20
104.61901364536607
 11
97.493329526374509
 21
102.18592889297543
  0
LINE
  8
_0-0_0
  6
CONTINUOUS
 62
    4
 10
97.493329526374509
 20
102.18592889297543
 11
108.98840607883994
 21
94.753426012715863
  0
LINE
  8
_0-0_0
  6
CONTINUOUS
 62
    4
 10
108.98840607883994
 20
94.753426012715863
 11
116.68135630628149
 21
89.632611346625708
  0
LINE
  8
_0-0_0
  6
CONTINUOUS
 62
    4
 10
116.45836715447876
 20
89.290931291576271
 11
114.61499046985682
 21
90.494239371564618
  0
LINE
  8
_0-0_0
  6
CONTINUOUS
 62
    4
 10
114.61499046985682
 20
90.494239371564618
 11
109.61526731160393
 21
93.813458303075095
  0
LINE
  8
_0-0_0
  6
CONTINUOUS
 62
    4
 10
109.61526731160393
 20
93.813458303075095
 11
102.56881018471358
 21
98.433567278685587
  0
LINE
  8
_0-0_0
  6
CONTINUOUS
 62
    4
 10
102.56881018471358
 20
98.433567278685587
 11
93.788152188700224
 21
104.02664194155477
  0
LINE
  8
_0-0_0
  6
CONTINUOUS
 62
    4
 10
93.777013801185603
 20
103.83635047004464
 11
96.913728056708351
 21
101.80112574175473
  0
LINE
  8
_0-0_0
  6
CONTINUOUS
 62
    4
 10
96.913728056708351
 20
101.80112574175473
 11
104.70709963184163
 21
96.684697235476051
  0
LINE
  8
_0-0_0
  6
CONTINUOUS
 62
    4
 10
104.70709963184163
 20
96.684697235476051
 11
116.08465332180822
 21
89.159342012115303
  0
LINE
  8
_0-0_0
  6
CONTINUOUS
 62
    4
 10
116.08465332180822
 20
89.159342012115303
 11
115.5940773279699
 21
88.877084537825795
  0
LINE
  8
_0-0_0
  6
CONTINUOUS
 62
    4
 10
115.5940773279699
 20
88.877084537825795
 11
112.24924005093544
 21
91.179711138345738
  0
LINE
  8
_0-0_0
  6
CONTINUOUS
 62
    4
 10
112.24924005093544
 20
91.179711138345738
 11
106.49129940707007
 21
95.019455592744634
  0
LINE
  8
_0-0_0
  6
CONTINUOUS
 62
    4
 10
106.49129940707007
 20
95.019455592744634
 11
97.211488561062652
 21
101.1457978263461
  0
LINE
  8
_0-0_0
  6
CONTINUOUS
 62
    4
 10
97.211488561062652
 20
101.1457978263461
 11
93.762589773271429
 21
103.40385744816558
  0
LINE
  8
_0-0_0
  6
CONTINUOUS
 62
    4
 10
116.66785151500335
 20
89.6364313388749
 11
116.33710288677139
 21
89.36334795271614
  0
LINE
  8
_0-0_0
  6
CONTINUOUS
 62
    4
 10
93.757752220411021
 20
103.10461839707568
 11
96.80553628682992
 21
101.0637625268555
  0
LINE
  8
_0-0_0
  6
CONTINUOUS
 62
    4
 10
96.80553628682992
 20
101.0637625268555
 11
102.22384736955155
 21
97.516062896815129
  0
LINE
  8
_0-0_0
  6
CONTINUOUS
 62
    4
 10
102.22384736955155
 20
97.516062896815129
 11
111.63282357438402
 21
91.31252883925481
  0
LINE
  8
_0-0_0
  6
CONTINUOUS
 62
    4
 10
111.63282357438402
 20
91.31252883925481
 11
115.42248800731522
 21
88.869166989776204
  0
LINE
  8
_0-0_0
  6
CONTINUOUS
 62
    4
 10
115.42248800731522
 20
88.869166989776204
 11
114.91389441490355
 21
88.570201534595981
  0
LINE
  8
_0-0_0
  6
CONTINUOUS
 62
    4
 10
114.91389441490355
 20
88.570201534595981
 11
111.15927938190453
 21
91.096460010396186
  0
LINE
  8
_0-0_0
  6
CONTINUOUS
 62
    4
 10
111.15927938190453
 20
91.096460010396186
 11
102.83461250257824
 21
96.606107070785583
  0
LINE
  8
_0-0_0
  6
CONTINUOUS
 62
    4
 10
102.83461250257824
 20
96.606107070785583
 11
97.165292716282238
 21
100.37307225459517
  0
LINE
  8
_0-0_0
  6
CONTINUOUS
 62
    4
 10
97.165292716282238
 20
100.37307225459517
 11
93.743090326003767
 21
102.62750129671622
  0
LINE
  8
_0-0_0
  6
CONTINUOUS
 62
    4
 10
93.723277693695309
 20
102.34855112423611
 11
96.221368411084768
 21
100.73413742474622
  0
LINE
  8
_0-0_0
  6
CONTINUOUS
 62
    4
 10
96.221368411084768
 20
100.73413742474622
 11
103.0600927716514
 21
96.184140590936295
  0
LINE
  8
_0-0_0
  6
CONTINUOUS
 62
    4
 10
103.0600927716514
 20
96.184140590936295
 11
111.03486084336146
 21
90.994891412405195
  0
LINE
  8
_0-0_0
  6
CONTINUOUS
 62
    4
 10
111.03486084336146
 20
90.994891412405195
 11
114.63988973172127
 21
88.573270776914796
  0
LINE
  8
_0-0_0
  6
CONTINUOUS
 62
    4
 10
114.63988973172127
 20
88.573270776914796
 11
114.20608956194883
 21
88.244408845224825
  0
LINE
  8
_0-0_0
  6
CONTINUOUS
 62
    4
 10
114.20608956194883
 20
88.244408845224825
 11
110.51130863648632
 21
90.77066732102503
  0
LINE
  8
_0-0_0
  6
CONTINUOUS
 62
    4
 10
110.51130863648632
 20
90.77066732102503
 11
105.87413464947713
 21
93.909804945446012
  0
LINE
  8
_0-0_0
  6
CONTINUOUS
 62
    4
 10
105.87413464947713
 20
93.909804945446012
 11
99.585582523793164
 21
98.028935497204657
  0
LINE
  8
_0-0_0
  6
CONTINUOUS
 62
    4
 10
99.585582523793164
 20
98.028935497204657
 11
95.786091297082748
 21
100.52529732397488
  0
LINE
  8
_0-0_0
  6
CONTINUOUS
 62
    4
 10
95.786091297082748
 20
100.52529732397488
 11
93.691883870857055
 21
101.88559045557486
  0
LINE
  8
_0-0_0
  6
CONTINUOUS
 62
    4
 10
93.707809715637268
 20
101.5553167276048
 11
95.733271623677865
 21
100.22468442814534
  0
LINE
  8
_0-0_0
  6
CONTINUOUS
 62
    4
 10
95.733271623677865
 20
100.22468442814534
 11
100.09696570512733
 21
97.381677280915028
  0
LINE
  8
_0-0_0
  6
CONTINUOUS
 62
    4
 10
100.09696570512733
 20
97.381677280915028
 11
103.71654123299504
 21
94.964049662065008
  0
LINE
  8
_0-0_0
  6
CONTINUOUS
 62
    4
 10
103.71654123299504
 20
94.964049662065008
 11
113.87847979052185
 21
88.26542449529552
  0
LINE
  8
_0-0_0
  6
CONTINUOUS
 62
    4
 10
113.87847979052185
 20
88.26542449529552
 11
113.51277144397955
 21
88.00304636828514
  0
LINE
  8
_0-0_0
  6
CONTINUOUS
 62
    4
 10
113.51277144397955
 20
88.00304636828514
 11
110.44644710327793
 21
90.120813221275966
  0
LINE
  8
_0-0_0
  6
CONTINUOUS
 62
    4
 10
110.44644710327793
 20
90.120813221275966
 11
96.652786062428277
 21
99.193356214855157
  0
LINE
  8
_0-0_0
  6
CONTINUOUS
 62
    4
 10
96.652786062428277
 20
99.193356214855157
 11
93.688108835038292
 21
101.02736978643588
  0
LINE
  8
_0-0_0
  6
CONTINUOUS
 62
    4
 10
113.30212892937107
 20
87.956007538576159
 11
111.26831892337577
 21
89.386216671646253
  0
LINE
  8
_0-0_0
  6
CONTINUOUS
 62
    4
 10
111.26831892337577
 20
89.386216671646253
 11
107.65265645694944
 21
91.734770640085117
  0
LINE
  8
_0-0_0
  6
CONTINUOUS
 62
    4
 10
107.65265645694944
 20
91.734770640085117
 11
100.98895033784356
 21
96.096209006445861
  0
LINE
  8
_0-0_0
  6
CONTINUOUS
 62
    4
 10
100.98895033784356
 20
96.096209006445861
 11
96.559764149274088
 21
98.911462902575295
  0
LINE
  8
_0-0_0
  6
CONTINUOUS
 62
    4
 10
96.559764149274088
 20
98.911462902575295
 11
95.188825350233856
 21
99.844862585456212
  0
LINE
  8
_0-0_0
  6
CONTINUOUS
 62
    4
 10
95.188825350233856
 20
99.844862585456212
 11
93.667234386325617
 21
100.82342681084629
  0
LINE
  8
_0-0_0
  6
CONTINUOUS
 62
    4
 10
93.669866682087559
 20
100.35723784851507
 11
98.095324076924953
 21
97.464569077044871
  0
LINE
  8
_0-0_0
  6
CONTINUOUS
 62
    4
 10
98.095324076924953
 20
97.464569077044871
 11
105.40204428018296
 21
92.708608349605129
  0
LINE
  8
_0-0_0
  6
CONTINUOUS
 62
    4
 10
105.40204428018296
 20
92.708608349605129
 11
110.48806042731303
 21
89.345413447936153
  0
LINE
  8
_0-0_0
  6
CONTINUOUS
 62
    4
 10
110.48806042731303
 20
89.345413447936153
 11
112.79714186941601
 21
87.792009392474938
  0
LINE
  8
_0-0_0
  6
CONTINUOUS
 62
    4
 10
112.79714186941601
 20
87.792009392474938
 11
112.89649719687714
 21
87.726658612935353
  0
LINE
  8
_0-0_0
  6
CONTINUOUS
 62
    4
 10
112.89649719687714
 20
87.726658612935353
 11
113.28653518685041
 21
87.956975992165098
  0
LINE
  8
_0-0_0
  6
CONTINUOUS
 62
    4
 10
93.658142211153972
 20
100.15213459168626
 11
97.229362528912134
 21
97.778009239105813
  0
LINE
  8
_0-0_0
  6
CONTINUOUS
 62
    4
 10
97.229362528912134
 20
97.778009239105813
 11
101.59183925239176
 21
94.885369103774792
  0
LINE
  8
_0-0_0
  6
CONTINUOUS
 62
    4
 10
101.59183925239176
 20
94.885369103774792
 11
106.4947010030055
 21
91.709787504385531
  0
LINE
  8
_0-0_0
  6
CONTINUOUS
 62
    4
 10
106.4947010030055
 20
91.709787504385531
 11
112.74699162557044
 21
87.620539283574544
  0
LINE
  8
_0-0_0
  6
CONTINUOUS
 62
    4
 10
112.74699162557044
 20
87.620539283574544
 11
112.15683224670738
 21
87.333224770245579
  0
LINE
  8
_0-0_0
  6
CONTINUOUS
 62
    4
 10
112.15683224670738
 20
87.333224770245579
 11
109.31196196065139
 21
89.268817462725565
  0
LINE
  8
_0-0_0
  6
CONTINUOUS
 62
    4
 10
109.31196196065139
 20
89.268817462725565
 11
103.42258519124243
 21
93.205542694775431
  0
LINE
  8
_0-0_0
  6
CONTINUOUS
 62
    4
 10
103.42258519124243
 20
93.205542694775431
 11
96.413024345209124
 21
97.778266446855923
  0
LINE
  8
_0-0_0
  6
CONTINUOUS
 62
    4
 10
96.413024345209124
 20
97.778266446855923
 11
93.643815221557816
 21
99.638250065965622
  0
LINE
  8
_0-0_0
  6
CONTINUOUS
 62
    4
 10
117.06908079063578
 20
89.657959334364932
 11
119.24851203264097
 21
90.081009157394874
  0
LINE
  8
_0-0_0
  6
CONTINUOUS
 62
    4
 10
119.24851203264097
 20
90.081009157394874
 11
120.89484487938262
 21
90.347373918284575
  0
LINE
  8
_0-0_0
  6
CONTINUOUS
 62
    4
 10
120.89484487938262
 20
90.347373918284575
 11
121.33386725210221
 21
90.786092195776291
  0
LINE
  8
_0-0_0
  6
CONTINUOUS
 62
    4
 10
121.33386725210221
 20
90.786092195776291
 11
121.33386725210221
 21
91.318821545044557
  0
LINE
  8
_0-0_0
  6
CONTINUOUS
 62
    4
 10
121.23979087923999
 20
90.582401597745047
 11
121.81992728577461
 21
90.848766186125431
  0
LINE
  8
_0-0_0
  6
CONTINUOUS
 62
    4
 10
121.81992728577461
 20
90.848766186125431
 11
122.11783527436
 21
91.193473391835141
  0
LINE
  8
_0-0_0
  6
CONTINUOUS
 62
    4
 10
122.11783527436
 20
91.193473391835141
 11
122.11783527436
 21
91.522512143075801
  0
LINE
  8
_0-0_0
  6
CONTINUOUS
 62
    4
 10
97.767831311990449
 20
118.425147019816
 11
96.057925054415136
 21
116.46514115434547
  0
LINE
  8
_0-0_0
  6
CONTINUOUS
 62
    4
 10
135.75977217469062
 20
98.669200974794876
 11
135.31840511797509
 21
98.354156843804958
  0
LINE
  8
_0-0_0
  6
CONTINUOUS
 62
    4
 10
135.31840511797509
 20
98.354156843804958
 11
134.90856395430092
 21
98.023360420005702
  0
LINE
  8
_0-0_0
  6
CONTINUOUS
 62
    4
 10
134.90856395430092
 20
98.023360420005702
 11
134.48295984410652
 21
97.550794223516277
  0
LINE
  8
_0-0_0
  6
CONTINUOUS
 62
    4
 10
134.48295984410652
 20
97.550794223516277
 11
134.21498695070932
 21
96.983714787735153
  0
LINE
  8
_0-0_0
  6
CONTINUOUS
 62
    4
 10
134.21498695070932
 20
96.983714787735153
 11
134.21498695070932
 21
96.511148591245728
  0
LINE
  8
_0-0_0
  6
CONTINUOUS
 62
    4
 10
134.21498695070932
 20
96.511148591245728
 11
134.21498695070932
 21
95.896812622066136
  0
LINE
  8
_0-0_0
  6
CONTINUOUS
 62
    4
 10
134.21498695070932
 20
95.896812622066136
 11
134.21498695070932
 21
95.219467654174878
  0
LINE
  8
_0-0_0
  6
CONTINUOUS
 62
    4
 10
134.21498695070932
 20
95.219467654174878
 11
134.89280100777978
 21
94.179822021895234
  0
LINE
  8
_0-0_0
  6
CONTINUOUS
 62
    4
 10
134.89280100777978
 20
94.179822021895234
 11
134.89280100777978
 21
94.006547836104801
  0
LINE
  8
_0-0_0
  6
CONTINUOUS
 62
    4
 10
134.89280100777978
 20
94.006547836104801
 11
134.89280100777978
 21
93.849025770605294
  0
LINE
  8
_0-0_0
  6
CONTINUOUS
 62
    4
 10
134.89280100777978
 20
93.849025770605294
 11
134.40414441086614
 21
94.053804369495992
  0
LINE
  8
_0-0_0
  6
CONTINUOUS
 62
    4
 10
134.40414441086614
 20
94.053804369495992
 11
134.01006654403136
 21
94.40035291359527
  0
LINE
  8
_0-0_0
  6
CONTINUOUS
 62
    4
 10
134.01006654403136
 20
94.40035291359527
 11
133.45835746039847
 21
94.90442352318496
  0
LINE
  8
_0-0_0
  6
CONTINUOUS
 62
    4
 10
133.45835746039847
 20
94.90442352318496
 11
133.06427959356279
 21
95.172211120774591
  0
LINE
  8
_0-0_0
  6
CONTINUOUS
 62
    4
 10
133.06427959356279
 20
95.172211120774591
 11
132.81206964668763
 21
95.361237599376182
  0
LINE
  8
_0-0_0
  6
CONTINUOUS
 62
    4
 10
132.81206964668763
 20
95.361237599376182
 11
132.81206964668763
 21
95.566016198265061
  0
LINE
  8
_0-0_0
  6
CONTINUOUS
 62
    4
 10
132.81206964668763
 20
95.566016198265061
 11
133.17462127016279
 21
95.770794969665076
  0
LINE
  8
_0-0_0
  6
CONTINUOUS
 62
    4
 10
133.17462127016279
 20
95.770794969665076
 11
133.41106827051863
 21
95.975573568555774
  0
LINE
  8
_0-0_0
  6
CONTINUOUS
 62
    4
 10
133.41106827051863
 20
95.975573568555774
 11
133.69480411043605
 21
96.211856753056054
  0
LINE
  8
_0-0_0
  6
CONTINUOUS
 62
    4
 10
134.15193446399007
 20
94.353096380194984
 11
133.9154878139525
 21
94.778405870785718
  0
LINE
  8
_0-0_0
  6
CONTINUOUS
 62
    4
 10
133.9154878139525
 20
94.778405870785718
 11
133.9154878139525
 21
94.998936762474841
  0
LINE
  8
_0-0_0
  6
CONTINUOUS
 62
    4
 10
133.9154878139525
 20
94.998936762474841
 11
133.67904116391583
 21
95.298228773175651
  0
LINE
  8
_0-0_0
  6
CONTINUOUS
 62
    4
 10
133.67904116391583
 20
95.298228773175651
 11
133.67904116391583
 21
95.597520611365326
  0
LINE
  8
_0-0_0
  6
CONTINUOUS
 62
    4
 10
133.67904116391583
 20
95.597520611365326
 11
133.67904116391583
 21
95.975573568555774
  0
LINE
  8
_0-0_0
  6
CONTINUOUS
 62
    4
 10
133.67904116391583
 20
95.975573568555774
 11
133.67904116391583
 21
96.196104460244896
  0
LINE
  8
_0-0_0
  6
CONTINUOUS
 62
    4
 10
139.04606556847557
 20
91.343917672746102
 11
139.04606556847557
 21
91.697279030864593
  0
LINE
  8
_0-0_0
  6
CONTINUOUS
 62
    4
 10
139.04606556847557
 20
91.697279030864593
 11
138.46514164518885
 21
92.126360384276268
  0
LINE
  8
_0-0_0
  6
CONTINUOUS
 62
    4
 10
138.500472000831
 20
92.079145425035676
 11
138.10464078820223
 21
92.300657535835853
  0
LINE
  8
_0-0_0
  6
CONTINUOUS
 62
    4
 10
138.10464078820223
 20
92.300657535835853
 11
137.74047594646891
 21
92.300657535835853
  0
LINE
  8
_0-0_0
  6
CONTINUOUS
 62
    4
 10
137.74047594646891
 20
92.300657535835853
 11
137.24964527083375
 21
92.553814307824723
  0
LINE
  8
_0-0_0
  6
CONTINUOUS
 62
    4
 10
137.24964527083375
 20
92.553814307824723
 11
136.82214733699129
 21
92.553814307824723
  0
LINE
  8
_0-0_0
  6
CONTINUOUS
 62
    4
 10
136.82214733699129
 20
92.553814307824723
 11
136.50548257707942
 21
92.553814307824723
  0
LINE
  8
_0-0_0
  6
CONTINUOUS
 62
    4
 10
136.50548257707942
 20
92.553814307824723
 11
136.09381800384381
 21
92.822793410416125
  0
LINE
  8
_0-0_0
  6
CONTINUOUS
 62
    4
 10
136.09381800384381
 20
92.822793410416125
 11
135.77715289361277
 21
93.060127679305879
  0
LINE
  8
_0-0_0
  6
CONTINUOUS
 62
    4
 10
135.77715289361277
 20
93.060127679305879
 11
135.46048778338263
 21
93.376573601164637
  0
LINE
  8
_0-0_0
  6
CONTINUOUS
 62
    4
 10
135.46048778338263
 20
93.376573601164637
 11
135.11215630225615
 21
93.772131003484901
  0
LINE
  8
_0-0_0
  6
CONTINUOUS
 62
    4
 10
135.11215630225615
 20
93.772131003484901
 11
134.8904906550315
 21
93.961998625605702
  0
LINE
  8
_0-0_0
  6
CONTINUOUS
 62
    4
 10
140.555447920814
 20
92.010477338295459
 11
140.0156815567525
 21
92.391225197885433
  0
LINE
  8
_0-0_0
  6
CONTINUOUS
 62
    4
 10
140.0156815567525
 20
92.391225197885433
 11
139.61879448313994
 21
92.819566669315464
  0
LINE
  8
_0-0_0
  6
CONTINUOUS
 62
    4
 10
139.61879448313994
 20
92.819566669315464
 11
139.23778280839633
 21
93.168585511855781
  0
LINE
  8
_0-0_0
  6
CONTINUOUS
 62
    4
 10
136.79295842093143
 20
93.803165335355516
 11
136.34844515071563
 21
94.120455333355494
  0
LINE
  8
_0-0_0
  6
CONTINUOUS
 62
    4
 10
136.34844515071563
 20
94.120455333355494
 11
135.95155807710307
 21
94.532932210006038
  0
LINE
  8
_0-0_0
  6
CONTINUOUS
 62
    4
 10
135.95155807710307
 20
94.532932210006038
 11
135.61817294928187
 21
94.881951225055673
  0
LINE
  8
_0-0_0
  6
CONTINUOUS
 62
    4
 10
135.61817294928187
 20
94.881951225055673
 11
135.3324140180639
 21
95.278563679425133
  0
LINE
  8
_0-0_0
  6
CONTINUOUS
 62
    4
 10
135.3324140180639
 20
95.278563679425133
 11
135.3324140180639
 21
95.691040556075677
  0
LINE
  8
_0-0_0
  6
CONTINUOUS
 62
    4
 10
135.3324140180639
 20
95.691040556075677
 11
135.3324140180639
 21
96.087653010445138
  0
LINE
  8
_0-0_0
  6
CONTINUOUS
 62
    4
 10
136.79878527419623
 20
93.818070446895945
 11
137.37182702358496
 21
93.515840989124627
  0
LINE
  8
_0-0_0
  6
CONTINUOUS
 62
    4
 10
137.37182702358496
 20
93.515840989124627
 11
137.75385497328352
 21
93.515840989124627
  0
LINE
  8
_0-0_0
  6
CONTINUOUS
 62
    4
 10
137.75385497328352
 20
93.515840989124627
 11
138.56566423502409
 21
93.197704844906184
  0
LINE
  8
_0-0_0
  6
CONTINUOUS
 62
    4
 10
138.56566423502409
 20
93.197704844906184
 11
138.9636096218519
 21
93.197704844906184
  0
LINE
  8
_0-0_0
  6
CONTINUOUS
 62
    4
 10
138.9636096218519
 20
93.197704844906184
 11
139.29788420920795
 21
93.197704844906184
  0
LINE
  8
_0-0_0
  6
CONTINUOUS
 62
    4
 10
138.0881292103204
 20
92.322830189525121
 11
138.9636096218519
 21
92.78412771940566
  0
LINE
  8
_0-0_0
  6
CONTINUOUS
 62
    4
 10
138.9636096218519
 20
92.78412771940566
 11
139.32971978410296
 21
93.134077581555175
  0
LINE
  8
_0-0_0
  6
CONTINUOUS
 62
    4
 10
133.56064881005659
 20
94.328190355076003
 11
132.99853140337109
 21
94.762253189524927
  0
LINE
  8
_0-0_0
  6
CONTINUOUS
 62
    4
 10
132.99853140337109
 20
94.762253189524927
 11
132.58971842549181
 21
95.145249848745152
  0
LINE
  8
_0-0_0
  6
CONTINUOUS
 62
    4
 10
132.58557555489097
 20
95.123474133375566
 11
132.37698345645276
 21
95.36399063659519
  0
LINE
  8
_0-0_0
  6
CONTINUOUS
 62
    4
 10
132.37698345645276
 20
95.36399063659519
 11
132.37698345645276
 21
95.572438284214513
  0
LINE
  8
_0-0_0
  6
CONTINUOUS
 62
    4
 10
132.37698345645276
 20
95.572438284214513
 11
132.20048266566209
 21
95.572438284214513
  0
LINE
  8
_0-0_0
  6
CONTINUOUS
 62
    4
 10
132.20048266566209
 20
95.572438284214513
 11
132.05607283220161
 21
95.572438284214513
  0
LINE
  8
_0-0_0
  6
CONTINUOUS
 62
    4
 10
132.05607283220161
 20
95.572438284214513
 11
131.73516220794954
 21
95.572438284214513
  0
LINE
  8
_0-0_0
  6
CONTINUOUS
 62
    4
 10
131.73516220794954
 20
95.572438284214513
 11
131.51052445568712
 21
95.347956122544929
  0
LINE
  8
_0-0_0
  6
CONTINUOUS
 62
    4
 10
131.51052445568712
 20
95.347956122544929
 11
131.51052445568712
 21
95.059336422185879
  0
LINE
  8
_0-0_0
  6
CONTINUOUS
 62
    4
 10
131.51052445568712
 20
95.059336422185879
 11
131.51052445568712
 21
94.738647693735402
  0
LINE
  8
_0-0_0
  6
CONTINUOUS
 62
    4
 10
131.51052445568712
 20
94.738647693735402
 11
131.51052445568712
 21
94.514165704566039
  0
LINE
  8
_0-0_0
  6
CONTINUOUS
 62
    4
 10
131.51052445568712
 20
94.514165704566039
 11
132.12025509717932
 21
94.898991971705982
  0
LINE
  8
_0-0_0
  6
CONTINUOUS
 62
    4
 10
132.12025509717932
 20
94.898991971705982
 11
132.12025509717932
 21
95.107439619325305
  0
LINE
  8
_0-0_0
  6
CONTINUOUS
 62
    4
 10
132.12025509717932
 20
95.107439619325305
 11
132.12025509717932
 21
95.540369428625127
  0
LINE
  8
_0-0_0
  6
CONTINUOUS
 62
    4
 10
131.52998606851907
 20
94.518494592095522
 11
122.18063342960158
 21
88.933355245475468
  0
LINE
  8
_0-0_0
  6
CONTINUOUS
 62
    4
 10
122.18063342960158
 20
88.933355245475468
 11
120.27470451356294
 21
87.775146672915071
  0
LINE
  8
_0-0_0
  6
CONTINUOUS
 62
    4
 10
120.27470451356294
 20
87.775146672915071
 11
125.78644422961224
 21
91.558628009965105
  0
LINE
  8
_0-0_0
  6
CONTINUOUS
 62
    4
 10
125.78644422961224
 20
91.558628009965105
 11
127.30603627422079
 21
92.536670919585958
  0
LINE
  8
_0-0_0
  6
CONTINUOUS
 62
    4
 10
120.1995159312728
 20
91.691634433405852
 11
119.34730755059536
 21
90.633563169274566
  0
LINE
  8
_0-0_0
  6
CONTINUOUS
 62
    4
 10
119.34730755059536
 20
90.633563169274566
 11
119.34730755059536
 21
90.091624022945325
  0
LINE
  8
_0-0_0
  6
CONTINUOUS
 62
    4
 10
120.61270789465107
 20
91.433568288244714
 11
120.12204256950918
 21
90.685176363806022
  0
LINE
  8
_0-0_0
  6
CONTINUOUS
 62
    4
 10
120.12204256950918
 20
90.685176363806022
 11
120.12204256950918
 21
90.143237389986098
  0
LINE
  8
_0-0_0
  6
CONTINUOUS
 62
    4
 10
129.64459844797693
 20
93.387591270266057
 11
129.64459844797693
 21
92.158106134495029
  0
LINE
  8
_0-0_0
  6
CONTINUOUS
 62
    4
 10
129.64459844797693
 20
92.158106134495029
 11
130.22738957068032
 21
91.268347068406001
  0
LINE
  8
_0-0_0
  6
CONTINUOUS
 62
    4
 10
130.22738957068032
 20
91.268347068406001
 11
130.81018069338279
 21
90.815378860484998
  0
LINE
  8
_0-0_0
  6
CONTINUOUS
 62
    4
 10
130.81018069338279
 20
90.815378860484998
 11
131.05301015268378
 21
90.815378860484998
  0
LINE
  8
_0-0_0
  6
CONTINUOUS
 62
    4
 10
131.05301015268378
 20
90.815378860484998
 11
131.1987081085199
 21
90.815378860484998
  0
LINE
  8
_0-0_0
  6
CONTINUOUS
 62
    4
 10
131.1987081085199
 20
90.815378860484998
 11
131.63580127538808
 21
91.058040314184836
  0
LINE
  8
_0-0_0
  6
CONTINUOUS
 62
    4
 10
131.27965137839237
 20
90.831556210236158
 11
124.80419504332986
 21
87.709310804046254
  0
LINE
  8
_0-0_0
  6
CONTINUOUS
 62
    4
 10
128.67328026045652
 20
92.756671180135527
 11
128.67328026045652
 21
92.465477332185401
  0
LINE
  8
_0-0_0
  6
CONTINUOUS
 62
    4
 10
128.68946884436809
 20
92.465477332185401
 11
128.68946884436809
 21
92.125751262505219
  0
LINE
  8
_0-0_0
  6
CONTINUOUS
 62
    4
 10
128.68946884436809
 20
92.125751262505219
 11
128.68946884436809
 21
91.640428010085088
  0
LINE
  8
_0-0_0
  6
CONTINUOUS
 62
    4
 10
128.68946884436809
 20
91.640428010085088
 11
129.04561874136289
 21
91.04186296444459
  0
LINE
  8
_0-0_0
  6
CONTINUOUS
 62
    4
 10
129.04561874136289
 20
91.04186296444459
 11
129.33701430271412
 21
90.637426978264557
  0
LINE
  8
_0-0_0
  6
CONTINUOUS
 62
    4
 10
129.33701430271412
 20
90.637426978264557
 11
129.77410781990147
 21
90.394765352055401
  0
LINE
  8
_0-0_0
  6
CONTINUOUS
 62
    4
 10
129.77410781990147
 20
90.394765352055401
 11
130.09788054907494
 21
90.216813642346096
  0
LINE
  8
_0-0_0
  6
CONTINUOUS
 62
    4
 10
128.46282796897776
 20
92.675784086404747
 11
128.46282796897776
 21
91.980154252274588
  0
LINE
  8
_0-0_0
  6
CONTINUOUS
 62
    4
 10
128.46282796897776
 20
91.980154252274588
 11
128.46282796897776
 21
91.300701940395811
  0
LINE
  8
_0-0_0
  6
CONTINUOUS
 62
    4
 10
128.46282796897776
 20
91.300701940395811
 11
129.12656201123536
 21
90.491829968035745
  0
LINE
  8
_0-0_0
  6
CONTINUOUS
 62
    4
 10
129.12656201123536
 20
90.491829968035745
 11
129.77410781990147
 21
90.087394154365029
  0
LINE
  8
_0-0_0
  6
CONTINUOUS
 62
    4
 10
127.8542141439475
 20
92.304720935286241
 11
127.74248485442331
 21
91.979914985235155
  0
LINE
  8
_0-0_0
  6
CONTINUOUS
 62
    4
 10
127.74248485442331
 20
91.979914985235155
 11
127.74248485442331
 21
91.594207897995148
  0
LINE
  8
_0-0_0
  6
CONTINUOUS
 62
    4
 10
127.74248485442331
 20
91.594207897995148
 11
127.74248485442331
 21
91.238951379345963
  0
LINE
  8
_0-0_0
  6
CONTINUOUS
 62
    4
 10
127.74248485442331
 20
91.238951379345963
 11
127.92531485569452
 21
90.863394596644866
  0
LINE
  8
_0-0_0
  6
CONTINUOUS
 62
    4
 10
127.92531485569452
 20
90.863394596644866
 11
128.19955950728217
 21
90.457387245334758
  0
LINE
  8
_0-0_0
  6
CONTINUOUS
 62
    4
 10
128.19955950728217
 20
90.457387245334758
 11
128.46364701442599
 21
90.142731427315084
  0
LINE
  8
_0-0_0
  6
CONTINUOUS
 62
    4
 10
128.46364701442599
 20
90.142731427315084
 11
128.80899237775975
 21
89.838225913836141
  0
LINE
  8
_0-0_0
  6
CONTINUOUS
 62
    4
 10
128.80899237775975
 20
89.838225913836141
 11
128.93087881172778
 21
89.716423639445566
  0
LINE
  8
_0-0_0
  6
CONTINUOUS
 62
    4
 10
127.5901266368046
 20
92.152468092295749
 11
127.5901266368046
 21
91.675409471756211
  0
LINE
  8
_0-0_0
  6
CONTINUOUS
 62
    4
 10
127.89484307204293
 20
90.376185671564599
 11
128.18940236283834
 21
90.091980594655979
  0
LINE
  8
_0-0_0
  6
CONTINUOUS
 62
    4
 10
128.18940236283834
 20
90.091980594655979
 11
128.4433327255374
 21
89.878826614465652
  0
LINE
  8
_0-0_0
  6
CONTINUOUS
 62
    4
 10
128.4433327255374
 20
89.878826614465652
 11
128.78867808887208
 21
89.594621537555213
  0
LINE
  8
_0-0_0
  6
CONTINUOUS
 62
    4
 10
127.57996949235985
 20
91.685559603785805
 11
127.57996949235985
 21
91.421654790934554
  0
LINE
  8
_0-0_0
  6
CONTINUOUS
 62
    4
 10
127.57996949235985
 20
91.421654790934554
 11
127.57996949235985
 21
91.0968488408962
  0
LINE
  8
_0-0_0
  6
CONTINUOUS
 62
    4
 10
127.57996949235985
 20
91.0968488408962
 11
127.71201307077263
 21
90.741592322245197
  0
LINE
  8
_0-0_0
  6
CONTINUOUS
 62
    4
 10
127.71201307077263
 20
90.741592322245197
 11
127.89484307204293
 21
90.376185671564599
  0
LINE
  8
_0-0_0
  6
CONTINUOUS
 62
    4
 10
126.99085091076995
 20
91.837812446785392
 11
126.87912162124576
 21
91.299852516545798
  0
LINE
  8
_0-0_0
  6
CONTINUOUS
 62
    4
 10
126.87912162124576
 20
91.299852516545798
 11
126.87912162124576
 21
90.893845165235689
  0
LINE
  8
_0-0_0
  6
CONTINUOUS
 62
    4
 10
126.87912162124576
 20
90.893845165235689
 11
126.87912162124576
 21
90.508138077995682
  0
LINE
  8
_0-0_0
  6
CONTINUOUS
 62
    4
 10
126.87912162124576
 20
90.508138077995682
 11
127.11273769505715
 21
90.173181995915002
  0
LINE
  8
_0-0_0
  6
CONTINUOUS
 62
    4
 10
127.11273769505715
 20
90.173181995915002
 11
127.60028378124844
 21
89.685973070845648
  0
LINE
  8
_0-0_0
  6
CONTINUOUS
 62
    4
 10
127.60028378124844
 20
89.685973070845648
 11
127.87452878315435
 21
89.44236869456472
  0
LINE
  8
_0-0_0
  6
CONTINUOUS
 62
    4
 10
127.87452878315435
 20
89.44236869456472
 11
128.07767307331414
 21
89.259665455474533
  0
LINE
  8
_0-0_0
  6
CONTINUOUS
 62
    4
 10
126.70644911473846
 20
91.644958903156294
 11
126.59471982521427
 21
90.76189275881552
  0
LINE
  8
_0-0_0
  6
CONTINUOUS
 62
    4
 10
126.59471982521427
 20
90.76189275881552
 11
126.59471982521427
 21
90.416786544705246
  0
LINE
  8
_0-0_0
  6
CONTINUOUS
 62
    4
 10
126.59471982521427
 20
90.416786544705246
 11
127.14320912838957
 21
89.675822938816054
  0
LINE
  8
_0-0_0
  6
CONTINUOUS
 62
    4
 10
127.14320912838957
 20
89.675822938816054
 11
127.82374271061508
 21
89.137863181085777
  0
LINE
  8
_0-0_0
  6
CONTINUOUS
 62
    4
 10
126.11733053314856
 20
91.299852516545798
 11
126.11733053314856
 21
90.751742626785926
  0
LINE
  8
_0-0_0
  6
CONTINUOUS
 62
    4
 10
126.13338949908848
 20
90.751480243825426
 11
126.13338949908848
 21
90.466263931615686
  0
LINE
  8
_0-0_0
  6
CONTINUOUS
 62
    4
 10
126.13338949908848
 20
90.466263931615686
 11
126.13338949908848
 21
90.23197906675523
  0
LINE
  8
_0-0_0
  6
CONTINUOUS
 62
    4
 10
126.13338949908848
 20
90.23197906675523
 11
126.13338949908848
 21
90.079184724685547
  0
LINE
  8
_0-0_0
  6
CONTINUOUS
 62
    4
 10
126.13338949908848
 20
90.079184724685547
 11
126.27609643266896
 21
89.916203851626051
  0
LINE
  8
_0-0_0
  6
CONTINUOUS
 62
    4
 10
126.27609643266896
 20
89.916203851626051
 11
126.56151029982902
 21
89.498565741785569
  0
LINE
  8
_0-0_0
  6
CONTINUOUS
 62
    4
 10
126.56151029982902
 20
89.498565741785569
 11
126.91827745862065
 21
89.172604168175894
  0
LINE
  8
_0-0_0
  6
CONTINUOUS
 62
    4
 10
126.91827745862065
 20
89.172604168175894
 11
127.27504496772963
 21
88.887387855966153
  0
LINE
  8
_0-0_0
  6
CONTINUOUS
 62
    4
 10
125.87123154811525
 20
91.144295131845865
 11
125.87123154811525
 21
90.653177200985738
  0
LINE
  8
_0-0_0
  6
CONTINUOUS
 62
    4
 10
125.87123154811525
 20
90.653177200985738
 11
125.87123154811525
 21
90.192754280966255
  0
LINE
  8
_0-0_0
  6
CONTINUOUS
 62
    4
 10
125.87123154811525
 20
90.192754280966255
 11
125.87123154811525
 21
89.977890412625129
  0
LINE
  8
_0-0_0
  6
CONTINUOUS
 62
    4
 10
125.87123154811525
 20
89.977890412625129
 11
126.1579153210705
 21
89.497004209544684
  0
LINE
  8
_0-0_0
  6
CONTINUOUS
 62
    4
 10
126.1579153210705
 20
89.497004209544684
 11
126.43436067561015
 21
89.220750492035222
  0
LINE
  8
_0-0_0
  6
CONTINUOUS
 62
    4
 10
126.43436067561015
 20
89.220750492035222
 11
126.64937341774657
 21
88.995654723405096
  0
LINE
  8
_0-0_0
  6
CONTINUOUS
 62
    4
 10
126.64937341774657
 20
88.995654723405096
 11
126.91557965323409
 21
88.76032757201574
  0
LINE
  8
_0-0_0
  6
CONTINUOUS
 62
    4
 10
126.91557965323409
 20
88.76032757201574
 11
126.9565343778504
 21
88.76032757201574
  0
LINE
  8
_0-0_0
  6
CONTINUOUS
 62
    4
 10
125.28619803451784
 20
90.7744773078648
 11
125.28619803451784
 21
90.221969700334739
  0
LINE
  8
_0-0_0
  6
CONTINUOUS
 62
    4
 10
125.28619803451784
 20
90.221969700334739
 11
125.28619803451784
 21
89.761546780315257
  0
LINE
  8
_0-0_0
  6
CONTINUOUS
 62
    4
 10
125.28619803451784
 20
89.761546780315257
 11
125.50121077665426
 21
89.331818871134601
  0
LINE
  8
_0-0_0
  6
CONTINUOUS
 62
    4
 10
125.50121077665426
 20
89.331818871134601
 11
125.78789454960952
 21
88.932785627775957
  0
LINE
  8
_0-0_0
  6
CONTINUOUS
 62
    4
 10
125.78789454960952
 20
88.932785627775957
 11
126.42269435760318
 21
88.503057546085984
  0
LINE
  8
_0-0_0
  6
CONTINUOUS
 62
    4
 10
125.04046898617889
 20
90.631234671474886
 11
125.04046898617889
 21
89.874094750884979
  0
LINE
  8
_0-0_0
  6
CONTINUOUS
 62
    4
 10
125.04046898617889
 20
89.874094750884979
 11
125.04046898617889
 21
89.567146022525776
  0
LINE
  8
_0-0_0
  6
CONTINUOUS
 62
    4
 10
125.04046898617889
 20
89.567146022525776
 11
125.30667522166641
 21
89.055564981115822
  0
LINE
  8
_0-0_0
  6
CONTINUOUS
 62
    4
 10
125.30667522166641
 20
89.055564981115822
 11
125.85956558042744
 21
88.564447222755916
  0
LINE
  8
_0-0_0
  6
CONTINUOUS
 62
    4
 10
125.85956558042744
 20
88.564447222755916
 11
126.1564877717974
 21
88.37004646497553
  0
LINE
  8
_0-0_0
  6
CONTINUOUS
 62
    4
 10
124.56948842697057
 20
90.344749226174827
 11
124.56948842697057
 21
89.833168184764872
  0
LINE
  8
_0-0_0
  6
CONTINUOUS
 62
    4
 10
124.56948842697057
 20
89.833168184764872
 11
124.56948842697057
 21
89.362513709465929
  0
LINE
  8
_0-0_0
  6
CONTINUOUS
 62
    4
 10
124.56948842697057
 20
89.362513709465929
 11
124.77426275069229
 21
88.871395951106024
  0
LINE
  8
_0-0_0
  6
CONTINUOUS
 62
    4
 10
124.77426275069229
 20
88.871395951106024
 11
125.22476577243287
 21
88.40074130330504
  0
LINE
  8
_0-0_0
  6
CONTINUOUS
 62
    4
 10
125.22476577243287
 20
88.40074130330504
 11
125.63431406955715
 21
88.104024302734615
  0
LINE
  8
_0-0_0
  6
CONTINUOUS
 62
    4
 10
124.30328219148305
 20
90.211738145066192
 11
124.30328219148305
 21
89.536451184196267
  0
LINE
  8
_0-0_0
  6
CONTINUOUS
 62
    4
 10
124.30328219148305
 20
89.536451184196267
 11
124.30328219148305
 21
89.035101870565995
  0
LINE
  8
_0-0_0
  6
CONTINUOUS
 62
    4
 10
124.30328219148305
 20
89.035101870565995
 11
124.78450116910699
 21
88.431436141634549
  0
LINE
  8
_0-0_0
  6
CONTINUOUS
 62
    4
 10
124.78450116910699
 20
88.431436141634549
 11
125.18381069749739
 21
88.083561192184789
  0
LINE
  8
_0-0_0
  6
CONTINUOUS
 62
    4
 10
125.18381069749739
 20
88.083561192184789
 11
125.32715275913415
 21
87.95055011106524
  0
LINE
  8
_0-0_0
  6
CONTINUOUS
 62
    4
 10
129.40993141764648
 20
93.282146787814781
 11
129.40993141764648
 21
92.430657164435615
  0
LINE
  8
_0-0_0
  6
CONTINUOUS
 62
    4
 10
129.40993141764648
 20
92.430657164435615
 11
129.40993141764648
 21
91.93822956137592
  0
LINE
  8
_0-0_0
  6
CONTINUOUS
 62
    4
 10
129.40993141764648
 20
91.93822956137592
 11
129.86163603300793
 21
91.230364677125181
  0
LINE
  8
_0-0_0
  6
CONTINUOUS
 62
    4
 10
129.86163603300793
 20
91.230364677125181
 11
130.29280881148225
 21
90.799490459756271
  0
LINE
  8
_0-0_0
  6
CONTINUOUS
 62
    4
 10
130.29280881148225
 20
90.799490459756271
 11
130.78557745093804
 21
90.573794367204755
  0
LINE
  8
_0-0_0
  6
CONTINUOUS
 62
    4
 10
131.21752163149722
 20
90.7930138616357
 11
131.69027095052934
 21
91.580384059545395
  0
LINE
  8
_0-0_0
  6
CONTINUOUS
 62
    4
 10
130.07811976395351
 20
90.224857120414526
 11
130.23257113664113
 21
90.83580419203463
  0
LINE
  8
_0-0_0
  6
CONTINUOUS
 62
    4
 10
128.09011324563835
 20
89.280845504605168
 11
128.38646616889309
 21
89.840236308966269
  0
LINE
  8
_0-0_0
  6
CONTINUOUS
 62
    4
 10
127.28337414846737
 20
88.91888674884467
 11
127.46447882945176
 21
89.379561528905469
  0
LINE
  8
_0-0_0
  6
CONTINUOUS
 62
    4
 10
126.43478631300059
 20
88.510476376764927
 11
126.57661850043678
 21
89.070969500055071
  0
LINE
  8
_0-0_0
  6
CONTINUOUS
 62
    4
 10
125.62247539468262
 20
88.111044297515036
 11
125.75141339657785
 21
88.690864918595253
  0
LINE
  8
_0-0_0
  6
CONTINUOUS
 62
    4
 10
128.93220511885647
 20
89.710074006385184
 11
129.23126775833862
 21
90.420865814785429
  0
LINE
  8
_0-0_0
  6
CONTINUOUS
 62
    4
 10
130.50676113849022
 20
93.908840977024738
 11
130.87963385562762
 21
93.463773411485818
  0
LINE
  8
_0-0_0
  6
CONTINUOUS
 62
    4
 10
130.87963385562762
 20
93.463773411485818
 11
130.87963385562762
 21
93.184312618655895
  0
LINE
  8
_0-0_0
  6
CONTINUOUS
 62
    4
 10
130.87963385562762
 20
93.184312618655895
 11
130.87963385562762
 21
92.801347528195038
  0
LINE
  8
_0-0_0
  6
CONTINUOUS
 62
    4
 10
130.87963385562762
 20
92.801347528195038
 11
131.07642791617491
 21
92.58398903793568
  0
LINE
  8
_0-0_0
  6
CONTINUOUS
 62
    4
 10
131.07642791617491
 20
92.58398903793568
 11
131.32500961082678
 21
92.58398903793568
  0
LINE
  8
_0-0_0
  6
CONTINUOUS
 62
    4
 10
131.32500961082678
 20
92.58398903793568
 11
131.55287625183701
 21
92.397681612705128
  0
LINE
  8
_0-0_0
  6
CONTINUOUS
 62
    4
 10
131.55287625183701
 20
92.397681612705128
 11
131.71859738160492
 21
92.097519994855247
  0
LINE
  8
_0-0_0
  6
CONTINUOUS
 62
    4
 10
131.71859738160492
 20
92.097519994855247
 11
131.71859738160492
 21
91.621401191774567
  0
LINE
  8
_0-0_0
  6
CONTINUOUS
 62
    4
 10
131.72003789267455
 20
91.614624604195342
 11
131.72003789267455
 21
91.283717430986144
  0
LINE
  8
_0-0_0
  6
CONTINUOUS
 62
    4
 10
131.72003789267455
 20
91.283717430986144
 11
131.72003789267455
 21
91.056624205244589
  0
LINE
  8
_0-0_0
  6
CONTINUOUS
 62
    4
 10
131.72003789267455
 20
91.056624205244589
 11
132.07714591169679
 21
90.887926454344779
  0
LINE
  8
_0-0_0
  6
CONTINUOUS
 62
    4
 10
132.07714591169679
 20
90.887926454344779
 11
132.40828199256612
 21
90.887926454344779
  0
LINE
  8
_0-0_0
  6
CONTINUOUS
 62
    4
 10
132.40828199256612
 20
90.887926454344779
 11
132.92771164733404
 21
90.887926454344779
  0
LINE
  8
_0-0_0
  6
CONTINUOUS
 62
    4
 10
132.92771164733404
 20
90.887926454344779
 11
133.41467690488844
 21
91.231810457245956
  0
LINE
  8
_0-0_0
  6
CONTINUOUS
 62
    4
 10
133.41467690488844
 20
91.231810457245956
 11
133.7523061454558
 21
91.465391839064978
  0
LINE
  8
_0-0_0
  6
CONTINUOUS
 62
    4
 10
133.7523061454558
 20
91.465391839064978
 11
135.35748283424709
 21
92.086964126654493
  0
LINE
  8
_0-0_0
  6
CONTINUOUS
 62
    4
 10
135.35748283424709
 20
92.086964126654493
 11
135.72190060618323
 21
92.287648619874744
  0
LINE
  8
_0-0_0
  6
CONTINUOUS
 62
    4
 10
135.72190060618323
 20
92.287648619874744
 11
135.89116556133558
 21
92.430773606574803
  0
LINE
  8
_0-0_0
  6
CONTINUOUS
 62
    4
 10
135.89116556133558
 20
92.430773606574803
 11
135.99532866455502
 21
92.54137035187523
  0
LINE
  8
_0-0_0
  6
CONTINUOUS
 62
    4
 10
135.99532866455502
 20
92.54137035187523
 11
136.1125120680972
 21
92.66497825573606
  0
LINE
  8
_0-0_0
  6
CONTINUOUS
 62
    4
 10
136.1125120680972
 20
92.66497825573606
 11
136.22318514631934
 21
92.775574828536264
  0
LINE
  8
_0-0_0
  6
CONTINUOUS
 62
    4
 10
132.75325531729322
 20
93.348074775354689
 11
132.88996934647912
 21
92.990262394845558
  0
LINE
  8
_0-0_0
  6
CONTINUOUS
 62
    4
 10
132.88996934647912
 20
92.990262394845558
 11
133.22849890646376
 21
92.651966924675435
  0
LINE
  8
_0-0_0
  6
CONTINUOUS
 62
    4
 10
133.22849890646376
 20
92.651966924675435
 11
133.71676314627803
 21
92.411256696235796
  0
LINE
  8
_0-0_0
  6
CONTINUOUS
 62
    4
 10
133.71676314627803
 20
92.411256696235796
 11
134.23106798673598
 21
92.274637288815939
  0
LINE
  8
_0-0_0
  6
CONTINUOUS
 62
    4
 10
134.23106798673598
 20
92.274637288815939
 11
134.71933187623017
 21
92.274637288815939
  0
LINE
  8
_0-0_0
  6
CONTINUOUS
 62
    4
 10
134.71933187623017
 20
92.274637288815939
 11
135.292228243301
 21
92.274637288815939
  0
LINE
  8
_0-0_0
  6
CONTINUOUS
 62
    4
 10
135.292228243301
 20
92.274637288815939
 11
135.74143123182694
 21
92.625944090044868
  0
LINE
  8
_0-0_0
  6
CONTINUOUS
 62
    4
 10
135.74143123182694
 20
92.625944090044868
 11
135.90418586165833
 21
92.74955216640592
  0
LINE
  8
_0-0_0
  6
CONTINUOUS
 62
    4
 10
135.90418586165833
 20
92.74955216640592
 11
135.78049248311345
 21
92.918699815234504
  0
LINE
  8
_0-0_0
  6
CONTINUOUS
 62
    4
 10
135.78049248311345
 20
92.918699815234504
 11
135.54612567602908
 21
92.918699815234504
  0
LINE
  8
_0-0_0
  6
CONTINUOUS
 62
    4
 10
135.54612567602908
 20
92.918699815234504
 11
135.07739206185943
 21
92.821114573505838
  0
LINE
  8
_0-0_0
  6
CONTINUOUS
 62
    4
 10
135.07739206185943
 20
92.821114573505838
 11
134.35476136528086
 21
92.892677153115073
  0
LINE
  8
_0-0_0
  6
CONTINUOUS
 62
    4
 10
134.35476136528086
 20
92.892677153115073
 11
133.99019085433065
 21
93.022790808754507
  0
LINE
  8
_0-0_0
  6
CONTINUOUS
 62
    4
 10
133.99019085433065
 20
93.022790808754507
 11
133.71025282095707
 21
93.243983954345822
  0
LINE
  8
_0-0_0
  6
CONTINUOUS
 62
    4
 10
133.71025282095707
 20
93.243983954345822
 11
133.44333508790533
 21
93.50421126562469
  0
LINE
  8
_0-0_0
  6
CONTINUOUS
 62
    4
 10
133.44333508790533
 20
93.50421126562469
 11
133.1959479804982
 21
93.751427073335435
  0
LINE
  8
_0-0_0
  6
CONTINUOUS
 62
    4
 10
133.1959479804982
 20
93.751427073335435
 11
132.75976564261418
 21
93.361086106415314
  0
LINE
  8
_0-0_0
  6
CONTINUOUS
 62
    4
 10
131.55376676232845
 20
92.781447480085262
 11
132.3835021894256
 21
93.238465459406143
  0
LINE
  8
_0-0_0
  6
CONTINUOUS
 62
    4
 10
132.3835021894256
 20
93.238465459406143
 11
132.61216965930362
 21
92.898966408765773
  0
LINE
  8
_0-0_0
  6
CONTINUOUS
 62
    4
 10
132.61216965930362
 20
92.898966408765773
 11
132.87350366036662
 21
92.572525093544755
  0
LINE
  8
_0-0_0
  6
CONTINUOUS
 62
    4
 10
132.87350366036662
 20
92.572525093544755
 11
133.20017107411331
 21
92.344016103885224
  0
LINE
  8
_0-0_0
  6
CONTINUOUS
 62
    4
 10
133.20017107411331
 20
92.344016103885224
 11
133.57257191177177
 21
92.167737710855363
  0
LINE
  8
_0-0_0
  6
CONTINUOUS
 62
    4
 10
133.57257191177177
 20
92.167737710855363
 11
133.93190620702262
 21
92.050218782174852
  0
LINE
  8
_0-0_0
  6
CONTINUOUS
 62
    4
 10
133.93190620702262
 20
92.050218782174852
 11
134.19977365444902
 21
92.050218782174852
  0
LINE
  8
_0-0_0
  6
CONTINUOUS
 62
    4
 10
134.19977365444902
 20
92.050218782174852
 11
133.90577277188459
 21
91.802123189394479
  0
LINE
  8
_0-0_0
  6
CONTINUOUS
 62
    4
 10
133.90577277188459
 20
91.802123189394479
 11
133.67710565232483
 21
91.665017830106081
  0
LINE
  8
_0-0_0
  6
CONTINUOUS
 62
    4
 10
133.67710565232483
 20
91.665017830106081
 11
133.43537164003737
 21
91.665017830106081
  0
LINE
  8
_0-0_0
  6
CONTINUOUS
 62
    4
 10
133.43537164003737
 20
91.665017830106081
 11
132.80816989736104
 21
91.841296223125028
  0
LINE
  8
_0-0_0
  6
CONTINUOUS
 62
    4
 10
132.80816989736104
 20
91.841296223125028
 11
132.4553690484754
 21
92.069805212784559
  0
LINE
  8
_0-0_0
  6
CONTINUOUS
 62
    4
 10
132.4553690484754
 20
92.069805212784559
 11
132.1221681883635
 21
92.304843070154675
  0
LINE
  8
_0-0_0
  6
CONTINUOUS
 62
    4
 10
132.1221681883635
 20
92.304843070154675
 11
131.8020342209802
 21
92.526823192105439
  0
LINE
  8
_0-0_0
  6
CONTINUOUS
 62
    4
 10
131.8020342209802
 20
92.526823192105439
 11
131.53416677355563
 21
92.794505215495519
  0
LINE
  8
_0-0_0
  6
CONTINUOUS
 62
    4
 10
132.07994986369158
 20
94.696625191434578
 11
132.07994986369158
 21
93.421482143476169
  0
LINE
  8
_0-0_0
  6
CONTINUOUS
 62
    4
 10
132.07994986369158
 20
93.421482143476169
 11
131.2432112126653
 21
92.9302384551047
  0
LINE
  8
_0-0_0
  6
CONTINUOUS
 62
    4
 10
131.2432112126653
 20
92.9302384551047
 11
131.2432112126653
 21
93.473742066285922
  0
LINE
  8
_0-0_0
  6
CONTINUOUS
 62
    4
 10
131.2432112126653
 20
93.473742066285922
 11
130.69933140478588
 21
94.03814971558495
  0
LINE
  8
_0-0_0
  6
CONTINUOUS
 62
    4
 10
132.24729752383246
 20
95.093800880766139
 11
132.24729752383246
 21
93.578262084394737
  0
LINE
  8
_0-0_0
  6
CONTINUOUS
 62
    4
 10
132.24729752383246
 20
93.578262084394737
 11
133.22000577651033
 21
94.111313676516147
  0
LINE
  8
_0-0_0
  6
CONTINUOUS
 62
    4
 10
133.22000577651033
 20
94.111313676516147
 11
133.22000577651033
 21
94.613009211445387
  0
LINE
  8
_0-0_0
  6
CONTINUOUS
 62
    4
 10
132.07994986369158
 20
94.686173172374765
 11
132.07994986369158
 21
94.780241171425587
  0
LINE
  8
_0-0_0
  6
CONTINUOUS
 62
    4
 10
132.23893786535609
 20
95.089849265776138
 11
132.37843482740664
 21
95.380950132515864
  0
LINE
  8
_0-0_0
  6
CONTINUOUS
 62
    4
 10
132.08302951661335
 20
94.765948459295032
 11
132.08302951661335
 21
94.864348623505066
  0
LINE
  8
_0-0_0
  6
CONTINUOUS
 62
    4
 10
133.27106404678852
 20
94.191523508256068
 11
133.96444487182998
 21
93.47762571356543
  0
LINE
  8
_0-0_0
  6
CONTINUOUS
 62
    4
 10
133.96444487182998
 20
93.47762571356543
 11
134.33214653257164
 21
93.204664807284644
  0
LINE
  8
_0-0_0
  6
CONTINUOUS
 62
    4
 10
134.33214653257164
 20
93.204664807284644
 11
134.90996382838512
 21
93.036688997664896
  0
LINE
  8
_0-0_0
  6
CONTINUOUS
 62
    4
 10
134.90996382838512
 20
93.036688997664896
 11
135.4982868358893
 21
93.036688997664896
  0
LINE
  8
_0-0_0
  6
CONTINUOUS
 62
    4
 10
135.4982868358893
 20
93.036688997664896
 11
135.81345993818104
 21
93.036688997664896
  0
LINE
  8
_0-0_0
  6
CONTINUOUS
 62
    4
 10
131.68464938410489
 20
92.248408653475053
 11
132.35701843544757
 21
91.828468784395227
  0
LINE
  8
_0-0_0
  6
CONTINUOUS
 62
    4
 10
132.35701843544757
 20
91.828468784395227
 11
132.80876649034508
 21
91.555507878116259
  0
LINE
  8
_0-0_0
  6
CONTINUOUS
 62
    4
 10
132.80876649034508
 20
91.555507878116259
 11
133.39708949785017
 21
91.387532068485598
  0
LINE
  8
_0-0_0
  6
CONTINUOUS
 62
    4
 10
133.39708949785017
 20
91.387532068485598
 11
133.64922762936385
 21
91.387532068485598
  0
LINE
  8
_0-0_0
  6
CONTINUOUS
 62
    4
 10
123.50051360804446
 20
88.259323099626272
 11
123.19421898643122
 21
88.111559058024795
  0
LINE
  8
_0-0_0
  6
CONTINUOUS
 62
    4
 10
123.19421898643122
 20
88.111559058024795
 11
123.42658021815805
 21
87.731594379645685
  0
LINE
  8
_0-0_0
  6
CONTINUOUS
 62
    4
 10
123.42658021815805
 20
87.731594379645685
 11
123.84905563079337
 21
87.43606629646456
  0
LINE
  8
_0-0_0
  6
CONTINUOUS
 62
    4
 10
123.84905563079337
 20
87.43606629646456
 11
124.29265491915612
 21
87.309411403664853
  0
LINE
  8
_0-0_0
  6
CONTINUOUS
 62
    4
 10
124.29265491915612
 20
87.309411403664853
 11
124.76793949563216
 21
87.309411403664853
  0
LINE
  8
_0-0_0
  6
CONTINUOUS
 62
    4
 10
124.76793949563216
 20
87.309411403664853
 11
125.08479623026778
 21
87.478284594066281
  0
LINE
  8
_0-0_0
  6
CONTINUOUS
 62
    4
 10
125.08479623026778
 20
87.478284594066281
 11
125.21153878399491
 21
87.478284594066281
  0
LINE
  8
_0-0_0
  6
CONTINUOUS
 62
    4
 10
123.48995149502116
 20
88.280432248426223
 11
123.76456047820284
 21
87.974349677086138
  0
LINE
  8
_0-0_0
  6
CONTINUOUS
 62
    4
 10
123.76456047820284
 20
87.974349677086138
 11
124.07085545013433
 21
87.763258189095723
  0
LINE
  8
_0-0_0
  6
CONTINUOUS
 62
    4
 10
124.07085545013433
 20
87.763258189095723
 11
124.46164487401893
 21
87.763258189095723
  0
LINE
  8
_0-0_0
  6
CONTINUOUS
 62
    4
 10
124.46164487401893
 20
87.763258189095723
 11
124.71513033179144
 21
87.763258189095723
  0
LINE
  8
_0-0_0
  6
CONTINUOUS
 62
    4
 10
122.23979912879076
 20
87.7055993186259
 11
121.97528283138854
 21
87.420119243395675
  0
LINE
  8
_0-0_0
  6
CONTINUOUS
 62
    4
 10
121.97528283138854
 20
87.420119243395675
 11
122.33502489776765
 21
87.092345830085833
  0
LINE
  8
_0-0_0
  6
CONTINUOUS
 62
    4
 10
122.33502489776765
 20
87.092345830085833
 11
122.58896086556888
 21
86.880879139634999
  0
LINE
  8
_0-0_0
  6
CONTINUOUS
 62
    4
 10
122.58896086556888
 20
86.880879139634999
 11
122.95928361186998
 21
86.743425833976289
  0
LINE
  8
_0-0_0
  6
CONTINUOUS
 62
    4
 10
122.95928361186998
 20
86.743425833976289
 11
123.41425179754424
 21
86.743425833976289
  0
LINE
  8
_0-0_0
  6
CONTINUOUS
 62
    4
 10
123.41425179754424
 20
86.743425833976289
 11
123.83747829377262
 21
86.986612571115984
  0
LINE
  8
_0-0_0
  6
CONTINUOUS
 62
    4
 10
122.23979912879076
 20
87.716172610014837
 11
122.51489610611679
 21
87.483559164274993
  0
LINE
  8
_0-0_0
  6
CONTINUOUS
 62
    4
 10
122.51489610611679
 20
87.483559164274993
 11
122.84289648305003
 21
87.198079261555904
  0
LINE
  8
_0-0_0
  6
CONTINUOUS
 62
    4
 10
122.84289648305003
 20
87.198079261555904
 11
123.39309043770027
 21
86.96546581581606
  0
LINE
  8
_0-0_0
  6
CONTINUOUS
 62
    4
 10
123.39309043770027
 20
86.96546581581606
 11
123.81631693392865
 21
86.96546581581606
  0
LINE
  8
_0-0_0
  6
CONTINUOUS
 62
    4
 10
123.56238096612833
 20
89.746252665774591
 11
124.55696277685001
 21
88.255412541266196
  0
LINE
  8
_0-0_0
  6
CONTINUOUS
 62
    4
 10
123.37192942817637
 20
89.598226068716031
 11
124.36651088857889
 21
88.107385944214911
  0
LINE
  8
_0-0_0
  6
CONTINUOUS
 62
    4
 10
124.36651088857889
 20
88.107385944214911
 11
124.57812413669308
 21
88.265986005175364
  0
LINE
  8
_0-0_0
  6
CONTINUOUS
 62
    4
 10
121.5041323675423
 20
87.400324596985229
 11
122.18227677527921
 21
87.908580740884645
  0
LINE
  8
_0-0_0
  6
CONTINUOUS
 62
    4
 10
122.18227677527921
 20
87.908580740884645
 11
123.08081762508482
 21
88.298243755794829
  0
LINE
  8
_0-0_0
  6
CONTINUOUS
 62
    4
 10
123.08081762508482
 20
88.298243755794829
 11
123.65724030159708
 21
88.552371913994648
  0
LINE
  8
_0-0_0
  6
CONTINUOUS
 62
    4
 10
123.65724030159708
 20
88.552371913994648
 11
124.11498756662877
 21
88.366011184145464
  0
LINE
  8
_0-0_0
  6
CONTINUOUS
 62
    4
 10
124.11498756662877
 20
88.366011184145464
 11
124.82703898456111
 21
87.654452582684826
  0
LINE
  8
_0-0_0
  6
CONTINUOUS
 62
    4
 10
120.87709632567748
 20
87.593141569155705
 11
121.05633871170903
 21
87.215003048544531
  0
LINE
  8
_0-0_0
  6
CONTINUOUS
 62
    4
 10
121.05633871170903
 20
87.215003048544531
 11
121.23558074742232
 21
86.97617849276503
  0
LINE
  8
_0-0_0
  6
CONTINUOUS
 62
    4
 10
121.23558074742232
 20
86.97617849276503
 11
121.44137765183677
 21
86.790426194665997
  0
LINE
  8
_0-0_0
  6
CONTINUOUS
 62
    4
 10
121.44137765183677
 20
86.790426194665997
 11
121.71356032673339
 21
86.684282024314598
  0
LINE
  8
_0-0_0
  6
CONTINUOUS
 62
    4
 10
121.71356032673339
 20
86.684282024314598
 11
121.9525502915476
 21
86.59803997216477
  0
LINE
  8
_0-0_0
  6
CONTINUOUS
 62
    4
 10
121.9525502915476
 20
86.59803997216477
 11
121.8463325683324
 21
86.84349827983533
  0
LINE
  8
_0-0_0
  6
CONTINUOUS
 62
    4
 10
121.8463325683324
 20
86.84349827983533
 11
121.64717455625214
 21
87.002714535356063
  0
LINE
  8
_0-0_0
  6
CONTINUOUS
 62
    4
 10
121.64717455625214
 20
87.002714535356063
 11
121.39490750740515
 21
87.16856488776466
  0
LINE
  8
_0-0_0
  6
CONTINUOUS
 62
    4
 10
121.39490750740515
 20
87.16856488776466
 11
121.20238803734082
 21
87.360951282775204
  0
LINE
  8
_0-0_0
  6
CONTINUOUS
 62
    4
 10
121.20238803734082
 20
87.360951282775204
 11
121.06297725372497
 21
87.533435559585996
  0
LINE
  8
_0-0_0
  6
CONTINUOUS
 62
    4
 10
121.06297725372497
 20
87.533435559585996
 11
120.84390326527864
 21
87.626311708634603
  0
LINE
  8
_0-0_0
  6
CONTINUOUS
 62
    4
 10
123.21406524934991
 20
89.558816010536248
 11
123.21406524934991
 21
88.490740210185322
  0
LINE
  8
_0-0_0
  6
CONTINUOUS
 62
    4
 10
123.21406524934991
 20
88.490740210185322
 11
123.51944098464537
 21
88.610152401824962
  0
LINE
  8
_0-0_0
  6
CONTINUOUS
 62
    4
 10
123.51944098464537
 20
88.610152401824962
 11
123.6721288522931
 21
88.530544274064596
  0
LINE
  8
_0-0_0
  6
CONTINUOUS
 62
    4
 10
122.95515965848608
 20
89.392965658114917
 11
122.95515965848608
 21
88.417766006816237
  0
LINE
  8
_0-0_0
  6
CONTINUOUS
 62
    4
 10
122.95515965848608
 20
88.417766006816237
 11
122.45726410280804
 21
88.145771656565557
  0
LINE
  8
_0-0_0
  6
CONTINUOUS
 62
    4
 10
122.45726410280804
 20
88.145771656565557
 11
122.45726410280804
 21
89.087801168376245
  0
LINE
  8
_0-0_0
  6
CONTINUOUS
 62
    4
 10
122.27138317475965
 20
88.968388976734786
 11
122.27138317475965
 21
88.066163528805191
  0
LINE
  8
_0-0_0
  6
CONTINUOUS
 62
    4
 10
122.27138317475965
 20
88.066163528805191
 11
121.80668102979962
 21
87.767632963455981
  0
LINE
  8
_0-0_0
  6
CONTINUOUS
 62
    4
 10
121.80668102979962
 20
87.767632963455981
 11
121.80668102979962
 21
88.676492508286174
  0
LINE
  8
_0-0_0
  6
CONTINUOUS
 62
    4
 10
121.60088412538516
 20
88.583616359235748
 11
121.60088412538516
 21
87.634952750526281
  0
LINE
  8
_0-0_0
  6
CONTINUOUS
 62
    4
 10
121.60088412538516
 20
87.634952750526281
 11
121.34197853452133
 21
87.502272537594763
  0
LINE
  8
_0-0_0
  6
CONTINUOUS
 62
    4
 10
121.34197853452133
 20
87.502272537594763
 11
121.34197853452133
 21
88.477472188895263
  0
LINE
  8
_0-0_0
  6
CONTINUOUS
 62
    4
 10
121.93603100665223
 20
86.665160327225749
 11
122.44856708728821
 21
86.419047183455405
  0
LINE
  8
_0-0_0
  6
CONTINUOUS
 62
    4
 10
122.44856708728821
 20
86.419047183455405
 11
122.7281323814168
 21
86.319271621934604
  0
LINE
  8
_0-0_0
  6
CONTINUOUS
 62
    4
 10
122.7281323814168
 20
86.319271621934604
 11
123.00104126726728
 21
86.319271621934604
  0
LINE
  8
_0-0_0
  6
CONTINUOUS
 62
    4
 10
123.00104126726728
 20
86.319271621934604
 11
123.20073036270878
 21
86.319271621934604
  0
LINE
  8
_0-0_0
  6
CONTINUOUS
 62
    4
 10
123.20073036270878
 20
86.319271621934604
 11
123.52023340586129
 21
86.452305646465902
  0
LINE
  8
_0-0_0
  6
CONTINUOUS
 62
    4
 10
123.52023340586129
 20
86.452305646465902
 11
123.79979869998988
 21
86.565384593195631
  0
LINE
  8
_0-0_0
  6
CONTINUOUS
 62
    4
 10
123.79979869998988
 20
86.565384593195631
 11
123.89298701459302
 21
86.645205076914863
  0
LINE
  8
_0-0_0
  6
CONTINUOUS
 62
    4
 10
123.89298701459302
 20
86.645205076914863
 11
125.76341076588778
 21
86.119720326374591
  0
LINE
  8
_0-0_0
  6
CONTINUOUS
 62
    4
 10
125.76341076588778
 20
86.119720326374591
 11
125.76341076588778
 21
87.050959188125489
  0
LINE
  8
_0-0_0
  6
CONTINUOUS
 62
    4
 10
125.76341076588778
 20
87.050959188125489
 11
125.90319323779295
 21
87.629657651985326
  0
LINE
  8
_0-0_0
  6
CONTINUOUS
 62
    4
 10
125.90319323779295
 20
87.629657651985326
 11
126.16944571536715
 21
87.869119103155754
  0
LINE
  8
_0-0_0
  6
CONTINUOUS
 62
    4
 10
126.16944571536715
 20
87.869119103155754
 11
127.54730226053925
 21
88.514334493025672
  0
LINE
  8
_0-0_0
  6
CONTINUOUS
 62
    4
 10
127.54730226053925
 20
88.514334493025672
 11
130.37346481990608
 21
89.748159729275358
  0
LINE
  8
_0-0_0
  6
CONTINUOUS
 62
    4
 10
130.37346481990608
 20
89.748159729275358
 11
132.9610336250671
 21
90.918564710425926
  0
LINE
  8
_0-0_0
  6
CONTINUOUS
 62
    4
 10
138.04194002159784
 20
92.289533429995572
 11
137.84927727112881
 21
92.011435096464993
  0
LINE
  8
_0-0_0
  6
CONTINUOUS
 62
    4
 10
137.84927727112881
 20
92.011435096464993
 11
137.84927727112881
 21
91.733336762936233
  0
LINE
  8
_0-0_0
  6
CONTINUOUS
 62
    4
 10
137.84927727112881
 20
91.733336762936233
 11
137.72083532071065
 21
91.423150253034692
  0
LINE
  8
_0-0_0
  6
CONTINUOUS
 62
    4
 10
137.72083532071065
 20
91.423150253034692
 11
137.45324777803762
 21
91.102267626854882
  0
LINE
  8
_0-0_0
  6
CONTINUOUS
 62
    4
 10
137.45324777803762
 20
91.102267626854882
 11
137.58168972845579
 21
90.973914576385141
  0
LINE
  8
_0-0_0
  6
CONTINUOUS
 62
    4
 10
137.58168972845579
 20
90.973914576385141
 11
137.91349807117876
 21
91.155748035806027
  0
LINE
  8
_0-0_0
  6
CONTINUOUS
 62
    4
 10
137.91349807117876
 20
91.155748035806027
 11
138.2774169890863
 21
91.401758192965644
  0
LINE
  8
_0-0_0
  6
CONTINUOUS
 62
    4
 10
138.2774169890863
 20
91.401758192965644
 11
138.68414977369412
 21
91.604983712464673
  0
LINE
  8
_0-0_0
  6
CONTINUOUS
 62
    4
 10
138.68414977369412
 20
91.604983712464673
 11
139.10158620013681
 21
91.604983712464673
  0
LINE
  8
_0-0_0
  6
CONTINUOUS
 62
    4
 10
135.4463930551774
 20
92.09902287474506
 11
137.02400350477637
 21
92.56018136408602
  0
LINE
  8
_0-0_0
  6
CONTINUOUS
 62
    4
 10
145.19785742288605
 20
74.478390564545407
 11
145.88960436085745
 21
74.651207607115794
  0
LINE
  8
_0-0_0
  6
CONTINUOUS
 62
    4
 10
145.88960436085745
 20
74.651207607115794
 11
146.44084016373745
 21
74.856427996115599
  0
LINE
  8
_0-0_0
  6
CONTINUOUS
 62
    4
 10
146.44084016373745
 20
74.856427996115599
 11
147.12177871454242
 21
75.148056733894919
  0
LINE
  8
_0-0_0
  6
CONTINUOUS
 62
    4
 10
147.12177871454242
 20
75.148056733894919
 11
147.74867427855224
 21
75.385680124305509
  0
LINE
  8
_0-0_0
  6
CONTINUOUS
 62
    4
 10
141.32318637185654
 20
90.240545413165819
 11
141.36254330246538
 21
90.309492108264749
  0
LINE
  8
_0-0_0
  6
CONTINUOUS
 62
    4
 10
141.36254330246538
 20
90.309492108264749
 11
141.3757624098771
 21
90.397737176916053
  0
LINE
  8
_0-0_0
  6
CONTINUOUS
 62
    4
 10
141.3757624098771
 20
90.397737176916053
 11
141.36233569120486
 21
90.501889410616059
  0
LINE
  8
_0-0_0
  6
CONTINUOUS
 62
    4
 10
141.36233569120486
 20
90.501889410616059
 11
141.3227791277186
 21
90.617946297415983
  0
LINE
  8
_0-0_0
  6
CONTINUOUS
 62
    4
 10
141.3227791277186
 20
90.617946297415983
 11
141.25861285597057
 21
90.741447836255247
  0
LINE
  8
_0-0_0
  6
CONTINUOUS
 62
    4
 10
141.25861285597057
 20
90.741447836255247
 11
141.17230274979738
 21
90.867647932265754
  0
LINE
  8
_0-0_0
  6
CONTINUOUS
 62
    4
 10
141.17230274979738
 20
90.867647932265754
 11
141.06716565817715
 21
90.991696786515604
  0
LINE
  8
_0-0_0
  6
CONTINUOUS
 62
    4
 10
141.06716565817715
 20
90.991696786515604
 11
140.94724194057835
 21
91.108827271105838
  0
LINE
  8
_0-0_0
  6
CONTINUOUS
 62
    4
 10
140.94724194057835
 20
91.108827271105838
 11
140.81714019821538
 21
91.214538127205742
  0
LINE
  8
_0-0_0
  6
CONTINUOUS
 62
    4
 10
140.81714019821538
 20
91.214538127205742
 11
140.68186016808431
 21
91.304766945904703
  0
LINE
  8
_0-0_0
  6
CONTINUOUS
 62
    4
 10
140.68186016808431
 20
91.304766945904703
 11
140.54660058587797
 21
91.376046284285621
  0
LINE
  8
_0-0_0
  6
CONTINUOUS
 62
    4
 10
140.54660058587797
 20
91.376046284285621
 11
140.41655940148576
 21
91.425636917354495
  0
LINE
  8
_0-0_0
  6
CONTINUOUS
 62
    4
 10
140.41655940148576
 20
91.425636917354495
 11
140.29673402469598
 21
91.451633104905341
  0
LINE
  8
_0-0_0
  6
CONTINUOUS
 62
    4
 10
140.29673402469598
 20
91.451633104905341
 11
140.19172927754062
 21
91.453035828015345
  0
LINE
  8
_0-0_0
  6
CONTINUOUS
 62
    4
 10
140.19172927754062
 20
91.453035828015345
 11
140.10558043356377
 21
91.429791180826214
  0
LINE
  8
_0-0_0
  6
CONTINUOUS
 62
    4
 10
140.10558043356377
 20
91.429791180826214
 11
140.04159814452851
 21
91.382792442094797
  0
LINE
  8
_0-0_0
  6
CONTINUOUS
 62
    4
 10
140.04159814452851
 20
91.382792442094797
 11
140.00224121391875
 21
91.313845746984953
  0
LINE
  8
_0-0_0
  6
CONTINUOUS
 62
    4
 10
140.00224121391875
 20
91.313845746984953
 11
139.98902210650795
 21
91.225600678335468
  0
LINE
  8
_0-0_0
  6
CONTINUOUS
 62
    4
 10
139.98902210650795
 20
91.225600678335468
 11
140.00244882518018
 21
91.121448444644557
  0
LINE
  8
_0-0_0
  6
CONTINUOUS
 62
    4
 10
140.00244882518018
 20
91.121448444644557
 11
140.04200538866644
 21
91.005391557844632
  0
LINE
  8
_0-0_0
  6
CONTINUOUS
 62
    4
 10
140.04200538866644
 20
91.005391557844632
 11
140.10617166041447
 21
90.881890018996273
  0
LINE
  8
_0-0_0
  6
CONTINUOUS
 62
    4
 10
140.10617166041447
 20
90.881890018996273
 11
140.19248176658675
 21
90.755689922994861
  0
LINE
  8
_0-0_0
  6
CONTINUOUS
 62
    4
 10
140.19248176658675
 20
90.755689922994861
 11
140.2976188582079
 21
90.631641068745012
  0
LINE
  8
_0-0_0
  6
CONTINUOUS
 62
    4
 10
140.2976188582079
 20
90.631641068745012
 11
140.41754257580578
 21
90.514510584154777
  0
LINE
  8
_0-0_0
  6
CONTINUOUS
 62
    4
 10
140.41754257580578
 20
90.514510584154777
 11
140.54764431816875
 21
90.408799728045778
  0
LINE
  8
_0-0_0
  6
CONTINUOUS
 62
    4
 10
140.54764431816875
 20
90.408799728045778
 11
140.68292434830164
 21
90.318570909355913
  0
LINE
  8
_0-0_0
  6
CONTINUOUS
 62
    4
 10
140.68292434830164
 20
90.318570909355913
 11
140.81818393050708
 21
90.247291570974994
  0
LINE
  8
_0-0_0
  6
CONTINUOUS
 62
    4
 10
140.81818393050708
 20
90.247291570974994
 11
140.94822511489838
 21
90.197700937895206
  0
LINE
  8
_0-0_0
  6
CONTINUOUS
 62
    4
 10
140.94822511489838
 20
90.197700937895206
 11
141.06805049168906
 21
90.171704750355275
  0
LINE
  8
_0-0_0
  6
CONTINUOUS
 62
    4
 10
141.06805049168906
 20
90.171704750355275
 11
141.17305523884443
 21
90.17030202724527
  0
LINE
  8
_0-0_0
  6
CONTINUOUS
 62
    4
 10
141.17305523884443
 20
90.17030202724527
 11
141.25920408282127
 21
90.19354667443622
  0
LINE
  8
_0-0_0
  6
CONTINUOUS
 62
    4
 10
141.25920408282127
 20
90.19354667443622
 11
141.32318637185654
 21
90.240545413165819
  0
LINE
  8
_0-0_0
  6
CONTINUOUS
 62
    4
 10
140.76898582063404
 20
90.725134993845131
 11
140.78832571060957
 21
90.757552338745882
  0
LINE
  8
_0-0_0
  6
CONTINUOUS
 62
    4
 10
140.78832571060957
 20
90.757552338745882
 11
140.79693912640687
 21
90.797370070706165
  0
LINE
  8
_0-0_0
  6
CONTINUOUS
 62
    4
 10
140.79693912640687
 20
90.797370070706165
 11
140.79449505928642
 21
90.843058016625946
  0
LINE
  8
_0-0_0
  6
CONTINUOUS
 62
    4
 10
140.79449505928642
 20
90.843058016625946
 11
140.78108743337907
 21
90.892860414345705
  0
LINE
  8
_0-0_0
  6
CONTINUOUS
 62
    4
 10
140.78108743337907
 20
90.892860414345705
 11
140.75723149622718
 21
90.944863385664576
  0
LINE
  8
_0-0_0
  6
CONTINUOUS
 62
    4
 10
140.75723149622718
 20
90.944863385664576
 11
140.72384401811905
 21
90.997068485545242
  0
LINE
  8
_0-0_0
  6
CONTINUOUS
 62
    4
 10
140.72384401811905
 20
90.997068485545242
 11
140.68220806111276
 21
91.047469501296291
  0
LINE
  8
_0-0_0
  6
CONTINUOUS
 62
    4
 10
140.68220806111276
 20
91.047469501296291
 11
140.63392367168763
 21
91.094129550136131
  0
LINE
  8
_0-0_0
  6
CONTINUOUS
 62
    4
 10
140.63392367168763
 20
91.094129550136131
 11
140.58084639184926
 21
91.135255512544973
  0
LINE
  8
_0-0_0
  6
CONTINUOUS
 62
    4
 10
140.58084639184926
 20
91.135255512544973
 11
140.52501595169815
 21
91.169266940874877
  0
LINE
  8
_0-0_0
  6
CONTINUOUS
 62
    4
 10
140.52501595169815
 20
91.169266940874877
 11
140.46857788373745
 21
91.194856794985753
  0
LINE
  8
_0-0_0
  6
CONTINUOUS
 62
    4
 10
140.46857788373745
 20
91.194856794985753
 11
140.41370107126932
 21
91.211041671154817
  0
LINE
  8
_0-0_0
  6
CONTINUOUS
 62
    4
 10
140.41370107126932
 20
91.211041671154817
 11
140.36249439942003
 21
91.217199593655096
  0
LINE
  8
_0-0_0
  6
CONTINUOUS
 62
    4
 10
140.36249439942003
 20
91.217199593655096
 11
140.31692571187341
 21
91.213093916974685
  0
LINE
  8
_0-0_0
  6
CONTINUOUS
 62
    4
 10
140.31692571187341
 20
91.213093916974685
 11
140.27874618773603
 21
91.198882419976144
  0
LINE
  8
_0-0_0
  6
CONTINUOUS
 62
    4
 10
140.27874618773603
 20
91.198882419976144
 11
140.24942304470824
 21
91.175111242515413
  0
LINE
  8
_0-0_0
  6
CONTINUOUS
 62
    4
 10
140.24942304470824
 20
91.175111242515413
 11
140.23008315473362
 21
91.142693897614663
  0
LINE
  8
_0-0_0
  6
CONTINUOUS
 62
    4
 10
140.23008315473362
 20
91.142693897614663
 11
140.22146973893541
 21
91.102876165656198
  0
LINE
  8
_0-0_0
  6
CONTINUOUS
 62
    4
 10
140.22146973893541
 20
91.102876165656198
 11
140.22391380605586
 21
91.057188219734599
  0
LINE
  8
_0-0_0
  6
CONTINUOUS
 62
    4
 10
140.22391380605586
 20
91.057188219734599
 11
140.23732143196321
 21
91.00738582201484
  0
LINE
  8
_0-0_0
  6
CONTINUOUS
 62
    4
 10
140.23732143196321
 20
91.00738582201484
 11
140.2611773691151
 21
90.955382850695969
  0
LINE
  8
_0-0_0
  6
CONTINUOUS
 62
    4
 10
140.2611773691151
 20
90.955382850695969
 11
140.29456484722323
 21
90.903177750815303
  0
LINE
  8
_0-0_0
  6
CONTINUOUS
 62
    4
 10
140.29456484722323
 20
90.903177750815303
 11
140.33620080422952
 21
90.852776735066072
  0
LINE
  8
_0-0_0
  6
CONTINUOUS
 62
    4
 10
140.33620080422952
 20
90.852776735066072
 11
140.38448519365465
 21
90.806116686226233
  0
LINE
  8
_0-0_0
  6
CONTINUOUS
 62
    4
 10
140.38448519365465
 20
90.806116686226233
 11
140.43756247349302
 21
90.764990723815572
  0
LINE
  8
_0-0_0
  6
CONTINUOUS
 62
    4
 10
140.43756247349302
 20
90.764990723815572
 11
140.49339291364413
 21
90.730979295485668
  0
LINE
  8
_0-0_0
  6
CONTINUOUS
 62
    4
 10
140.49339291364413
 20
90.730979295485668
 11
140.54983098160483
 21
90.705389441374791
  0
LINE
  8
_0-0_0
  6
CONTINUOUS
 62
    4
 10
140.54983098160483
 20
90.705389441374791
 11
140.60470779407297
 21
90.689204565205728
  0
LINE
  8
_0-0_0
  6
CONTINUOUS
 62
    4
 10
140.60470779407297
 20
90.689204565205728
 11
140.65591446592225
 21
90.683046642705449
  0
LINE
  8
_0-0_0
  6
CONTINUOUS
 62
    4
 10
140.65591446592225
 20
90.683046642705449
 11
140.70148315346887
 21
90.687152319385859
  0
LINE
  8
_0-0_0
  6
CONTINUOUS
 62
    4
 10
140.70148315346887
 20
90.687152319385859
 11
140.73966267760625
 21
90.70136381638622
  0
LINE
  8
_0-0_0
  6
CONTINUOUS
 62
    4
 10
140.73966267760625
 20
90.70136381638622
 11
140.76898582063404
 21
90.725134993845131
  0
LINE
  8
_0-0_0
  6
CONTINUOUS
 62
    4
 10
134.63814583540079
 20
87.938744603055966
 11
134.65748572537632
 21
87.971161947965811
  0
LINE
  8
_0-0_0
  6
CONTINUOUS
 62
    4
 10
134.65748572537632
 20
87.971161947965811
 11
134.66609914117362
 21
88.010979679926095
  0
LINE
  8
_0-0_0
  6
CONTINUOUS
 62
    4
 10
134.66609914117362
 20
88.010979679926095
 11
134.66365507405317
 21
88.056667625834962
  0
LINE
  8
_0-0_0
  6
CONTINUOUS
 62
    4
 10
134.66365507405317
 20
88.056667625834962
 11
134.65024744814582
 21
88.106470023554721
  0
LINE
  8
_0-0_0
  6
CONTINUOUS
 62
    4
 10
134.65024744814582
 20
88.106470023554721
 11
134.62639151099393
 21
88.15847299487541
  0
LINE
  8
_0-0_0
  6
CONTINUOUS
 62
    4
 10
134.62639151099393
 20
88.15847299487541
 11
134.5930040328858
 21
88.210678094765171
  0
LINE
  8
_0-0_0
  6
CONTINUOUS
 62
    4
 10
134.5930040328858
 20
88.210678094765171
 11
134.55136807587951
 21
88.261079110516221
  0
LINE
  8
_0-0_0
  6
CONTINUOUS
 62
    4
 10
134.55136807587951
 20
88.261079110516221
 11
134.50308368645437
 21
88.307739159345147
  0
LINE
  8
_0-0_0
  6
CONTINUOUS
 62
    4
 10
134.50308368645437
 20
88.307739159345147
 11
134.45000640661601
 21
88.348865121764902
  0
LINE
  8
_0-0_0
  6
CONTINUOUS
 62
    4
 10
134.45000640661601
 20
88.348865121764902
 11
134.3941759664649
 21
88.382876550094807
  0
LINE
  8
_0-0_0
  6
CONTINUOUS
 62
    4
 10
134.3941759664649
 20
88.382876550094807
 11
134.3377378985042
 21
88.408466404205683
  0
LINE
  8
_0-0_0
  6
CONTINUOUS
 62
    4
 10
134.3377378985042
 20
88.408466404205683
 11
134.28286108603606
 21
88.424651280365651
  0
LINE
  8
_0-0_0
  6
CONTINUOUS
 62
    4
 10
134.28286108603606
 20
88.424651280365651
 11
134.23165441418678
 21
88.43080920286593
  0
LINE
  8
_0-0_0
  6
CONTINUOUS
 62
    4
 10
134.23165441418678
 20
88.43080920286593
 11
134.18608572664016
 21
88.426703526194615
  0
LINE
  8
_0-0_0
  6
CONTINUOUS
 62
    4
 10
134.18608572664016
 20
88.426703526194615
 11
134.14790620250278
 21
88.412492029196073
  0
LINE
  8
_0-0_0
  6
CONTINUOUS
 62
    4
 10
134.14790620250278
 20
88.412492029196073
 11
134.11858305947499
 21
88.388720851735343
  0
LINE
  8
_0-0_0
  6
CONTINUOUS
 62
    4
 10
134.11858305947499
 20
88.388720851735343
 11
134.09924316949946
 21
88.356303506825498
  0
LINE
  8
_0-0_0
  6
CONTINUOUS
 62
    4
 10
134.09924316949946
 20
88.356303506825498
 11
134.09062975370216
 21
88.316485774865214
  0
LINE
  8
_0-0_0
  6
CONTINUOUS
 62
    4
 10
134.09062975370216
 20
88.316485774865214
 11
134.09307382082261
 21
88.270797828954528
  0
LINE
  8
_0-0_0
  6
CONTINUOUS
 62
    4
 10
134.09307382082261
 20
88.270797828954528
 11
134.10648144672996
 21
88.220995431234769
  0
LINE
  8
_0-0_0
  6
CONTINUOUS
 62
    4
 10
134.10648144672996
 20
88.220995431234769
 11
134.13033738388185
 21
88.168992459915899
  0
LINE
  8
_0-0_0
  6
CONTINUOUS
 62
    4
 10
134.13033738388185
 20
88.168992459915899
 11
134.16372486198998
 21
88.116787360026137
  0
LINE
  8
_0-0_0
  6
CONTINUOUS
 62
    4
 10
134.16372486198998
 20
88.116787360026137
 11
134.20536081899627
 21
88.066386344286002
  0
LINE
  8
_0-0_0
  6
CONTINUOUS
 62
    4
 10
134.20536081899627
 20
88.066386344286002
 11
134.2536452084214
 21
88.019726295446162
  0
LINE
  8
_0-0_0
  6
CONTINUOUS
 62
    4
 10
134.2536452084214
 20
88.019726295446162
 11
134.30672248825977
 21
87.978600333024588
  0
LINE
  8
_0-0_0
  6
CONTINUOUS
 62
    4
 10
134.30672248825977
 20
87.978600333024588
 11
134.36255292841088
 21
87.944588904705597
  0
LINE
  8
_0-0_0
  6
CONTINUOUS
 62
    4
 10
134.36255292841088
 20
87.944588904705597
 11
134.41899099637158
 21
87.918999050585626
  0
LINE
  8
_0-0_0
  6
CONTINUOUS
 62
    4
 10
134.41899099637158
 20
87.918999050585626
 11
134.47386780884062
 21
87.902814174425657
  0
LINE
  8
_0-0_0
  6
CONTINUOUS
 62
    4
 10
134.47386780884062
 20
87.902814174425657
 11
134.525074480689
 21
87.896656251925378
  0
LINE
  8
_0-0_0
  6
CONTINUOUS
 62
    4
 10
134.525074480689
 20
87.896656251925378
 11
134.57064316823562
 21
87.900761928605789
  0
LINE
  8
_0-0_0
  6
CONTINUOUS
 62
    4
 10
134.57064316823562
 20
87.900761928605789
 11
134.608822692373
 21
87.914973425595235
  0
LINE
  8
_0-0_0
  6
CONTINUOUS
 62
    4
 10
134.608822692373
 20
87.914973425595235
 11
134.63814583540079
 21
87.938744603055966
  0
LINE
  8
_0-0_0
  6
CONTINUOUS
 62
    4
 10
128.64585555007397
 20
85.567716783934884
 11
128.6651954400495
 21
85.600134128835634
  0
LINE
  8
_0-0_0
  6
CONTINUOUS
 62
    4
 10
128.6651954400495
 20
85.600134128835634
 11
128.6738088558468
 21
85.639951860795918
  0
LINE
  8
_0-0_0
  6
CONTINUOUS
 62
    4
 10
128.6738088558468
 20
85.639951860795918
 11
128.67136478872635
 21
85.685639806704785
  0
LINE
  8
_0-0_0
  6
CONTINUOUS
 62
    4
 10
128.67136478872635
 20
85.685639806704785
 11
128.657957162819
 21
85.735442204424544
  0
LINE
  8
_0-0_0
  6
CONTINUOUS
 62
    4
 10
128.657957162819
 20
85.735442204424544
 11
128.63410122566711
 21
85.787445175745233
  0
LINE
  8
_0-0_0
  6
CONTINUOUS
 62
    4
 10
128.63410122566711
 20
85.787445175745233
 11
128.60071374755898
 21
85.839650275634995
  0
LINE
  8
_0-0_0
  6
CONTINUOUS
 62
    4
 10
128.60071374755898
 20
85.839650275634995
 11
128.55907779055178
 21
85.890051291386044
  0
LINE
  8
_0-0_0
  6
CONTINUOUS
 62
    4
 10
128.55907779055178
 20
85.890051291386044
 11
128.51079340112756
 21
85.936711340225884
  0
LINE
  8
_0-0_0
  6
CONTINUOUS
 62
    4
 10
128.51079340112756
 20
85.936711340225884
 11
128.4577161212892
 21
85.977837302634725
  0
LINE
  8
_0-0_0
  6
CONTINUOUS
 62
    4
 10
128.4577161212892
 20
85.977837302634725
 11
128.40188568113808
 21
86.01184873096463
  0
LINE
  8
_0-0_0
  6
CONTINUOUS
 62
    4
 10
128.40188568113808
 20
86.01184873096463
 11
128.34544761317738
 21
86.037438585075506
  0
LINE
  8
_0-0_0
  6
CONTINUOUS
 62
    4
 10
128.34544761317738
 20
86.037438585075506
 11
128.29057080070925
 21
86.05362346124457
  0
LINE
  8
_0-0_0
  6
CONTINUOUS
 62
    4
 10
128.29057080070925
 20
86.05362346124457
 11
128.23936412885996
 21
86.059781383735753
  0
LINE
  8
_0-0_0
  6
CONTINUOUS
 62
    4
 10
128.23936412885996
 20
86.059781383735753
 11
128.19379544131334
 21
86.055675707066257
  0
LINE
  8
_0-0_0
  6
CONTINUOUS
 62
    4
 10
128.19379544131334
 20
86.055675707066257
 11
128.15561591717596
 21
86.041464210065897
  0
LINE
  8
_0-0_0
  6
CONTINUOUS
 62
    4
 10
128.15561591717596
 20
86.041464210065897
 11
128.12629277414817
 21
86.017693032605166
  0
LINE
  8
_0-0_0
  6
CONTINUOUS
 62
    4
 10
128.12629277414817
 20
86.017693032605166
 11
128.10695288417264
 21
85.985275687706235
  0
LINE
  8
_0-0_0
  6
CONTINUOUS
 62
    4
 10
128.10695288417264
 20
85.985275687706235
 11
128.09833946837534
 21
85.945457955735037
  0
LINE
  8
_0-0_0
  6
CONTINUOUS
 62
    4
 10
128.09833946837534
 20
85.945457955735037
 11
128.10078353549579
 21
85.89977000982617
  0
LINE
  8
_0-0_0
  6
CONTINUOUS
 62
    4
 10
128.10078353549579
 20
85.89977000982617
 11
128.11419116140314
 21
85.849967612104592
  0
LINE
  8
_0-0_0
  6
CONTINUOUS
 62
    4
 10
128.11419116140314
 20
85.849967612104592
 11
128.13804709855503
 21
85.797964640785722
  0
LINE
  8
_0-0_0
  6
CONTINUOUS
 62
    4
 10
128.13804709855503
 20
85.797964640785722
 11
128.17143457666316
 21
85.745759540895961
  0
LINE
  8
_0-0_0
  6
CONTINUOUS
 62
    4
 10
128.17143457666316
 20
85.745759540895961
 11
128.21307053366945
 21
85.695358525155825
  0
LINE
  8
_0-0_0
  6
CONTINUOUS
 62
    4
 10
128.21307053366945
 20
85.695358525155825
 11
128.26135492309459
 21
85.648698476315985
  0
LINE
  8
_0-0_0
  6
CONTINUOUS
 62
    4
 10
128.26135492309459
 20
85.648698476315985
 11
128.31443220293295
 21
85.60757251389623
  0
LINE
  8
_0-0_0
  6
CONTINUOUS
 62
    4
 10
128.31443220293295
 20
85.60757251389623
 11
128.37026264308406
 21
85.57356108557542
  0
LINE
  8
_0-0_0
  6
CONTINUOUS
 62
    4
 10
128.37026264308406
 20
85.57356108557542
 11
128.42670071104476
 21
85.547971231455449
  0
LINE
  8
_0-0_0
  6
CONTINUOUS
 62
    4
 10
128.42670071104476
 20
85.547971231455449
 11
128.4815775235129
 21
85.53178635529548
  0
LINE
  8
_0-0_0
  6
CONTINUOUS
 62
    4
 10
128.4815775235129
 20
85.53178635529548
 11
128.53278419536218
 21
85.525628432795202
  0
LINE
  8
_0-0_0
  6
CONTINUOUS
 62
    4
 10
128.53278419536218
 20
85.525628432795202
 11
128.5783528829088
 21
85.529734109475612
  0
LINE
  8
_0-0_0
  6
CONTINUOUS
 62
    4
 10
128.5783528829088
 20
85.529734109475612
 11
128.61653240704618
 21
85.543945606475972
  0
LINE
  8
_0-0_0
  6
CONTINUOUS
 62
    4
 10
128.61653240704618
 20
85.543945606475972
 11
128.64585555007397
 21
85.567716783934884
  0
LINE
  8
_0-0_0
  6
CONTINUOUS
 62
    4
 10
125.25986246540833
 20
84.161851821085293
 11
125.27920235538386
 21
84.194269165995138
  0
LINE
  8
_0-0_0
  6
CONTINUOUS
 62
    4
 10
125.27920235538386
 20
84.194269165995138
 11
125.28781577118116
 21
84.234086897955422
  0
LINE
  8
_0-0_0
  6
CONTINUOUS
 62
    4
 10
125.28781577118116
 20
84.234086897955422
 11
125.28537170406162
 21
84.279774843866107
  0
LINE
  8
_0-0_0
  6
CONTINUOUS
 62
    4
 10
125.28537170406162
 20
84.279774843866107
 11
125.27196407815336
 21
84.329577241585866
  0
LINE
  8
_0-0_0
  6
CONTINUOUS
 62
    4
 10
125.27196407815336
 20
84.329577241585866
 11
125.24810814100147
 21
84.381580212904737
  0
LINE
  8
_0-0_0
  6
CONTINUOUS
 62
    4
 10
125.24810814100147
 20
84.381580212904737
 11
125.21472066289334
 21
84.433785312794498
  0
LINE
  8
_0-0_0
  6
CONTINUOUS
 62
    4
 10
125.21472066289334
 20
84.433785312794498
 11
125.17308470588705
 21
84.484186328545547
  0
LINE
  8
_0-0_0
  6
CONTINUOUS
 62
    4
 10
125.17308470588705
 20
84.484186328545547
 11
125.12480031646191
 21
84.530846377376292
  0
LINE
  8
_0-0_0
  6
CONTINUOUS
 62
    4
 10
125.12480031646191
 20
84.530846377376292
 11
125.07172303662355
 21
84.571972339796048
  0
LINE
  8
_0-0_0
  6
CONTINUOUS
 62
    4
 10
125.07172303662355
 20
84.571972339796048
 11
125.01589259647244
 21
84.605983768125952
  0
LINE
  8
_0-0_0
  6
CONTINUOUS
 62
    4
 10
125.01589259647244
 20
84.605983768125952
 11
124.95945452851265
 21
84.63157362223501
  0
LINE
  8
_0-0_0
  6
CONTINUOUS
 62
    4
 10
124.95945452851265
 20
84.63157362223501
 11
124.9045777160436
 21
84.647758498394978
  0
LINE
  8
_0-0_0
  6
CONTINUOUS
 62
    4
 10
124.9045777160436
 20
84.647758498394978
 11
124.85337104419432
 21
84.653916420895257
  0
LINE
  8
_0-0_0
  6
CONTINUOUS
 62
    4
 10
124.85337104419432
 20
84.653916420895257
 11
124.80780235664679
 21
84.649810744214847
  0
LINE
  8
_0-0_0
  6
CONTINUOUS
 62
    4
 10
124.80780235664679
 20
84.649810744214847
 11
124.76962283251032
 21
84.6355992472254
  0
LINE
  8
_0-0_0
  6
CONTINUOUS
 62
    4
 10
124.76962283251032
 20
84.6355992472254
 11
124.74029968948253
 21
84.61182806976467
  0
LINE
  8
_0-0_0
  6
CONTINUOUS
 62
    4
 10
124.74029968948253
 20
84.61182806976467
 11
124.720959799507
 21
84.579410724854824
  0
LINE
  8
_0-0_0
  6
CONTINUOUS
 62
    4
 10
124.720959799507
 20
84.579410724854824
 11
124.71234638370879
 21
84.539592992894541
  0
LINE
  8
_0-0_0
  6
CONTINUOUS
 62
    4
 10
124.71234638370879
 20
84.539592992894541
 11
124.71479045083015
 21
84.493905046985674
  0
LINE
  8
_0-0_0
  6
CONTINUOUS
 62
    4
 10
124.71479045083015
 20
84.493905046985674
 11
124.7281980767375
 21
84.444102649265915
  0
LINE
  8
_0-0_0
  6
CONTINUOUS
 62
    4
 10
124.7281980767375
 20
84.444102649265915
 11
124.75205401388939
 21
84.392099677945225
  0
LINE
  8
_0-0_0
  6
CONTINUOUS
 62
    4
 10
124.75205401388939
 20
84.392099677945225
 11
124.78544149199752
 21
84.339894578055464
  0
LINE
  8
_0-0_0
  6
CONTINUOUS
 62
    4
 10
124.78544149199752
 20
84.339894578055464
 11
124.82707744900381
 21
84.289493562306234
  0
LINE
  8
_0-0_0
  6
CONTINUOUS
 62
    4
 10
124.82707744900381
 20
84.289493562306234
 11
124.87536183842894
 21
84.242833513475489
  0
LINE
  8
_0-0_0
  6
CONTINUOUS
 62
    4
 10
124.87536183842894
 20
84.242833513475489
 11
124.92843911826731
 21
84.201707551055733
  0
LINE
  8
_0-0_0
  6
CONTINUOUS
 62
    4
 10
124.92843911826731
 20
84.201707551055733
 11
124.98426955841842
 21
84.167696122734924
  0
LINE
  8
_0-0_0
  6
CONTINUOUS
 62
    4
 10
124.98426955841842
 20
84.167696122734924
 11
125.04070762637912
 21
84.142106268614953
  0
LINE
  8
_0-0_0
  6
CONTINUOUS
 62
    4
 10
125.04070762637912
 20
84.142106268614953
 11
125.09558443884725
 21
84.125921392454984
  0
LINE
  8
_0-0_0
  6
CONTINUOUS
 62
    4
 10
125.09558443884725
 20
84.125921392454984
 11
125.14679111069654
 21
84.119763469954705
  0
LINE
  8
_0-0_0
  6
CONTINUOUS
 62
    4
 10
125.14679111069654
 20
84.119763469954705
 11
125.19235979824316
 21
84.123869146635116
  0
LINE
  8
_0-0_0
  6
CONTINUOUS
 62
    4
 10
125.19235979824316
 20
84.123869146635116
 11
125.23053932238054
 21
84.138080643624562
  0
LINE
  8
_0-0_0
  6
CONTINUOUS
 62
    4
 10
125.23053932238054
 20
84.138080643624562
 11
125.25986246540833
 21
84.161851821085293
  0
LINE
  8
_0-0_0
  6
CONTINUOUS
 62
    4
 10
141.27607759617877
 20
78.418436726446089
 11
141.27607759617877
 21
78.662675583014789
  0
LINE
  8
_0-0_0
  6
CONTINUOUS
 62
    4
 10
141.27607759617877
 20
78.662675583014789
 11
140.69997335949211
 21
78.662675583014789
  0
LINE
  8
_0-0_0
  6
CONTINUOUS
 62
    4
 10
140.69997335949211
 20
78.662675583014789
 11
140.1936995784381
 21
78.33120862499527
  0
LINE
  8
_0-0_0
  6
CONTINUOUS
 62
    4
 10
140.1936995784381
 20
78.33120862499527
 11
140.1936995784381
 21
75.906266369614968
  0
LINE
  8
_0-0_0
  6
CONTINUOUS
 62
    4
 10
140.1936995784381
 20
75.906266369614968
 11
140.1936995784381
 21
75.714364546425713
  0
LINE
  8
_0-0_0
  6
CONTINUOUS
 62
    4
 10
117.16857274244376
 20
89.7694865817557
 11
119.31432713373124
 21
92.306872268525694
  0
ENDSEC
  0
EOF
