  0
SECTION
  2
HEADER
  9
$ACADVER
  1
AC1015
  9
$ACADMAINTVER
 70
    20
  9
$DWGCODEPAGE
  3
ANSI_932
  9
$INSBASE
 10
0.0
 20
0.0
 30
0.0
  9
$EXTMIN
 10
2934.832905389878
 20
-85084.89877785343
 30
-0.0000000349181948
  9
$EXTMAX
 10
47464.89270253212
 20
-77793.87355008172
 30
0.0000000814935746
  9
$LIMMIN
 10
0.0
 20
0.0
  9
$LIMMAX
 10
59400.0
 20
42000.0
  9
$ORTHOMODE
 70
     0
  9
$REGENMODE
 70
     1
  9
$FILLMODE
 70
     1
  9
$QTEXTMODE
 70
     0
  9
$MIRRTEXT
 70
     1
  9
$LTSCALE
 40
100.0
  9
$ATTMODE
 70
     1
  9
$TEXTSIZE
 40
300.0
  9
$TRACEWID
 40
0.05
  9
$TEXTSTYLE
  7
スタイル1
  9
$CLAYER
  8
器具
  9
$CELTYPE
  6
ByLayer
  9
$CECOLOR
 62
   256
  9
$CELTSCALE
 40
1.0
  9
$DISPSILH
 70
     0
  9
$DIMSCALE
 40
100.0
  9
$DIMASZ
 40
2.0
  9
$DIMEXO
 40
2.0
  9
$DIMDLI
 40
0.38
  9
$DIMRND
 40
0.0
  9
$DIMDLE
 40
0.0
  9
$DIMEXE
 40
0.18
  9
$DIMTP
 40
0.0
  9
$DIMTM
 40
0.0
  9
$DIMTXT
 40
2.0
  9
$DIMCEN
 40
0.09
  9
$DIMTSZ
 40
0.0
  9
$DIMTOL
 70
     0
  9
$DIMLIM
 70
     0
  9
$DIMTIH
 70
     0
  9
$DIMTOH
 70
     1
  9
$DIMSE1
 70
     0
  9
$DIMSE2
 70
     0
  9
$DIMTAD
 70
     1
  9
$DIMZIN
 70
     0
  9
$DIMBLK
  1
Open30
  9
$DIMASO
 70
     1
  9
$DIMSHO
 70
     1
  9
$DIMPOST
  1

  9
$DIMAPOST
  1

  9
$DIMALT
 70
     0
  9
$DIMALTD
 70
     2
  9
$DIMALTF
 40
25.4
  9
$DIMLFAC
 40
1.0
  9
$DIMTOFL
 70
     0
  9
$DIMTVP
 40
0.0
  9
$DIMTIX
 70
     0
  9
$DIMSOXD
 70
     0
  9
$DIMSAH
 70
     0
  9
$DIMBLK1
  1

  9
$DIMBLK2
  1

  9
$DIMSTYLE
  2
STANDARD
  9
$DIMCLRD
 70
     0
  9
$DIMCLRE
 70
     0
  9
$DIMCLRT
 70
     0
  9
$DIMTFAC
 40
1.0
  9
$DIMGAP
 40
1.0
  9
$DIMJUST
 70
     0
  9
$DIMSD1
 70
     0
  9
$DIMSD2
 70
     0
  9
$DIMTOLJ
 70
     1
  9
$DIMTZIN
 70
     0
  9
$DIMALTZ
 70
     0
  9
$DIMALTTZ
 70
     0
  9
$DIMUPT
 70
     0
  9
$DIMDEC
 70
     1
  9
$DIMTDEC
 70
     1
  9
$DIMALTU
 70
     2
  9
$DIMALTTD
 70
     2
  9
$DIMTXSTY
  7
STANDARD
  9
$DIMAUNIT
 70
     0
  9
$DIMADEC
 70
     0
  9
$DIMALTRND
 40
0.0
  9
$DIMAZIN
 70
     0
  9
$DIMDSEP
 70
    46
  9
$DIMATFIT
 70
     3
  9
$DIMFRAC
 70
     0
  9
$DIMLDRBLK
  1
Open30
  9
$DIMLUNIT
 70
     2
  9
$DIMLWD
 70
    -2
  9
$DIMLWE
 70
    -2
  9
$DIMTMOVE
 70
     0
  9
$LUNITS
 70
     2
  9
$LUPREC
 70
     4
  9
$SKETCHINC
 40
0.1
  9
$FILLETRAD
 40
0.0
  9
$AUNITS
 70
     0
  9
$AUPREC
 70
     0
  9
$MENU
  1
acad
  9
$ELEVATION
 40
0.0
  9
$PELEVATION
 40
0.0
  9
$THICKNESS
 40
0.0
  9
$LIMCHECK
 70
     0
  9
$CHAMFERA
 40
0.0
  9
$CHAMFERB
 40
0.0
  9
$CHAMFERC
 40
0.0
  9
$CHAMFERD
 40
0.0
  9
$SKPOLY
 70
     0
  9
$TDCREATE
 40
2426945.499536991
  9
$TDUCREATE
 40
2426945.124536991
  9
$TDUPDATE
 40
2456245.618412361
  9
$TDUUPDATE
 40
2456245.243412361
  9
$TDINDWG
 40
1.7133791435
  9
$TDUSRTIMER
 40
1.7133772917
  9
$USRTIMER
 70
     1
  9
$ANGBASE
 50
0.0
  9
$ANGDIR
 70
     0
  9
$PDMODE
 70
     0
  9
$PDSIZE
 40
0.0
  9
$PLINEWID
 40
0.0
  9
$SPLFRAME
 70
     0
  9
$SPLINETYPE
 70
     6
  9
$SPLINESEGS
 70
     8
  9
$HANDSEED
  5
15242
  9
$SURFTAB1
 70
     6
  9
$SURFTAB2
 70
     6
  9
$SURFTYPE
 70
     6
  9
$SURFU
 70
     6
  9
$SURFV
 70
     6
  9
$UCSBASE
  2

  9
$UCSNAME
  2

  9
$UCSORG
 10
0.0
 20
0.0
 30
0.0
  9
$UCSXDIR
 10
1.0
 20
0.0
 30
0.0
  9
$UCSYDIR
 10
0.0
 20
1.0
 30
0.0
  9
$UCSORTHOREF
  2

  9
$UCSORTHOVIEW
 70
     0
  9
$UCSORGTOP
 10
0.0
 20
0.0
 30
0.0
  9
$UCSORGBOTTOM
 10
0.0
 20
0.0
 30
0.0
  9
$UCSORGLEFT
 10
0.0
 20
0.0
 30
0.0
  9
$UCSORGRIGHT
 10
0.0
 20
0.0
 30
0.0
  9
$UCSORGFRONT
 10
0.0
 20
0.0
 30
0.0
  9
$UCSORGBACK
 10
0.0
 20
0.0
 30
0.0
  9
$PUCSBASE
  2

  9
$PUCSNAME
  2

  9
$PUCSORG
 10
0.0
 20
0.0
 30
0.0
  9
$PUCSXDIR
 10
1.0
 20
0.0
 30
0.0
  9
$PUCSYDIR
 10
0.0
 20
1.0
 30
0.0
  9
$PUCSORTHOREF
  2

  9
$PUCSORTHOVIEW
 70
     0
  9
$PUCSORGTOP
 10
0.0
 20
0.0
 30
0.0
  9
$PUCSORGBOTTOM
 10
0.0
 20
0.0
 30
0.0
  9
$PUCSORGLEFT
 10
0.0
 20
0.0
 30
0.0
  9
$PUCSORGRIGHT
 10
0.0
 20
0.0
 30
0.0
  9
$PUCSORGFRONT
 10
0.0
 20
0.0
 30
0.0
  9
$PUCSORGBACK
 10
0.0
 20
0.0
 30
0.0
  9
$USERI1
 70
     0
  9
$USERI2
 70
     0
  9
$USERI3
 70
     0
  9
$USERI4
 70
     0
  9
$USERI5
 70
     0
  9
$USERR1
 40
0.0
  9
$USERR2
 40
0.0
  9
$USERR3
 40
0.0
  9
$USERR4
 40
0.0
  9
$USERR5
 40
0.0
  9
$WORLDVIEW
 70
     1
  9
$SHADEDGE
 70
     3
  9
$SHADEDIF
 70
    70
  9
$TILEMODE
 70
     1
  9
$MAXACTVP
 70
    16
  9
$PINSBASE
 10
0.0
 20
0.0
 30
0.0
  9
$PLIMCHECK
 70
     0
  9
$PEXTMIN
 10
1.000000000000000E+20
 20
1.000000000000000E+20
 30
1.000000000000000E+20
  9
$PEXTMAX
 10
-1.000000000000000E+20
 20
-1.000000000000000E+20
 30
-1.000000000000000E+20
  9
$PLIMMIN
 10
0.0
 20
0.0
  9
$PLIMMAX
 10
12.0
 20
9.0
  9
$UNITMODE
 70
     0
  9
$VISRETAIN
 70
     0
  9
$PLINEGEN
 70
     1
  9
$PSLTSCALE
 70
     0
  9
$TREEDEPTH
 70
  3020
  9
$CMLSTYLE
  2
Standard
  9
$CMLJUST
 70
     0
  9
$CMLSCALE
 40
1.0
  9
$PROXYGRAPHICS
 70
     1
  9
$MEASUREMENT
 70
     0
  9
$CELWEIGHT
370
    -1
  9
$ENDCAPS
280
     0
  9
$JOINSTYLE
280
     0
  9
$LWDISPLAY
290
     0
  9
$INSUNITS
 70
     0
  9
$HYPERLINKBASE
  1

  9
$STYLESHEET
  1
aclt.ctb
  9
$XEDIT
290
     1
  9
$CEPSNTYPE
380
     0
  9
$PSTYLEMODE
290
     1
  9
$FINGERPRINTGUID
  2
{8637CE02-3222-11D7-99D2-0040267E6A47}
  9
$VERSIONGUID
  2
{6E1E3AF3-1AA2-4D43-8DC4-46AF4F3F7D1C}
  9
$EXTNAMES
290
     1
  9
$PSVPSCALE
 40
0.0
  9
$OLESTARTUP
290
     0
  0
ENDSEC
  0
SECTION
  2
CLASSES
  0
CLASS
  1
ACDBDICTIONARYWDFLT
  2
AcDbDictionaryWithDefault
  3
ObjectDBX Classes
 90
        0
280
     0
281
     0
  0
CLASS
  1
ACDBPLACEHOLDER
  2
AcDbPlaceHolder
  3
ObjectDBX Classes
 90
        0
280
     0
281
     0
  0
CLASS
  1
LAYOUT
  2
AcDbLayout
  3
ObjectDBX Classes
 90
        0
280
     0
281
     0
  0
CLASS
  1
DICTIONARYVAR
  2
AcDbDictionaryVar
  3
ObjectDBX Classes
 90
        0
280
     0
281
     0
  0
CLASS
  1
TABLESTYLE
  2
AcDbTableStyle
  3
ObjectDBX Classes
 90
     2047
280
     0
281
     0
  0
CLASS
  1
SORTENTSTABLE
  2
AcDbSortentsTable
  3
ObjectDBX Classes
 90
        0
280
     0
281
     0
  0
ENDSEC
  0
SECTION
  2
TABLES
  0
TABLE
  2
VPORT
  5
1EF1
330
0
100
AcDbSymbolTable
 70
     3
  0
VPORT
  5
1523C
330
1EF1
100
AcDbSymbolTableRecord
100
AcDbViewportTableRecord
  2
*Active
 70
     0
 10
0.0
 20
0.0
 11
1.0
 21
1.0
 12
21267.78758937304
 22
-80058.87552438396
 13
0.0
 23
0.0
 14
1000.0
 24
1000.0
 15
1000.0
 25
1000.0
 16
0.0
 26
0.0
 36
1.0
 17
0.0
 27
0.0
 37
0.0
 40
14961.33506378112
 41
1.652054794520547
 42
50.0
 43
0.0
 44
0.0
 50
0.0
 51
0.0
 71
     0
 72
   100
 73
     1
 74
     1
 75
     0
 76
     0
 77
     0
 78
     0
281
     0
 65
     1
110
0.0
120
0.0
130
0.0
111
1.0
121
0.0
131
0.0
112
0.0
122
1.0
132
0.0
 79
     0
146
0.0
  0
ENDTAB
  0
TABLE
  2
LTYPE
  5
1EEE
330
0
100
AcDbSymbolTable
 70
     8
  0
LTYPE
  5
1EFC
330
1EEE
100
AcDbSymbolTableRecord
100
AcDbLinetypeTableRecord
  2
ByBlock
 70
     0
  3

 72
    65
 73
     0
 40
0.0
  0
LTYPE
  5
1EFD
330
1EEE
100
AcDbSymbolTableRecord
100
AcDbLinetypeTableRecord
  2
ByLayer
 70
     0
  3

 72
    65
 73
     0
 40
0.0
  0
LTYPE
  5
1EFE
330
1EEE
100
AcDbSymbolTableRecord
100
AcDbLinetypeTableRecord
  2
CONTINUOUS
 70
     0
  3
Solid line
 72
    65
 73
     0
 40
0.0
  0
LTYPE
  5
1F0C
330
1EEE
100
AcDbSymbolTableRecord
100
AcDbLinetypeTableRecord
  2
HIDDEN
 70
     0
  3
__ __ __ __ __ __ __ __ __ __ __ __ __ __ __ __
 72
    65
 73
     5
 40
8.0
 49
1.0
 74
     0
 49
-2.0
 74
     0
 49
2.0
 74
     0
 49
-2.0
 74
     0
 49
1.0
 74
     0
  0
LTYPE
  5
1F0D
330
1EEE
100
AcDbSymbolTableRecord
100
AcDbLinetypeTableRecord
  2
DOT
 70
     0
  3
. . . . . . . . . . . . . . . . . . . . . . . .
 72
    65
 73
     3
 40
1.6
 49
0.4
 74
     0
 49
-0.8
 74
     0
 49
0.4
 74
     0
  0
LTYPE
  5
1F0E
330
1EEE
100
AcDbSymbolTableRecord
100
AcDbLinetypeTableRecord
  2
CENTER
 70
     0
  3
____ _ ____ _ ____ _ ____ _ ____ _ ____ _ ____ 
 72
    65
 73
     5
 40
12.0
 49
5.0
 74
     0
 49
-0.8
 74
     0
 49
0.4
 74
     0
 49
-0.8
 74
     0
 49
5.0
 74
     0
  0
LTYPE
  5
1F0F
330
1EEE
100
AcDbSymbolTableRecord
100
AcDbLinetypeTableRecord
  2
DIVIDE
 70
     0
  3
____ . . ____ . . ____ . . ____ . . ____ . . __
 72
    65
 73
     7
 40
13.2
 49
5.0
 74
     0
 49
-0.8
 74
     0
 49
0.4
 74
     0
 49
-0.8
 74
     0
 49
0.4
 74
     0
 49
-0.8
 74
     0
 49
5.0
 74
     0
  0
LTYPE
  5
BC93
330
1EEE
100
AcDbSymbolTableRecord
100
AcDbLinetypeTableRecord
  2
DASH_CENTER
 70
     0
  3
Dash_Center
 72
    65
 73
     4
 40
36.0
 49
24.0
 74
     0
 49
-3.0
 74
     0
 49
6.0
 74
     0
 49
-3.0
 74
     0
  0
LTYPE
  5
CA49
330
1EEE
100
AcDbSymbolTableRecord
100
AcDbLinetypeTableRecord
  2
STYLE_01
 70
     0
  3

 72
    65
 73
     2
 40
0.125
 49
0.0625
 74
     0
 49
-0.0625
 74
     0
  0
LTYPE
  5
CA4A
330
1EEE
100
AcDbSymbolTableRecord
100
AcDbLinetypeTableRecord
  2
STYLE_07
 70
     0
  3

 72
    65
 73
     2
 40
0.125
 49
0.03125
 74
     0
 49
-0.09375
 74
     0
  0
ENDTAB
  0
TABLE
  2
LAYER
  5
1EEB
102
{ACAD_XDICTIONARY
360
9A3A
102
}
330
0
100
AcDbSymbolTable
 70
    13
  0
LAYER
  5
1EF9
330
1EEB
100
AcDbSymbolTableRecord
100
AcDbLayerTableRecord
  2
0
 70
     0
 62
     7
  6
CONTINUOUS
370
    -3
390
1EF8
  0
LAYER
  5
4075
330
1EEB
100
AcDbSymbolTableRecord
100
AcDbLayerTableRecord
  2
記号
 70
     0
 62
     4
  6
CONTINUOUS
370
    -3
390
1EF8
  0
LAYER
  5
42A3
330
1EEB
100
AcDbSymbolTableRecord
100
AcDbLayerTableRecord
  2
Defpoints
 70
     4
 62
     7
  6
CONTINUOUS
290
     0
370
    -3
390
1EF8
  0
LAYER
  5
58FC
330
1EEB
100
AcDbSymbolTableRecord
100
AcDbLayerTableRecord
  2
リスト
 70
     0
 62
     8
  6
CONTINUOUS
370
    13
390
1EF8
  0
LAYER
  5
8CB6
330
1EEB
100
AcDbSymbolTableRecord
100
AcDbLayerTableRecord
  2
器具
 70
     0
 62
     4
  6
CONTINUOUS
370
    -3
390
1EF8
  0
LAYER
  5
8CB7
330
1EEB
100
AcDbSymbolTableRecord
100
AcDbLayerTableRecord
  2
レイヤー_1
 70
     0
 62
   160
  6
CONTINUOUS
370
    -3
390
1EF8
  0
LAYER
  5
9466
330
1EEB
100
AcDbSymbolTableRecord
100
AcDbLayerTableRecord
  2
画層1
 70
     4
 62
   160
  6
CONTINUOUS
370
    -3
390
1EF8
1001
AcAecLayerStandard
1000

1000

  0
LAYER
  5
9F35
330
1EEB
100
AcDbSymbolTableRecord
100
AcDbLayerTableRecord
  2
下書き
 70
     0
 62
     6
  6
CONTINUOUS
370
    -3
390
1EF8
1001
AcAecLayerStandard
1000

1000

  0
LAYER
  5
A81A
330
1EEB
100
AcDbSymbolTableRecord
100
AcDbLayerTableRecord
  2
007
 70
     0
 62
     1
  6
CONTINUOUS
370
    -3
390
1EF8
  0
LAYER
  5
BC94
330
1EEB
100
AcDbSymbolTableRecord
100
AcDbLayerTableRecord
  2
図面
 70
     0
 62
     5
  6
CONTINUOUS
370
    -3
390
1EF8
  0
LAYER
  5
CA4B
330
1EEB
100
AcDbSymbolTableRecord
100
AcDbLayerTableRecord
  2
1
 70
     0
 62
     8
  6
CONTINUOUS
370
    -3
390
1EF8
1001
AcAecLayerStandard
1000

1000

  0
LAYER
  5
1246F
330
1EEB
100
AcDbSymbolTableRecord
100
AcDbLayerTableRecord
  2
寸法・文字
 70
     0
 62
     4
  6
CONTINUOUS
370
    13
390
1EF8
1001
AcAecLayerStandard
1000

1000

  0
LAYER
  5
13854
330
1EEB
100
AcDbSymbolTableRecord
100
AcDbLayerTableRecord
  2
製品
 70
     0
 62
     1
  6
CONTINUOUS
370
    -3
390
1EF8
1001
AcAecLayerStandard
1000

1000

  0
ENDTAB
  0
TABLE
  2
STYLE
  5
1EEC
330
0
100
AcDbSymbolTable
 70
    14
  0
STYLE
  5
1EFA
330
1EEC
100
AcDbSymbolTableRecord
100
AcDbTextStyleTableRecord
  2
STANDARD
 70
     0
 40
280.0
 41
1.0
 50
0.0
 71
     0
 42
280.0
  3
MS Gothic.ttf
  4

1001
ACAD
1000
MS Gothic
1071
    32817
  0
STYLE
  5
1F2D
330
1EEC
100
AcDbSymbolTableRecord
100
AcDbTextStyleTableRecord
  2
ＤＨＰ平成ゴシックW5
 70
     0
 40
1000.0
 41
1.0
 50
0.0
 71
     0
 42
1000.0
  3
txt
  4
extfont
  0
STYLE
  5
1F2E
330
1EEC
100
AcDbSymbolTableRecord
100
AcDbTextStyleTableRecord
  2
TATEDRACAD
 70
     4
 40
1000.0
 41
1.0
 50
0.0
 71
     0
 42
1000.0
  3
txt
  4
extfont
  0
STYLE
  5
1F2F
330
1EEC
100
AcDbSymbolTableRecord
100
AcDbTextStyleTableRecord
  2
ＤＨＰ平成ゴシックW51
 70
     0
 40
1000.0
 41
1.0
 50
0.0
 71
     0
 42
1000.0
  3
txt
  4
extfont
  0
STYLE
  5
1F30
330
1EEC
100
AcDbSymbolTableRecord
100
AcDbTextStyleTableRecord
  2
ＪＳＰゴシック
 70
     0
 40
1000.0
 41
1.0
 50
0.0
 71
     0
 42
1000.0
  3
txt
  4
extfont
  0
STYLE
  5
1F31
330
1EEC
100
AcDbSymbolTableRecord
100
AcDbTextStyleTableRecord
  2
ＭＳ_ゴシック
 70
     0
 40
1000.0
 41
1.0
 50
0.0
 71
     0
 42
1000.0
  3
txt
  4
extfont
  0
STYLE
  5
A258
330
1EEC
100
AcDbSymbolTableRecord
100
AcDbTextStyleTableRecord
  2
スタイル1
 70
     0
 40
300.0
 41
1.0
 50
0.0
 71
     0
 42
300.0
  3
MS Gothic.ttf
  4

1001
ACAD
1000
MS Gothic
1071
    32817
  0
STYLE
  5
A547
330
1EEC
100
AcDbSymbolTableRecord
100
AcDbTextStyleTableRecord
  2
WMF-ＭＳ Ｐゴシック0
 70
     0
 40
0.0
 41
1.0
 50
0.0
 71
     0
 42
280.0
  3
MS PGothic.ttf
  4

1001
ACAD
1000
MS PGothic
1071
    32816
  0
STYLE
  5
A58D
330
1EEC
100
AcDbSymbolTableRecord
100
AcDbTextStyleTableRecord
  2
WMF-System0
 70
     0
 40
0.0
 41
1.0
 50
0.0
 71
     0
 42
280.0
  3

  4

  0
STYLE
  5
A81B
330
1EEC
100
AcDbSymbolTableRecord
100
AcDbTextStyleTableRecord
  2
ＭＳ ゴシック
 70
     0
 40
450.0
 41
0.85
 50
0.0
 71
     0
 42
450.0
  3
MS Gothic.ttf
  4

1001
ACAD
1000
MS Gothic
1071
    32817
  0
STYLE
  5
CA4C
330
1EEC
100
AcDbSymbolTableRecord
100
AcDbTextStyleTableRecord
  2
_______
 70
     0
 40
0.0
 41
1.0
 50
0.0
 71
     0
 42
0.0
  3
MS Gothic.ttf
  4
ＭＳ ゴシック
1001
ACAD
1000
ＭＳ ゴシック
1071
        0
  0
STYLE
  5
14676
330
1EEC
100
AcDbSymbolTableRecord
100
AcDbTextStyleTableRecord
  2
ヒラギノ角ゴ Pro W3
 70
     0
 40
0.0
 41
1.0
 50
0.0
 71
     0
 42
0.0
  3
MS Gothic.ttf
  4

1001
ACAD
1000
MS Gothic
1071
    32817
  0
ENDTAB
  0
TABLE
  2
VIEW
  5
1EEF
330
0
100
AcDbSymbolTable
 70
     0
  0
ENDTAB
  0
TABLE
  2
UCS
  5
1EF0
330
0
100
AcDbSymbolTable
 70
     0
  0
ENDTAB
  0
TABLE
  2
APPID
  5
1EF2
330
0
100
AcDbSymbolTable
 70
     3
  0
APPID
  5
1EFB
330
1EF2
100
AcDbSymbolTableRecord
100
AcDbRegAppTableRecord
  2
ACAD
 70
     0
  0
APPID
  5
9467
330
1EF2
100
AcDbSymbolTableRecord
100
AcDbRegAppTableRecord
  2
AcAecLayerStandard
 70
     0
  0
APPID
  5
9D2E
330
1EF2
100
AcDbSymbolTableRecord
100
AcDbRegAppTableRecord
  2
ACAD_PSEXT
 70
     0
  0
ENDTAB
  0
TABLE
  2
DIMSTYLE
  5
1EF3
330
0
100
AcDbSymbolTable
 70
     3
100
AcDbDimStyleTable
 71
     1
340
1F32
  0
DIMSTYLE
105
1F32
330
1EF3
100
AcDbSymbolTableRecord
100
AcDbDimStyleTableRecord
  2
STANDARD
 70
     0
279
     2
340
1EFA
  0
ENDTAB
  0
TABLE
  2
BLOCK_RECORD
  5
1EEA
330
0
100
AcDbSymbolTable
 70
     5
  0
BLOCK_RECORD
  5
1F07
102
{ACAD_XDICTIONARY
360
980C
102
}
330
1EEA
100
AcDbSymbolTableRecord
100
AcDbBlockTableRecord
  2
*Model_Space
340
1F0A
  0
BLOCK_RECORD
  5
1F03
330
1EEA
100
AcDbSymbolTableRecord
100
AcDbBlockTableRecord
  2
*Paper_Space
340
1F06
  0
BLOCK_RECORD
  5
429C
330
1EEA
100
AcDbSymbolTableRecord
100
AcDbBlockTableRecord
  2
_Open30
340
0
  0
BLOCK_RECORD
  5
A543
330
1EEA
100
AcDbSymbolTableRecord
100
AcDbBlockTableRecord
  2
WMF0
340
0
  0
BLOCK_RECORD
  5
1384E
330
1EEA
100
AcDbSymbolTableRecord
100
AcDbBlockTableRecord
  2
_Open
340
0
  0
ENDTAB
  0
ENDSEC
  0
SECTION
  2
BLOCKS
  0
BLOCK
  5
1F08
330
1F07
100
AcDbEntity
  8
0
100
AcDbBlockBegin
  2
*Model_Space
 70
     0
 10
0.0
 20
0.0
 30
0.0
  3
*Model_Space
  1

  0
ENDBLK
  5
1F09
330
1F07
100
AcDbEntity
  8
0
100
AcDbBlockEnd
  0
BLOCK
  5
1F04
330
1F03
100
AcDbEntity
 67
     1
  8
0
100
AcDbBlockBegin
  2
*Paper_Space
 70
     0
 10
0.0
 20
0.0
 30
0.0
  3
*Paper_Space
  1

  0
ENDBLK
  5
1F05
330
1F03
100
AcDbEntity
 67
     1
  8
0
100
AcDbBlockEnd
  0
BLOCK
  5
42A0
330
429C
100
AcDbEntity
  8
0
100
AcDbBlockBegin
  2
_Open30
 70
     0
 10
0.0
 20
0.0
 30
0.0
  3
_Open30
  1

  0
LINE
  5
429D
330
429C
100
AcDbEntity
  8
記号
  6
DOT
 62
     0
370
    -2
100
AcDbLine
 10
-1.0
 20
0.26794919
 30
0.0
 11
0.0
 21
0.0
 31
0.0
  0
LINE
  5
429E
330
429C
100
AcDbEntity
  8
記号
  6
DOT
 62
     0
370
    -2
100
AcDbLine
 10
0.0
 20
0.0
 30
0.0
 11
-1.0
 21
-0.26794919
 31
0.0
  0
LINE
  5
429F
330
429C
100
AcDbEntity
  8
記号
  6
DOT
 62
     0
370
    -2
100
AcDbLine
 10
0.0
 20
0.0
 30
0.0
 11
-1.0
 21
0.0
 31
0.0
  0
ENDBLK
  5
42A1
330
429C
100
AcDbEntity
  8
0
100
AcDbBlockEnd
  0
BLOCK
  5
A546
330
A543
100
AcDbEntity
  8
0
 62
     7
370
     0
100
AcDbBlockBegin
  2
WMF0
 70
     0
 10
0.0
 20
0.0
 30
0.0
  3
WMF0
  1

  0
TEXT
  5
A548
330
A543
100
AcDbEntity
  8
0
 62
     7
370
     0
100
AcDbText
 10
4302.31530976598
 20
-1290.694592929794
 30
0.0
 40
894.8815844313239
  1
LEDﾀﾞｳﾝﾗｲﾄ
  7
WMF-ＭＳ Ｐゴシック0
100
AcDbText
  0
TEXT
  5
A54A
330
A543
100
AcDbEntity
  8
0
 62
     7
370
     0
100
AcDbText
 10
23920.87312229885
 20
-1290.694592929794
 30
0.0
 40
894.8815844313239
  1
LEDﾀﾞｳﾝﾗｲﾄ
  7
WMF-ＭＳ Ｐゴシック0
100
AcDbText
  0
TEXT
  5
A54B
330
A543
100
AcDbEntity
  8
0
 62
     7
370
     0
100
AcDbText
 10
43539.43093483171
 20
-1290.694592929794
 30
0.0
 40
894.8815844313239
  1
LEDﾀﾞｳﾝﾗｲﾄ
  7
WMF-ＭＳ Ｐゴシック0
100
AcDbText
  0
TEXT
  5
A54C
330
A543
100
AcDbEntity
  8
0
 62
     7
370
     0
100
AcDbText
 10
63157.98874736458
 20
-1290.694592929794
 30
0.0
 40
894.8815844313239
  1
LEDﾀﾞｳﾝﾗｲﾄ
  7
WMF-ＭＳ Ｐゴシック0
100
AcDbText
  0
TEXT
  5
A54D
330
A543
100
AcDbEntity
  8
0
 62
     7
370
     0
100
AcDbText
 10
1290.694592929794
 20
-2753.481798250227
 30
0.0
 40
894.8815844313239
  1
D1
  7
WMF-ＭＳ Ｐゴシック0
100
AcDbText
  0
TEXT
  5
A54E
330
A543
100
AcDbEntity
  8
0
 62
     7
370
     0
100
AcDbText
 10
4302.31530976598
 20
-2753.481798250227
 30
0.0
 40
894.8815844313239
  1
BML-26181WW-110
  7
WMF-ＭＳ Ｐゴシック0
100
AcDbText
  0
TEXT
  5
A54F
330
A543
100
AcDbEntity
  8
0
 62
     7
370
     0
100
AcDbText
 10
20909.25240546266
 20
-2753.481798250227
 30
0.0
 40
894.8815844313239
  1
D2
  7
WMF-ＭＳ Ｐゴシック0
100
AcDbText
  0
TEXT
  5
A550
330
A543
100
AcDbEntity
  8
0
 62
     7
370
     0
100
AcDbText
 10
23920.87312229885
 20
-2753.481798250227
 30
0.0
 40
894.8815844313239
  1
BML-26187WW-110
  7
WMF-ＭＳ Ｐゴシック0
100
AcDbText
  0
TEXT
  5
A551
330
A543
100
AcDbEntity
  8
0
 62
     7
370
     0
100
AcDbText
 10
40527.81021799553
 20
-2753.481798250227
 30
0.0
 40
894.8815844313239
  1
D3
  7
WMF-ＭＳ Ｐゴシック0
100
AcDbText
  0
TEXT
  5
A552
330
A543
100
AcDbEntity
  8
0
 62
     7
370
     0
100
AcDbText
 10
43539.43093483171
 20
-2753.481798250227
 30
0.0
 40
894.8815844313239
  1
BML-26199WW-110
  7
WMF-ＭＳ Ｐゴシック0
100
AcDbText
  0
TEXT
  5
A553
330
A543
100
AcDbEntity
  8
0
 62
     7
370
     0
100
AcDbText
 10
60146.36803052839
 20
-2753.481798250227
 30
0.0
 40
894.8815844313239
  1
D4
  7
WMF-ＭＳ Ｐゴシック0
100
AcDbText
  0
TEXT
  5
A554
330
A543
100
AcDbEntity
  8
0
 62
     7
370
     0
100
AcDbText
 10
63157.98874736458
 20
-2753.481798250227
 30
0.0
 40
894.8815844313239
  1
BML-26213WL-110
  7
WMF-ＭＳ Ｐゴシック0
100
AcDbText
  0
TEXT
  5
A555
330
A543
100
AcDbEntity
  8
0
 62
     7
370
     0
100
AcDbText
 10
9637.186293875796
 20
-4216.26900357066
 30
0.0
 40
894.8815844313239
  1
LED76W  (4500K)
  7
WMF-ＭＳ Ｐゴシック0
100
AcDbText
  0
TEXT
  5
A556
330
A543
100
AcDbEntity
  8
0
 62
     7
370
     0
100
AcDbText
 10
29255.74410640866
 20
-4216.26900357066
 30
0.0
 40
894.8815844313239
  1
LED54W  (4500K)
  7
WMF-ＭＳ Ｐゴシック0
100
AcDbText
  0
TEXT
  5
A557
330
A543
100
AcDbEntity
  8
0
 62
     7
370
     0
100
AcDbText
 10
48874.30191894153
 20
-4216.26900357066
 30
0.0
 40
894.8815844313239
  1
LED32W  (4500K)
  7
WMF-ＭＳ Ｐゴシック0
100
AcDbText
  0
TEXT
  5
A558
330
A543
100
AcDbEntity
  8
0
 62
     7
370
     0
100
AcDbText
 10
68492.8597314744
 20
-4216.26900357066
 30
0.0
 40
894.8815844313239
  1
LED17W  (2900K)
  7
WMF-ＭＳ Ｐゴシック0
100
AcDbText
  0
TEXT
  5
A559
330
A543
100
AcDbEntity
  8
0
 62
     7
370
     0
100
AcDbText
 10
4302.31530976598
 20
-20823.20609926735
 30
0.0
 40
894.8815844313239
  1
 
  7
WMF-ＭＳ Ｐゴシック0
100
AcDbText
  0
TEXT
  5
A55A
330
A543
100
AcDbEntity
  8
0
 62
     7
370
     0
100
AcDbText
 10
23920.87312229885
 20
-20823.20609926735
 30
0.0
 40
894.8815844313239
  1
 
  7
WMF-ＭＳ Ｐゴシック0
100
AcDbText
  0
TEXT
  5
A55B
330
A543
100
AcDbEntity
  8
0
 62
     7
370
     0
100
AcDbText
 10
43539.43093483171
 20
-20823.20609926735
 30
0.0
 40
894.8815844313239
  1
 
  7
WMF-ＭＳ Ｐゴシック0
100
AcDbText
  0
TEXT
  5
A55C
330
A543
100
AcDbEntity
  8
0
 62
     7
370
     0
100
AcDbText
 10
63157.98874736458
 20
-20823.20609926735
 30
0.0
 40
894.8815844313239
  1
 
  7
WMF-ＭＳ Ｐゴシック0
100
AcDbText
  0
TEXT
  5
A55D
330
A543
100
AcDbEntity
  8
0
 62
     7
370
     0
100
AcDbText
 10
4302.31530976598
 20
-24006.91942849417
 30
0.0
 40
894.8815844313239
  1
LED直管型ﾗｲﾄ
  7
WMF-ＭＳ Ｐゴシック0
100
AcDbText
  0
TEXT
  5
A55E
330
A543
100
AcDbEntity
  8
0
 62
     7
370
     0
100
AcDbText
 10
23920.87312229885
 20
-24006.91942849417
 30
0.0
 40
894.8815844313239
  1
LED軒下用ﾀﾞｳﾝﾗｲﾄ
  7
WMF-ＭＳ Ｐゴシック0
100
AcDbText
  0
TEXT
  5
A55F
330
A543
100
AcDbEntity
  8
0
 62
     7
370
     0
100
AcDbText
 10
43539.43093483171
 20
-24006.91942849417
 30
0.0
 40
894.8815844313239
  1
LEDｱｳﾄﾄﾞｱｽﾎﾟｯﾄﾗｲﾄ
  7
WMF-ＭＳ Ｐゴシック0
100
AcDbText
  0
TEXT
  5
A560
330
A543
100
AcDbEntity
  8
0
 62
     7
370
     0
100
AcDbText
 10
63157.98874736458
 20
-24006.91942849417
 30
0.0
 40
894.8815844313239
  1
LEDﾀﾞｳﾝﾗｲﾄ
  7
WMF-ＭＳ Ｐゴシック0
100
AcDbText
  0
TEXT
  5
A561
330
A543
100
AcDbEntity
  8
0
 62
     7
370
     0
100
AcDbText
 10
1376.740899125113
 20
-25469.7066338146
 30
0.0
 40
894.8815844313239
  1
F1
  7
WMF-ＭＳ Ｐゴシック0
100
AcDbText
  0
TEXT
  5
A562
330
A543
100
AcDbEntity
  8
0
 62
     7
370
     0
100
AcDbText
 10
4302.31530976598
 20
-25469.7066338146
 30
0.0
 40
894.8815844313239
  1
TBJKL-22006W
  7
WMF-ＭＳ Ｐゴシック0
100
AcDbText
  0
TEXT
  5
A563
330
A543
100
AcDbEntity
  8
0
 62
     7
370
     0
100
AcDbText
 10
20479.02087448607
 20
-25469.7066338146
 30
0.0
 40
894.8815844313239
  1
OD1
  7
WMF-ＭＳ Ｐゴシック0
100
AcDbText
  0
TEXT
  5
A564
330
A543
100
AcDbEntity
  8
0
 62
     7
370
     0
100
AcDbText
 10
23920.87312229885
 20
-25469.7066338146
 30
0.0
 40
894.8815844313239
  1
BML-26187WSW-110
  7
WMF-ＭＳ Ｐゴシック0
100
AcDbText
  0
TEXT
  5
A565
330
A543
100
AcDbEntity
  8
0
 62
     7
370
     0
100
AcDbText
 10
40097.57868701893
 20
-25469.7066338146
 30
0.0
 40
894.8815844313239
  1
OS1
  7
WMF-ＭＳ Ｐゴシック0
100
AcDbText
  0
TEXT
  5
A566
330
A543
100
AcDbEntity
  8
0
 62
     7
370
     0
100
AcDbText
 10
43539.43093483171
 20
-25469.7066338146
 30
0.0
 40
894.8815844313239
  1
BGSL-20045GW-20
  7
WMF-ＭＳ Ｐゴシック0
100
AcDbText
  0
TEXT
  5
A567
330
A543
100
AcDbEntity
  8
0
 62
     7
370
     0
100
AcDbText
 10
60576.59956150499
 20
-25469.7066338146
 30
0.0
 40
894.8815844313239
  1
0
  7
WMF-ＭＳ Ｐゴシック0
100
AcDbText
  0
TEXT
  5
A568
330
A543
100
AcDbEntity
  8
0
 62
     7
370
     0
100
AcDbText
 10
63157.98874736458
 20
-25469.7066338146
 30
0.0
 40
894.8815844313239
  1
BML-26160WW-120
  7
WMF-ＭＳ Ｐゴシック0
100
AcDbText
  0
TEXT
  5
A569
330
A543
100
AcDbEntity
  8
0
 62
     7
370
     0
100
AcDbText
 10
9637.186293875796
 20
-26932.49383913503
 30
0.0
 40
894.8815844313239
  1
LED38W  (4000K)
  7
WMF-ＭＳ Ｐゴシック0
100
AcDbText
  0
TEXT
  5
A56A
330
A543
100
AcDbEntity
  8
0
 62
     7
370
     0
100
AcDbText
 10
29255.74410640866
 20
-26932.49383913503
 30
0.0
 40
894.8815844313239
  1
LED54W  (4500K)
  7
WMF-ＭＳ Ｐゴシック0
100
AcDbText
  0
TEXT
  5
A56B
330
A543
100
AcDbEntity
  8
0
 62
     7
370
     0
100
AcDbText
 10
48874.30191894153
 20
-26932.49383913503
 30
0.0
 40
894.8815844313239
  1
LED68W  (4500K)
  7
WMF-ＭＳ Ｐゴシック0
100
AcDbText
  0
TEXT
  5
A56C
330
A543
100
AcDbEntity
  8
0
 62
     7
370
     0
100
AcDbText
 10
77613.76818817828
 20
-26932.49383913503
 30
0.0
 40
894.8815844313239
  1
0
  7
WMF-ＭＳ Ｐゴシック0
100
AcDbText
  0
TEXT
  5
A56D
330
A543
100
AcDbEntity
  8
0
 62
     7
370
     0
100
AcDbText
 10
4302.31530976598
 20
-46723.14426405853
 30
0.0
 40
894.8815844313239
  1
LEDﾀﾞｳﾝﾗｲﾄ
  7
WMF-ＭＳ Ｐゴシック0
100
AcDbText
  0
TEXT
  5
A56E
330
A543
100
AcDbEntity
  8
0
 62
     7
370
     0
100
AcDbText
 10
23920.87312229885
 20
-46723.14426405853
 30
0.0
 40
894.8815844313239
  1
LEDﾀﾞｳﾝﾗｲﾄ
  7
WMF-ＭＳ Ｐゴシック0
100
AcDbText
  0
TEXT
  5
A56F
330
A543
100
AcDbEntity
  8
0
 62
     7
370
     0
100
AcDbText
 10
43539.43093483171
 20
-46723.14426405853
 30
0.0
 40
894.8815844313239
  1
LEDﾀﾞｳﾝﾗｲﾄ
  7
WMF-ＭＳ Ｐゴシック0
100
AcDbText
  0
TEXT
  5
A570
330
A543
100
AcDbEntity
  8
0
 62
     7
370
     0
100
AcDbText
 10
63157.98874736458
 20
-46723.14426405853
 30
0.0
 40
894.8815844313239
  1
LEDﾀﾞｳﾝﾗｲﾄ
  7
WMF-ＭＳ Ｐゴシック0
100
AcDbText
  0
TEXT
  5
A571
330
A543
100
AcDbEntity
  8
0
 62
     7
370
     0
100
AcDbText
 10
1720.926123906392
 20
-48185.93146937897
 30
0.0
 40
894.8815844313239
  1
0
  7
WMF-ＭＳ Ｐゴシック0
100
AcDbText
  0
TEXT
  5
A572
330
A543
100
AcDbEntity
  8
0
 62
     7
370
     0
100
AcDbText
 10
4302.31530976598
 20
-48185.93146937897
 30
0.0
 40
894.8815844313239
  1
BML-26160WW-124
  7
WMF-ＭＳ Ｐゴシック0
100
AcDbText
  0
TEXT
  5
A573
330
A543
100
AcDbEntity
  8
0
 62
     7
370
     0
100
AcDbText
 10
21339.48393643926
 20
-48185.93146937897
 30
0.0
 40
894.8815844313239
  1
0
  7
WMF-ＭＳ Ｐゴシック0
100
AcDbText
  0
TEXT
  5
A574
330
A543
100
AcDbEntity
  8
0
 62
     7
370
     0
100
AcDbText
 10
23920.87312229885
 20
-48185.93146937897
 30
0.0
 40
894.8815844313239
  1
BML-26160WW-125
  7
WMF-ＭＳ Ｐゴシック0
100
AcDbText
  0
TEXT
  5
A575
330
A543
100
AcDbEntity
  8
0
 62
     7
370
     0
100
AcDbText
 10
40958.04174897213
 20
-48185.93146937897
 30
0.0
 40
894.8815844313239
  1
0
  7
WMF-ＭＳ Ｐゴシック0
100
AcDbText
  0
TEXT
  5
A576
330
A543
100
AcDbEntity
  8
0
 62
     7
370
     0
100
AcDbText
 10
43539.43093483171
 20
-48185.93146937897
 30
0.0
 40
894.8815844313239
  1
BML-26160WW-126
  7
WMF-ＭＳ Ｐゴシック0
100
AcDbText
  0
TEXT
  5
A577
330
A543
100
AcDbEntity
  8
0
 62
     7
370
     0
100
AcDbText
 10
60576.59956150499
 20
-48185.93146937897
 30
0.0
 40
894.8815844313239
  1
0
  7
WMF-ＭＳ Ｐゴシック0
100
AcDbText
  0
TEXT
  5
A578
330
A543
100
AcDbEntity
  8
0
 62
     7
370
     0
100
AcDbText
 10
63157.98874736458
 20
-48185.93146937897
 30
0.0
 40
894.8815844313239
  1
BML-26160WW-127
  7
WMF-ＭＳ Ｐゴシック0
100
AcDbText
  0
TEXT
  5
A579
330
A543
100
AcDbEntity
  8
0
 62
     7
370
     0
100
AcDbText
 10
18758.09475057967
 20
-49648.7186746994
 30
0.0
 40
894.8815844313239
  1
0
  7
WMF-ＭＳ Ｐゴシック0
100
AcDbText
  0
TEXT
  5
A57A
330
A543
100
AcDbEntity
  8
0
 62
     7
370
     0
100
AcDbText
 10
38376.65256311254
 20
-49648.7186746994
 30
0.0
 40
894.8815844313239
  1
0
  7
WMF-ＭＳ Ｐゴシック0
100
AcDbText
  0
TEXT
  5
A57B
330
A543
100
AcDbEntity
  8
0
 62
     7
370
     0
100
AcDbText
 10
57995.21037564541
 20
-49648.7186746994
 30
0.0
 40
894.8815844313239
  1
0
  7
WMF-ＭＳ Ｐゴシック0
100
AcDbText
  0
TEXT
  5
A57C
330
A543
100
AcDbEntity
  8
0
 62
     7
370
     0
100
AcDbText
 10
77613.76818817828
 20
-49648.7186746994
 30
0.0
 40
894.8815844313239
  1
0
  7
WMF-ＭＳ Ｐゴシック0
100
AcDbText
  0
TEXT
  5
A57D
330
A543
100
AcDbEntity
  8
0
 62
     7
370
     0
100
AcDbText
 10
4302.31530976598
 20
-69439.36909962291
 30
0.0
 40
894.8815844313239
  1
LEDﾀﾞｳﾝﾗｲﾄ
  7
WMF-ＭＳ Ｐゴシック0
100
AcDbText
  0
TEXT
  5
A57E
330
A543
100
AcDbEntity
  8
0
 62
     7
370
     0
100
AcDbText
 10
23920.87312229885
 20
-69439.36909962291
 30
0.0
 40
894.8815844313239
  1
LEDﾀﾞｳﾝﾗｲﾄ
  7
WMF-ＭＳ Ｐゴシック0
100
AcDbText
  0
TEXT
  5
A57F
330
A543
100
AcDbEntity
  8
0
 62
     7
370
     0
100
AcDbText
 10
43539.43093483171
 20
-69439.36909962291
 30
0.0
 40
894.8815844313239
  1
LEDﾀﾞｳﾝﾗｲﾄ
  7
WMF-ＭＳ Ｐゴシック0
100
AcDbText
  0
TEXT
  5
A580
330
A543
100
AcDbEntity
  8
0
 62
     7
370
     0
100
AcDbText
 10
63157.98874736458
 20
-69439.36909962291
 30
0.0
 40
894.8815844313239
  1
LEDﾀﾞｳﾝﾗｲﾄ
  7
WMF-ＭＳ Ｐゴシック0
100
AcDbText
  0
TEXT
  5
A581
330
A543
100
AcDbEntity
  8
0
 62
     7
370
     0
100
AcDbText
 10
1720.926123906392
 20
-70902.15630494334
 30
0.0
 40
894.8815844313239
  1
0
  7
WMF-ＭＳ Ｐゴシック0
100
AcDbText
  0
TEXT
  5
A582
330
A543
100
AcDbEntity
  8
0
 62
     7
370
     0
100
AcDbText
 10
18758.09475057967
 20
-70902.15630494334
 30
0.0
 40
894.8815844313239
  1
0
  7
WMF-ＭＳ Ｐゴシック0
100
AcDbText
  0
TEXT
  5
A583
330
A543
100
AcDbEntity
  8
0
 62
     7
370
     0
100
AcDbText
 10
21339.48393643926
 20
-70902.15630494334
 30
0.0
 40
894.8815844313239
  1
0
  7
WMF-ＭＳ Ｐゴシック0
100
AcDbText
  0
TEXT
  5
A584
330
A543
100
AcDbEntity
  8
0
 62
     7
370
     0
100
AcDbText
 10
38376.65256311254
 20
-70902.15630494334
 30
0.0
 40
894.8815844313239
  1
0
  7
WMF-ＭＳ Ｐゴシック0
100
AcDbText
  0
TEXT
  5
A585
330
A543
100
AcDbEntity
  8
0
 62
     7
370
     0
100
AcDbText
 10
40958.04174897213
 20
-70902.15630494334
 30
0.0
 40
894.8815844313239
  1
0
  7
WMF-ＭＳ Ｐゴシック0
100
AcDbText
  0
TEXT
  5
A586
330
A543
100
AcDbEntity
  8
0
 62
     7
370
     0
100
AcDbText
 10
57995.21037564541
 20
-70902.15630494334
 30
0.0
 40
894.8815844313239
  1
0
  7
WMF-ＭＳ Ｐゴシック0
100
AcDbText
  0
TEXT
  5
A587
330
A543
100
AcDbEntity
  8
0
 62
     7
370
     0
100
AcDbText
 10
60576.59956150499
 20
-70902.15630494334
 30
0.0
 40
894.8815844313239
  1
0
  7
WMF-ＭＳ Ｐゴシック0
100
AcDbText
  0
TEXT
  5
A588
330
A543
100
AcDbEntity
  8
0
 62
     7
370
     0
100
AcDbText
 10
77613.76818817828
 20
-70902.15630494334
 30
0.0
 40
894.8815844313239
  1
0
  7
WMF-ＭＳ Ｐゴシック0
100
AcDbText
  0
TEXT
  5
A589
330
A543
100
AcDbEntity
  8
0
 62
     7
370
     0
100
AcDbText
 10
18758.09475057967
 20
-72364.94351026378
 30
0.0
 40
894.8815844313239
  1
0
  7
WMF-ＭＳ Ｐゴシック0
100
AcDbText
  0
TEXT
  5
A58A
330
A543
100
AcDbEntity
  8
0
 62
     7
370
     0
100
AcDbText
 10
38376.65256311254
 20
-72364.94351026378
 30
0.0
 40
894.8815844313239
  1
0
  7
WMF-ＭＳ Ｐゴシック0
100
AcDbText
  0
TEXT
  5
A58B
330
A543
100
AcDbEntity
  8
0
 62
     7
370
     0
100
AcDbText
 10
57995.21037564541
 20
-72364.94351026378
 30
0.0
 40
894.8815844313239
  1
0
  7
WMF-ＭＳ Ｐゴシック0
100
AcDbText
  0
TEXT
  5
A58C
330
A543
100
AcDbEntity
  8
0
 62
     7
370
     0
100
AcDbText
 10
77613.76818817828
 20
-72364.94351026378
 30
0.0
 40
894.8815844313239
  1
0
  7
WMF-ＭＳ Ｐゴシック0
100
AcDbText
  0
POLYLINE
  5
A58E
330
A543
100
AcDbEntity
  8
0
 62
     7
370
     0
100
AcDb2dPolyline
 66
     1
 10
0.0
 20
0.0
 30
0.0
  0
VERTEX
  5
A58F
330
A58E
100
AcDbEntity
  8
0
 62
     7
370
     0
100
AcDbVertex
100
AcDb2dVertex
 10
4130.22269737534
 20
-1462.787205320433
 30
0.0
  0
VERTEX
  5
A590
330
A58E
100
AcDbEntity
  8
0
 62
     7
370
     0
100
AcDbVertex
100
AcDb2dVertex
 10
19704.60411872819
 20
-1462.787205320433
 30
0.0
  0
SEQEND
  5
A591
330
A58E
100
AcDbEntity
  8
0
 62
     7
370
     0
  0
POLYLINE
  5
A592
330
A543
100
AcDbEntity
  8
0
 62
     7
370
     0
100
AcDb2dPolyline
 66
     1
 10
0.0
 20
0.0
 30
0.0
  0
VERTEX
  5
A593
330
A592
100
AcDbEntity
  8
0
 62
     7
370
     0
100
AcDbVertex
100
AcDb2dVertex
 10
23748.78050990821
 20
-1462.787205320433
 30
0.0
  0
VERTEX
  5
A594
330
A592
100
AcDbEntity
  8
0
 62
     7
370
     0
100
AcDbVertex
100
AcDb2dVertex
 10
39323.16193126106
 20
-1462.787205320433
 30
0.0
  0
SEQEND
  5
A595
330
A592
100
AcDbEntity
  8
0
 62
     7
370
     0
  0
POLYLINE
  5
A596
330
A543
100
AcDbEntity
  8
0
 62
     7
370
     0
100
AcDb2dPolyline
 66
     1
 10
0.0
 20
0.0
 30
0.0
  0
VERTEX
  5
A597
330
A596
100
AcDbEntity
  8
0
 62
     7
370
     0
100
AcDbVertex
100
AcDb2dVertex
 10
43367.33832244107
 20
-1462.787205320433
 30
0.0
  0
VERTEX
  5
A598
330
A596
100
AcDbEntity
  8
0
 62
     7
370
     0
100
AcDbVertex
100
AcDb2dVertex
 10
58941.71974379392
 20
-1462.787205320433
 30
0.0
  0
SEQEND
  5
A599
330
A596
100
AcDbEntity
  8
0
 62
     7
370
     0
  0
POLYLINE
  5
A59A
330
A543
100
AcDbEntity
  8
0
 62
     7
370
     0
100
AcDb2dPolyline
 66
     1
 10
0.0
 20
0.0
 30
0.0
  0
VERTEX
  5
A59B
330
A59A
100
AcDbEntity
  8
0
 62
     7
370
     0
100
AcDbVertex
100
AcDb2dVertex
 10
4044.176391180021
 20
-86.04630619531958
 30
0.0
  0
VERTEX
  5
A59C
330
A59A
100
AcDbEntity
  8
0
 62
     7
370
     0
100
AcDbVertex
100
AcDb2dVertex
 10
4044.176391180021
 20
-4474.407922156618
 30
0.0
  0
SEQEND
  5
A59D
330
A59A
100
AcDbEntity
  8
0
 62
     7
370
     0
  0
POLYLINE
  5
A59E
330
A543
100
AcDbEntity
  8
0
 62
     7
370
     0
100
AcDb2dPolyline
 66
     1
 10
0.0
 20
0.0
 30
0.0
  0
VERTEX
  5
A59F
330
A59E
100
AcDbEntity
  8
0
 62
     7
370
     0
100
AcDbVertex
100
AcDb2dVertex
 10
23662.73420371289
 20
-86.04630619531958
 30
0.0
  0
VERTEX
  5
A5A0
330
A59E
100
AcDbEntity
  8
0
 62
     7
370
     0
100
AcDbVertex
100
AcDb2dVertex
 10
23662.73420371289
 20
-4474.407922156618
 30
0.0
  0
SEQEND
  5
A5A1
330
A59E
100
AcDbEntity
  8
0
 62
     7
370
     0
  0
POLYLINE
  5
A5A2
330
A543
100
AcDbEntity
  8
0
 62
     7
370
     0
100
AcDb2dPolyline
 66
     1
 10
0.0
 20
0.0
 30
0.0
  0
VERTEX
  5
A5A3
330
A5A2
100
AcDbEntity
  8
0
 62
     7
370
     0
100
AcDbVertex
100
AcDb2dVertex
 10
43281.29201624575
 20
-86.04630619531958
 30
0.0
  0
VERTEX
  5
A5A4
330
A5A2
100
AcDbEntity
  8
0
 62
     7
370
     0
100
AcDbVertex
100
AcDb2dVertex
 10
43281.29201624575
 20
-4474.407922156618
 30
0.0
  0
SEQEND
  5
A5A5
330
A5A2
100
AcDbEntity
  8
0
 62
     7
370
     0
  0
POLYLINE
  5
A5A6
330
A543
100
AcDbEntity
  8
0
 62
     7
370
     0
100
AcDb2dPolyline
 66
     1
 10
0.0
 20
0.0
 30
0.0
  0
VERTEX
  5
A5A7
330
A5A6
100
AcDbEntity
  8
0
 62
     7
370
     0
100
AcDbVertex
100
AcDb2dVertex
 10
62899.84982877862
 20
-86.04630619531958
 30
0.0
  0
VERTEX
  5
A5A8
330
A5A6
100
AcDbEntity
  8
0
 62
     7
370
     0
100
AcDbVertex
100
AcDb2dVertex
 10
62899.84982877862
 20
-4474.407922156618
 30
0.0
  0
SEQEND
  5
A5A9
330
A5A6
100
AcDbEntity
  8
0
 62
     7
370
     0
  0
POLYLINE
  5
A5AA
330
A543
100
AcDbEntity
  8
0
 62
     7
370
     0
100
AcDb2dPolyline
 66
     1
 10
0.0
 20
0.0
 30
0.0
  0
VERTEX
  5
A5AB
330
A5AA
100
AcDbEntity
  8
0
 62
     7
370
     0
100
AcDbVertex
100
AcDb2dVertex
 10
4130.22269737534
 20
-24179.0120408848
 30
0.0
  0
VERTEX
  5
A5AC
330
A5AA
100
AcDbEntity
  8
0
 62
     7
370
     0
100
AcDbVertex
100
AcDb2dVertex
 10
19704.60411872819
 20
-24179.0120408848
 30
0.0
  0
SEQEND
  5
A5AD
330
A5AA
100
AcDbEntity
  8
0
 62
     7
370
     0
  0
POLYLINE
  5
A5AE
330
A543
100
AcDbEntity
  8
0
 62
     7
370
     0
100
AcDb2dPolyline
 66
     1
 10
0.0
 20
0.0
 30
0.0
  0
VERTEX
  5
A5AF
330
A5AE
100
AcDbEntity
  8
0
 62
     7
370
     0
100
AcDbVertex
100
AcDb2dVertex
 10
23748.78050990821
 20
-24179.0120408848
 30
0.0
  0
VERTEX
  5
A5B0
330
A5AE
100
AcDbEntity
  8
0
 62
     7
370
     0
100
AcDbVertex
100
AcDb2dVertex
 10
39323.16193126106
 20
-24179.0120408848
 30
0.0
  0
SEQEND
  5
A5B1
330
A5AE
100
AcDbEntity
  8
0
 62
     7
370
     0
  0
POLYLINE
  5
A5B2
330
A543
100
AcDbEntity
  8
0
 62
     7
370
     0
100
AcDb2dPolyline
 66
     1
 10
0.0
 20
0.0
 30
0.0
  0
VERTEX
  5
A5B3
330
A5B2
100
AcDbEntity
  8
0
 62
     7
370
     0
100
AcDbVertex
100
AcDb2dVertex
 10
43367.33832244107
 20
-24179.0120408848
 30
0.0
  0
VERTEX
  5
A5B4
330
A5B2
100
AcDbEntity
  8
0
 62
     7
370
     0
100
AcDbVertex
100
AcDb2dVertex
 10
58941.71974379392
 20
-24179.0120408848
 30
0.0
  0
SEQEND
  5
A5B5
330
A5B2
100
AcDbEntity
  8
0
 62
     7
370
     0
  0
POLYLINE
  5
A5B6
330
A543
100
AcDbEntity
  8
0
 62
     7
370
     0
100
AcDb2dPolyline
 66
     1
 10
0.0
 20
0.0
 30
0.0
  0
VERTEX
  5
A5B7
330
A5B6
100
AcDbEntity
  8
0
 62
     7
370
     0
100
AcDbVertex
100
AcDb2dVertex
 10
4044.176391180021
 20
-22802.27114175969
 30
0.0
  0
VERTEX
  5
A5B8
330
A5B6
100
AcDbEntity
  8
0
 62
     7
370
     0
100
AcDbVertex
100
AcDb2dVertex
 10
4044.176391180021
 20
-27190.63275772099
 30
0.0
  0
SEQEND
  5
A5B9
330
A5B6
100
AcDbEntity
  8
0
 62
     7
370
     0
  0
POLYLINE
  5
A5BA
330
A543
100
AcDbEntity
  8
0
 62
     7
370
     0
100
AcDb2dPolyline
 66
     1
 10
0.0
 20
0.0
 30
0.0
  0
VERTEX
  5
A5BB
330
A5BA
100
AcDbEntity
  8
0
 62
     7
370
     0
100
AcDbVertex
100
AcDb2dVertex
 10
23662.73420371289
 20
-22802.27114175969
 30
0.0
  0
VERTEX
  5
A5BC
330
A5BA
100
AcDbEntity
  8
0
 62
     7
370
     0
100
AcDbVertex
100
AcDb2dVertex
 10
23662.73420371289
 20
-27190.63275772099
 30
0.0
  0
SEQEND
  5
A5BD
330
A5BA
100
AcDbEntity
  8
0
 62
     7
370
     0
  0
POLYLINE
  5
A5BE
330
A543
100
AcDbEntity
  8
0
 62
     7
370
     0
100
AcDb2dPolyline
 66
     1
 10
0.0
 20
0.0
 30
0.0
  0
VERTEX
  5
A5BF
330
A5BE
100
AcDbEntity
  8
0
 62
     7
370
     0
100
AcDbVertex
100
AcDb2dVertex
 10
43281.29201624575
 20
-22802.27114175969
 30
0.0
  0
VERTEX
  5
A5C0
330
A5BE
100
AcDbEntity
  8
0
 62
     7
370
     0
100
AcDbVertex
100
AcDb2dVertex
 10
43281.29201624575
 20
-27190.63275772099
 30
0.0
  0
SEQEND
  5
A5C1
330
A5BE
100
AcDbEntity
  8
0
 62
     7
370
     0
  0
POLYLINE
  5
A5C2
330
A543
100
AcDbEntity
  8
0
 62
     7
370
     0
100
AcDb2dPolyline
 66
     1
 10
0.0
 20
0.0
 30
0.0
  0
VERTEX
  5
A5C3
330
A5C2
100
AcDbEntity
  8
0
 62
     7
370
     0
100
AcDbVertex
100
AcDb2dVertex
 10
62899.84982877862
 20
-22802.27114175969
 30
0.0
  0
VERTEX
  5
A5C4
330
A5C2
100
AcDbEntity
  8
0
 62
     7
370
     0
100
AcDbVertex
100
AcDb2dVertex
 10
62899.84982877862
 20
-27190.63275772099
 30
0.0
  0
SEQEND
  5
A5C5
330
A5C2
100
AcDbEntity
  8
0
 62
     7
370
     0
  0
POLYLINE
  5
A5C6
330
A543
100
AcDbEntity
  8
0
 62
     7
370
     0
100
AcDb2dPolyline
 66
     1
 10
0.0
 20
0.0
 30
0.0
  0
VERTEX
  5
A5C7
330
A5C6
100
AcDbEntity
  8
0
 62
     7
370
     0
100
AcDbVertex
100
AcDb2dVertex
 10
4130.22269737534
 20
-46895.23687644918
 30
0.0
  0
VERTEX
  5
A5C8
330
A5C6
100
AcDbEntity
  8
0
 62
     7
370
     0
100
AcDbVertex
100
AcDb2dVertex
 10
19704.60411872819
 20
-46895.23687644918
 30
0.0
  0
SEQEND
  5
A5C9
330
A5C6
100
AcDbEntity
  8
0
 62
     7
370
     0
  0
POLYLINE
  5
A5CA
330
A543
100
AcDbEntity
  8
0
 62
     7
370
     0
100
AcDb2dPolyline
 66
     1
 10
0.0
 20
0.0
 30
0.0
  0
VERTEX
  5
A5CB
330
A5CA
100
AcDbEntity
  8
0
 62
     7
370
     0
100
AcDbVertex
100
AcDb2dVertex
 10
23748.78050990821
 20
-46895.23687644918
 30
0.0
  0
VERTEX
  5
A5CC
330
A5CA
100
AcDbEntity
  8
0
 62
     7
370
     0
100
AcDbVertex
100
AcDb2dVertex
 10
39323.16193126106
 20
-46895.23687644918
 30
0.0
  0
SEQEND
  5
A5CD
330
A5CA
100
AcDbEntity
  8
0
 62
     7
370
     0
  0
POLYLINE
  5
A5CE
330
A543
100
AcDbEntity
  8
0
 62
     7
370
     0
100
AcDb2dPolyline
 66
     1
 10
0.0
 20
0.0
 30
0.0
  0
VERTEX
  5
A5CF
330
A5CE
100
AcDbEntity
  8
0
 62
     7
370
     0
100
AcDbVertex
100
AcDb2dVertex
 10
43367.33832244107
 20
-46895.23687644918
 30
0.0
  0
VERTEX
  5
A5D0
330
A5CE
100
AcDbEntity
  8
0
 62
     7
370
     0
100
AcDbVertex
100
AcDb2dVertex
 10
58941.71974379392
 20
-46895.23687644918
 30
0.0
  0
SEQEND
  5
A5D1
330
A5CE
100
AcDbEntity
  8
0
 62
     7
370
     0
  0
POLYLINE
  5
A5D2
330
A543
100
AcDbEntity
  8
0
 62
     7
370
     0
100
AcDb2dPolyline
 66
     1
 10
0.0
 20
0.0
 30
0.0
  0
VERTEX
  5
A5D3
330
A5D2
100
AcDbEntity
  8
0
 62
     7
370
     0
100
AcDbVertex
100
AcDb2dVertex
 10
4044.176391180021
 20
-45518.49597732406
 30
0.0
  0
VERTEX
  5
A5D4
330
A5D2
100
AcDbEntity
  8
0
 62
     7
370
     0
100
AcDbVertex
100
AcDb2dVertex
 10
4044.176391180021
 20
-49906.85759328536
 30
0.0
  0
SEQEND
  5
A5D5
330
A5D2
100
AcDbEntity
  8
0
 62
     7
370
     0
  0
POLYLINE
  5
A5D6
330
A543
100
AcDbEntity
  8
0
 62
     7
370
     0
100
AcDb2dPolyline
 66
     1
 10
0.0
 20
0.0
 30
0.0
  0
VERTEX
  5
A5D7
330
A5D6
100
AcDbEntity
  8
0
 62
     7
370
     0
100
AcDbVertex
100
AcDb2dVertex
 10
23662.73420371289
 20
-45518.49597732406
 30
0.0
  0
VERTEX
  5
A5D8
330
A5D6
100
AcDbEntity
  8
0
 62
     7
370
     0
100
AcDbVertex
100
AcDb2dVertex
 10
23662.73420371289
 20
-49906.85759328536
 30
0.0
  0
SEQEND
  5
A5D9
330
A5D6
100
AcDbEntity
  8
0
 62
     7
370
     0
  0
POLYLINE
  5
A5DA
330
A543
100
AcDbEntity
  8
0
 62
     7
370
     0
100
AcDb2dPolyline
 66
     1
 10
0.0
 20
0.0
 30
0.0
  0
VERTEX
  5
A5DB
330
A5DA
100
AcDbEntity
  8
0
 62
     7
370
     0
100
AcDbVertex
100
AcDb2dVertex
 10
43281.29201624575
 20
-45518.49597732406
 30
0.0
  0
VERTEX
  5
A5DC
330
A5DA
100
AcDbEntity
  8
0
 62
     7
370
     0
100
AcDbVertex
100
AcDb2dVertex
 10
43281.29201624575
 20
-49906.85759328536
 30
0.0
  0
SEQEND
  5
A5DD
330
A5DA
100
AcDbEntity
  8
0
 62
     7
370
     0
  0
POLYLINE
  5
A5DE
330
A543
100
AcDbEntity
  8
0
 62
     7
370
     0
100
AcDb2dPolyline
 66
     1
 10
0.0
 20
0.0
 30
0.0
  0
VERTEX
  5
A5DF
330
A5DE
100
AcDbEntity
  8
0
 62
     7
370
     0
100
AcDbVertex
100
AcDb2dVertex
 10
62899.84982877862
 20
-45518.49597732406
 30
0.0
  0
VERTEX
  5
A5E0
330
A5DE
100
AcDbEntity
  8
0
 62
     7
370
     0
100
AcDbVertex
100
AcDb2dVertex
 10
62899.84982877862
 20
-49906.85759328536
 30
0.0
  0
SEQEND
  5
A5E1
330
A5DE
100
AcDbEntity
  8
0
 62
     7
370
     0
  0
POLYLINE
  5
A5E2
330
A543
100
AcDbEntity
  8
0
 62
     7
370
     0
100
AcDb2dPolyline
 66
     1
 10
0.0
 20
0.0
 30
0.0
  0
VERTEX
  5
A5E3
330
A5E2
100
AcDbEntity
  8
0
 62
     7
370
     0
100
AcDbVertex
100
AcDb2dVertex
 10
4130.22269737534
 20
-69611.46171201355
 30
0.0
  0
VERTEX
  5
A5E4
330
A5E2
100
AcDbEntity
  8
0
 62
     7
370
     0
100
AcDbVertex
100
AcDb2dVertex
 10
19704.60411872819
 20
-69611.46171201355
 30
0.0
  0
SEQEND
  5
A5E5
330
A5E2
100
AcDbEntity
  8
0
 62
     7
370
     0
  0
POLYLINE
  5
A5E6
330
A543
100
AcDbEntity
  8
0
 62
     7
370
     0
100
AcDb2dPolyline
 66
     1
 10
0.0
 20
0.0
 30
0.0
  0
VERTEX
  5
A5E7
330
A5E6
100
AcDbEntity
  8
0
 62
     7
370
     0
100
AcDbVertex
100
AcDb2dVertex
 10
23748.78050990821
 20
-69611.46171201355
 30
0.0
  0
VERTEX
  5
A5E8
330
A5E6
100
AcDbEntity
  8
0
 62
     7
370
     0
100
AcDbVertex
100
AcDb2dVertex
 10
39323.16193126106
 20
-69611.46171201355
 30
0.0
  0
SEQEND
  5
A5E9
330
A5E6
100
AcDbEntity
  8
0
 62
     7
370
     0
  0
POLYLINE
  5
A5EA
330
A543
100
AcDbEntity
  8
0
 62
     7
370
     0
100
AcDb2dPolyline
 66
     1
 10
0.0
 20
0.0
 30
0.0
  0
VERTEX
  5
A5EB
330
A5EA
100
AcDbEntity
  8
0
 62
     7
370
     0
100
AcDbVertex
100
AcDb2dVertex
 10
43367.33832244107
 20
-69611.46171201355
 30
0.0
  0
VERTEX
  5
A5EC
330
A5EA
100
AcDbEntity
  8
0
 62
     7
370
     0
100
AcDbVertex
100
AcDb2dVertex
 10
58941.71974379392
 20
-69611.46171201355
 30
0.0
  0
SEQEND
  5
A5ED
330
A5EA
100
AcDbEntity
  8
0
 62
     7
370
     0
  0
POLYLINE
  5
A5EE
330
A543
100
AcDbEntity
  8
0
 62
     7
370
     0
100
AcDb2dPolyline
 66
     1
 10
0.0
 20
0.0
 30
0.0
  0
VERTEX
  5
A5EF
330
A5EE
100
AcDbEntity
  8
0
 62
     7
370
     0
100
AcDbVertex
100
AcDb2dVertex
 10
0.0
 20
0.0
 30
0.0
  0
VERTEX
  5
A5F0
330
A5EE
100
AcDbEntity
  8
0
 62
     7
370
     0
100
AcDbVertex
100
AcDb2dVertex
 10
0.0
 20
-90950.94564845281
 30
0.0
  0
SEQEND
  5
A5F1
330
A5EE
100
AcDbEntity
  8
0
 62
     7
370
     0
  0
POLYLINE
  5
A5F2
330
A543
100
AcDbEntity
  8
0
 62
     7
370
     0
100
AcDb2dPolyline
 66
     1
 10
0.0
 20
0.0
 30
0.0
  0
VERTEX
  5
A5F3
330
A5F2
100
AcDbEntity
  8
0
 62
     7
370
     0
100
AcDbVertex
100
AcDb2dVertex
 10
4044.176391180021
 20
-68234.72081288843
 30
0.0
  0
VERTEX
  5
A5F4
330
A5F2
100
AcDbEntity
  8
0
 62
     7
370
     0
100
AcDbVertex
100
AcDb2dVertex
 10
4044.176391180021
 20
-72623.08242884974
 30
0.0
  0
SEQEND
  5
A5F5
330
A5F2
100
AcDbEntity
  8
0
 62
     7
370
     0
  0
POLYLINE
  5
A5F6
330
A543
100
AcDbEntity
  8
0
 62
     7
370
     0
100
AcDb2dPolyline
 66
     1
 10
0.0
 20
0.0
 30
0.0
  0
VERTEX
  5
A5F7
330
A5F6
100
AcDbEntity
  8
0
 62
     7
370
     0
100
AcDbVertex
100
AcDb2dVertex
 10
19618.55781253287
 20
-86.04630619531958
 30
0.0
  0
VERTEX
  5
A5F8
330
A5F6
100
AcDbEntity
  8
0
 62
     7
370
     0
100
AcDbVertex
100
AcDb2dVertex
 10
19618.55781253287
 20
-90950.94564845281
 30
0.0
  0
SEQEND
  5
A5F9
330
A5F6
100
AcDbEntity
  8
0
 62
     7
370
     0
  0
POLYLINE
  5
A5FA
330
A543
100
AcDbEntity
  8
0
 62
     7
370
     0
100
AcDb2dPolyline
 66
     1
 10
0.0
 20
0.0
 30
0.0
  0
VERTEX
  5
A5FB
330
A5FA
100
AcDbEntity
  8
0
 62
     7
370
     0
100
AcDbVertex
100
AcDb2dVertex
 10
23662.73420371289
 20
-68234.72081288843
 30
0.0
  0
VERTEX
  5
A5FC
330
A5FA
100
AcDbEntity
  8
0
 62
     7
370
     0
100
AcDbVertex
100
AcDb2dVertex
 10
23662.73420371289
 20
-72623.08242884974
 30
0.0
  0
SEQEND
  5
A5FD
330
A5FA
100
AcDbEntity
  8
0
 62
     7
370
     0
  0
POLYLINE
  5
A5FE
330
A543
100
AcDbEntity
  8
0
 62
     7
370
     0
100
AcDb2dPolyline
 66
     1
 10
0.0
 20
0.0
 30
0.0
  0
VERTEX
  5
A5FF
330
A5FE
100
AcDbEntity
  8
0
 62
     7
370
     0
100
AcDbVertex
100
AcDb2dVertex
 10
39237.11562506574
 20
-86.04630619531958
 30
0.0
  0
VERTEX
  5
A600
330
A5FE
100
AcDbEntity
  8
0
 62
     7
370
     0
100
AcDbVertex
100
AcDb2dVertex
 10
39237.11562506574
 20
-90950.94564845281
 30
0.0
  0
SEQEND
  5
A601
330
A5FE
100
AcDbEntity
  8
0
 62
     7
370
     0
  0
POLYLINE
  5
A602
330
A543
100
AcDbEntity
  8
0
 62
     7
370
     0
100
AcDb2dPolyline
 66
     1
 10
0.0
 20
0.0
 30
0.0
  0
VERTEX
  5
A603
330
A602
100
AcDbEntity
  8
0
 62
     7
370
     0
100
AcDbVertex
100
AcDb2dVertex
 10
43281.29201624575
 20
-68234.72081288843
 30
0.0
  0
VERTEX
  5
A604
330
A602
100
AcDbEntity
  8
0
 62
     7
370
     0
100
AcDbVertex
100
AcDb2dVertex
 10
43281.29201624575
 20
-72623.08242884974
 30
0.0
  0
SEQEND
  5
A605
330
A602
100
AcDbEntity
  8
0
 62
     7
370
     0
  0
POLYLINE
  5
A606
330
A543
100
AcDbEntity
  8
0
 62
     7
370
     0
100
AcDb2dPolyline
 66
     1
 10
0.0
 20
0.0
 30
0.0
  0
VERTEX
  5
A607
330
A606
100
AcDbEntity
  8
0
 62
     7
370
     0
100
AcDbVertex
100
AcDb2dVertex
 10
58855.6734375986
 20
-86.04630619531958
 30
0.0
  0
VERTEX
  5
A608
330
A606
100
AcDbEntity
  8
0
 62
     7
370
     0
100
AcDbVertex
100
AcDb2dVertex
 10
58855.6734375986
 20
-90950.94564845281
 30
0.0
  0
SEQEND
  5
A609
330
A606
100
AcDbEntity
  8
0
 62
     7
370
     0
  0
POLYLINE
  5
A60A
330
A543
100
AcDbEntity
  8
0
 62
     7
370
     0
100
AcDb2dPolyline
 66
     1
 10
0.0
 20
0.0
 30
0.0
  0
VERTEX
  5
A60B
330
A60A
100
AcDbEntity
  8
0
 62
     7
370
     0
100
AcDbVertex
100
AcDb2dVertex
 10
62899.84982877862
 20
-68234.72081288843
 30
0.0
  0
VERTEX
  5
A60C
330
A60A
100
AcDbEntity
  8
0
 62
     7
370
     0
100
AcDbVertex
100
AcDb2dVertex
 10
62899.84982877862
 20
-72623.08242884974
 30
0.0
  0
SEQEND
  5
A60D
330
A60A
100
AcDbEntity
  8
0
 62
     7
370
     0
  0
POLYLINE
  5
A60E
330
A543
100
AcDbEntity
  8
0
 62
     7
370
     0
100
AcDb2dPolyline
 66
     1
 10
0.0
 20
0.0
 30
0.0
  0
VERTEX
  5
A60F
330
A60E
100
AcDbEntity
  8
0
 62
     7
370
     0
100
AcDbVertex
100
AcDb2dVertex
 10
78474.23125013147
 20
-86.04630619531958
 30
0.0
  0
VERTEX
  5
A610
330
A60E
100
AcDbEntity
  8
0
 62
     7
370
     0
100
AcDbVertex
100
AcDb2dVertex
 10
78474.23125013147
 20
-90950.94564845281
 30
0.0
  0
SEQEND
  5
A611
330
A60E
100
AcDbEntity
  8
0
 62
     7
370
     0
  0
POLYLINE
  5
A612
330
A543
100
AcDbEntity
  8
0
 62
     7
370
     0
100
AcDb2dPolyline
 66
     1
 10
0.0
 20
0.0
 30
0.0
  0
VERTEX
  5
A613
330
A612
100
AcDbEntity
  8
0
 62
     7
370
     0
100
AcDbVertex
100
AcDb2dVertex
 10
86.04630619531958
 20
0.0
 30
0.0
  0
VERTEX
  5
A614
330
A612
100
AcDbEntity
  8
0
 62
     7
370
     0
100
AcDbVertex
100
AcDb2dVertex
 10
78560.2775563268
 20
0.0
 30
0.0
  0
SEQEND
  5
A615
330
A612
100
AcDbEntity
  8
0
 62
     7
370
     0
  0
POLYLINE
  5
A616
330
A543
100
AcDbEntity
  8
0
 62
     7
370
     0
100
AcDb2dPolyline
 66
     1
 10
0.0
 20
0.0
 30
0.0
  0
VERTEX
  5
A617
330
A616
100
AcDbEntity
  8
0
 62
     7
370
     0
100
AcDbVertex
100
AcDb2dVertex
 10
62985.89613497393
 20
-1462.787205320433
 30
0.0
  0
VERTEX
  5
A618
330
A616
100
AcDbEntity
  8
0
 62
     7
370
     0
100
AcDbVertex
100
AcDb2dVertex
 10
78560.2775563268
 20
-1462.787205320433
 30
0.0
  0
SEQEND
  5
A619
330
A616
100
AcDbEntity
  8
0
 62
     7
370
     0
  0
POLYLINE
  5
A61A
330
A543
100
AcDbEntity
  8
0
 62
     7
370
     0
100
AcDb2dPolyline
 66
     1
 10
0.0
 20
0.0
 30
0.0
  0
VERTEX
  5
A61B
330
A61A
100
AcDbEntity
  8
0
 62
     7
370
     0
100
AcDbVertex
100
AcDb2dVertex
 10
86.04630619531958
 20
-4388.361615961299
 30
0.0
  0
VERTEX
  5
A61C
330
A61A
100
AcDbEntity
  8
0
 62
     7
370
     0
100
AcDbVertex
100
AcDb2dVertex
 10
78560.2775563268
 20
-4388.361615961299
 30
0.0
  0
SEQEND
  5
A61D
330
A61A
100
AcDbEntity
  8
0
 62
     7
370
     0
  0
POLYLINE
  5
A61E
330
A543
100
AcDbEntity
  8
0
 62
     7
370
     0
100
AcDb2dPolyline
 66
     1
 10
0.0
 20
0.0
 30
0.0
  0
VERTEX
  5
A61F
330
A61E
100
AcDbEntity
  8
0
 62
     7
370
     0
100
AcDbVertex
100
AcDb2dVertex
 10
86.04630619531958
 20
-22716.22483556437
 30
0.0
  0
VERTEX
  5
A620
330
A61E
100
AcDbEntity
  8
0
 62
     7
370
     0
100
AcDbVertex
100
AcDb2dVertex
 10
78560.2775563268
 20
-22716.22483556437
 30
0.0
  0
SEQEND
  5
A621
330
A61E
100
AcDbEntity
  8
0
 62
     7
370
     0
  0
POLYLINE
  5
A622
330
A543
100
AcDbEntity
  8
0
 62
     7
370
     0
100
AcDb2dPolyline
 66
     1
 10
0.0
 20
0.0
 30
0.0
  0
VERTEX
  5
A623
330
A622
100
AcDbEntity
  8
0
 62
     7
370
     0
100
AcDbVertex
100
AcDb2dVertex
 10
62985.89613497393
 20
-24179.0120408848
 30
0.0
  0
VERTEX
  5
A624
330
A622
100
AcDbEntity
  8
0
 62
     7
370
     0
100
AcDbVertex
100
AcDb2dVertex
 10
78560.2775563268
 20
-24179.0120408848
 30
0.0
  0
SEQEND
  5
A625
330
A622
100
AcDbEntity
  8
0
 62
     7
370
     0
  0
POLYLINE
  5
A626
330
A543
100
AcDbEntity
  8
0
 62
     7
370
     0
100
AcDb2dPolyline
 66
     1
 10
0.0
 20
0.0
 30
0.0
  0
VERTEX
  5
A627
330
A626
100
AcDbEntity
  8
0
 62
     7
370
     0
100
AcDbVertex
100
AcDb2dVertex
 10
86.04630619531958
 20
-27104.58645152567
 30
0.0
  0
VERTEX
  5
A628
330
A626
100
AcDbEntity
  8
0
 62
     7
370
     0
100
AcDbVertex
100
AcDb2dVertex
 10
78560.2775563268
 20
-27104.58645152567
 30
0.0
  0
SEQEND
  5
A629
330
A626
100
AcDbEntity
  8
0
 62
     7
370
     0
  0
POLYLINE
  5
A62A
330
A543
100
AcDbEntity
  8
0
 62
     7
370
     0
100
AcDb2dPolyline
 66
     1
 10
0.0
 20
0.0
 30
0.0
  0
VERTEX
  5
A62B
330
A62A
100
AcDbEntity
  8
0
 62
     7
370
     0
100
AcDbVertex
100
AcDb2dVertex
 10
86.04630619531958
 20
-45432.44967112874
 30
0.0
  0
VERTEX
  5
A62C
330
A62A
100
AcDbEntity
  8
0
 62
     7
370
     0
100
AcDbVertex
100
AcDb2dVertex
 10
78560.2775563268
 20
-45432.44967112874
 30
0.0
  0
SEQEND
  5
A62D
330
A62A
100
AcDbEntity
  8
0
 62
     7
370
     0
  0
POLYLINE
  5
A62E
330
A543
100
AcDbEntity
  8
0
 62
     7
370
     0
100
AcDb2dPolyline
 66
     1
 10
0.0
 20
0.0
 30
0.0
  0
VERTEX
  5
A62F
330
A62E
100
AcDbEntity
  8
0
 62
     7
370
     0
100
AcDbVertex
100
AcDb2dVertex
 10
62985.89613497393
 20
-46895.23687644918
 30
0.0
  0
VERTEX
  5
A630
330
A62E
100
AcDbEntity
  8
0
 62
     7
370
     0
100
AcDbVertex
100
AcDb2dVertex
 10
78560.2775563268
 20
-46895.23687644918
 30
0.0
  0
SEQEND
  5
A631
330
A62E
100
AcDbEntity
  8
0
 62
     7
370
     0
  0
POLYLINE
  5
A632
330
A543
100
AcDbEntity
  8
0
 62
     7
370
     0
100
AcDb2dPolyline
 66
     1
 10
0.0
 20
0.0
 30
0.0
  0
VERTEX
  5
A633
330
A632
100
AcDbEntity
  8
0
 62
     7
370
     0
100
AcDbVertex
100
AcDb2dVertex
 10
86.04630619531958
 20
-49820.81128709004
 30
0.0
  0
VERTEX
  5
A634
330
A632
100
AcDbEntity
  8
0
 62
     7
370
     0
100
AcDbVertex
100
AcDb2dVertex
 10
78560.2775563268
 20
-49820.81128709004
 30
0.0
  0
SEQEND
  5
A635
330
A632
100
AcDbEntity
  8
0
 62
     7
370
     0
  0
POLYLINE
  5
A636
330
A543
100
AcDbEntity
  8
0
 62
     7
370
     0
100
AcDb2dPolyline
 66
     1
 10
0.0
 20
0.0
 30
0.0
  0
VERTEX
  5
A637
330
A636
100
AcDbEntity
  8
0
 62
     7
370
     0
100
AcDbVertex
100
AcDb2dVertex
 10
86.04630619531958
 20
-68148.67450669312
 30
0.0
  0
VERTEX
  5
A638
330
A636
100
AcDbEntity
  8
0
 62
     7
370
     0
100
AcDbVertex
100
AcDb2dVertex
 10
78560.2775563268
 20
-68148.67450669312
 30
0.0
  0
SEQEND
  5
A639
330
A636
100
AcDbEntity
  8
0
 62
     7
370
     0
  0
POLYLINE
  5
A63A
330
A543
100
AcDbEntity
  8
0
 62
     7
370
     0
100
AcDb2dPolyline
 66
     1
 10
0.0
 20
0.0
 30
0.0
  0
VERTEX
  5
A63B
330
A63A
100
AcDbEntity
  8
0
 62
     7
370
     0
100
AcDbVertex
100
AcDb2dVertex
 10
62985.89613497393
 20
-69611.46171201355
 30
0.0
  0
VERTEX
  5
A63C
330
A63A
100
AcDbEntity
  8
0
 62
     7
370
     0
100
AcDbVertex
100
AcDb2dVertex
 10
78560.2775563268
 20
-69611.46171201355
 30
0.0
  0
SEQEND
  5
A63D
330
A63A
100
AcDbEntity
  8
0
 62
     7
370
     0
  0
POLYLINE
  5
A63E
330
A543
100
AcDbEntity
  8
0
 62
     7
370
     0
100
AcDb2dPolyline
 66
     1
 10
0.0
 20
0.0
 30
0.0
  0
VERTEX
  5
A63F
330
A63E
100
AcDbEntity
  8
0
 62
     7
370
     0
100
AcDbVertex
100
AcDb2dVertex
 10
86.04630619531958
 20
-72537.03612265442
 30
0.0
  0
VERTEX
  5
A640
330
A63E
100
AcDbEntity
  8
0
 62
     7
370
     0
100
AcDbVertex
100
AcDb2dVertex
 10
78560.2775563268
 20
-72537.03612265442
 30
0.0
  0
SEQEND
  5
A641
330
A63E
100
AcDbEntity
  8
0
 62
     7
370
     0
  0
POLYLINE
  5
A642
330
A543
100
AcDbEntity
  8
0
 62
     7
370
     0
100
AcDb2dPolyline
 66
     1
 10
0.0
 20
0.0
 30
0.0
  0
VERTEX
  5
A643
330
A642
100
AcDbEntity
  8
0
 62
     7
370
     0
100
AcDbVertex
100
AcDb2dVertex
 10
86.04630619531958
 20
-90864.89934225749
 30
0.0
  0
VERTEX
  5
A644
330
A642
100
AcDbEntity
  8
0
 62
     7
370
     0
100
AcDbVertex
100
AcDb2dVertex
 10
78560.2775563268
 20
-90864.89934225749
 30
0.0
  0
SEQEND
  5
A645
330
A642
100
AcDbEntity
  8
0
 62
     7
370
     0
  0
ENDBLK
  5
A646
330
A543
100
AcDbEntity
  8
0
 62
     7
370
     0
100
AcDbBlockEnd
  0
BLOCK
  5
1384F
330
1384E
100
AcDbEntity
  8
0
 62
     7
100
AcDbBlockBegin
  2
_Open
 70
     0
 10
0.0
 20
0.0
 30
0.0
  3
_Open
  1

  0
LINE
  5
13850
330
1384E
100
AcDbEntity
  8
0
  6
ByBlock
 62
     0
370
    -2
100
AcDbLine
 10
-1.0
 20
0.1666666666666666
 30
0.0
 11
0.0
 21
0.0
 31
0.0
  0
LINE
  5
13851
330
1384E
100
AcDbEntity
  8
0
  6
ByBlock
 62
     0
370
    -2
100
AcDbLine
 10
-1.0
 20
-0.1666666666666666
 30
0.0
 11
0.0
 21
0.0
 31
0.0
  0
LINE
  5
13852
330
1384E
100
AcDbEntity
  8
0
  6
ByBlock
 62
     0
370
    -2
100
AcDbLine
 10
0.0
 20
0.0
 30
0.0
 11
-1.0
 21
0.0
 31
0.0
  0
ENDBLK
  5
13853
330
1384E
100
AcDbEntity
  8
0
 62
     7
100
AcDbBlockEnd
  0
ENDSEC
  0
SECTION
  2
ENTITIES
  0
TEXT
  5
12DBC
330
1F07
100
AcDbEntity
  8
0
 62
     7
100
AcDbText
 10
16089.88764538276
 20
-84718.75555521336
 30
0.0
 40
299.9999962094055
  1
 
  7
WMF-ＭＳ Ｐゴシック0
100
AcDbText
  0
TEXT
  5
12DD6
330
1F07
100
AcDbEntity
  8
0
 62
     7
100
AcDbText
 10
9512.964682634171
 20
-84718.75552897397
 30
0.0
 40
299.9999947731441
  1
 
  7
WMF-ＭＳ Ｐゴシック0
100
AcDbText
  0
TEXT
  5
12DD7
330
1F07
100
AcDbEntity
  8
0
 62
     7
100
AcDbText
 10
9383.157008038056
 20
-84790.87090571148
 30
0.0
 40
299.9999983045655
  1
 
  7
WMF-ＭＳ Ｐゴシック0
100
AcDbText
  0
TEXT
  5
12DD8
330
1F07
100
AcDbEntity
  8
0
 62
     7
100
AcDbText
 10
9383.157008038084
 20
-84764.08519157715
 30
0.0
 40
299.9999983045655
  1
 
  7
WMF-ＭＳ Ｐゴシック0
100
AcDbText
  0
TEXT
  5
12DD9
330
1F07
100
AcDbEntity
  8
0
 62
     7
100
AcDbText
 10
9473.623766979121
 20
-84615.63472105932
 30
0.0
 40
278.5714109022594
  1
 
  7
WMF-ＭＳ Ｐゴシック0
100
AcDbText
  0
TEXT
  5
12DF5
330
1F07
100
AcDbEntity
  8
0
 62
     7
100
AcDbText
 10
47243.73325602574
 20
-79151.44793366464
 30
0.0
 40
299.9999947731441
  1
0
  7
WMF-ＭＳ Ｐゴシック0
100
AcDbText
  0
TEXT
  5
12F7B
330
1F07
100
AcDbEntity
  8
0
 62
     7
100
AcDbText
 10
9512.964682634171
 20
-84718.75552897397
 30
0.0
 40
299.9999947731441
  1
 
  7
WMF-ＭＳ Ｐゴシック0
100
AcDbText
  0
TEXT
  5
12F7C
330
1F07
100
AcDbEntity
  8
0
 62
     7
100
AcDbText
 10
9473.623766979121
 20
-84615.63472105932
 30
0.0
 40
278.5714109022594
  1
 
  7
WMF-ＭＳ Ｐゴシック0
100
AcDbText
  0
TEXT
  5
12F7D
330
1F07
100
AcDbEntity
  8
0
 62
     7
100
AcDbText
 10
9512.964682634171
 20
-84718.75552897397
 30
0.0
 40
299.9999947731441
  1
 
  7
WMF-ＭＳ Ｐゴシック0
100
AcDbText
  0
TEXT
  5
12F7E
330
1F07
100
AcDbEntity
  8
0
 62
     7
100
AcDbText
 10
9512.964682634171
 20
-84718.75552897397
 30
0.0
 40
299.9999947731441
  1
 
  7
WMF-ＭＳ Ｐゴシック0
100
AcDbText
  0
TEXT
  5
12F8B
330
1F07
100
AcDbEntity
  8
0
 62
     7
100
AcDbText
 10
2936.041720299844
 20
-84718.75552897397
 30
0.0
 40
299.9999947731441
  1
 
  7
WMF-ＭＳ Ｐゴシック0
100
AcDbText
  0
TEXT
  5
12F8F
330
1F07
100
AcDbEntity
  8
0
 62
     7
100
AcDbText
 10
9512.964682634171
 20
-84718.75552897397
 30
0.0
 40
299.9999947731441
  1
 
  7
WMF-ＭＳ Ｐゴシック0
100
AcDbText
  0
LWPOLYLINE
  5
13D0F
330
1F07
100
AcDbEntity
  8
器具
  6
Continuous
 62
     7
370
    15
100
AcDbPolyline
 90
        3
 70
   128
 43
0.0
 10
19393.89227417507
 20
-82067.9752103685
 10
19394.43578088198
 20
-82064.92291900238
 10
19395.30646852272
 20
-82060.14825286851
  0
LINE
  5
13D10
330
1F07
100
AcDbEntity
  8
器具
  6
Continuous
 62
     7
370
    15
100
AcDbLine
 10
19395.30646852273
 20
-82060.14825286855
 30
0.0
 11
19390.10888161734
 21
-82054.58636828044
 31
0.0
  0
LINE
  5
13D7B
330
1F07
100
AcDbEntity
  8
器具
  6
Continuous
100
AcDbLine
 10
19395.36887433872
 20
-82068.43355901735
 30
0.0
 11
19507.61071726349
 21
-82184.69832784512
 31
0.0
  0
LINE
  5
13D7C
330
1F07
100
AcDbEntity
  8
器具
  6
Continuous
100
AcDbLine
 10
19507.61071726349
 20
-82184.69832784512
 30
0.0
 11
19481.22944642425
 21
-82406.74374606363
 31
0.0
  0
SPLINE
  5
13E9E
330
1F07
100
AcDbEntity
  8
器具
100
AcDbSpline
210
0.0
220
0.0
230
1.0
 70
     8
 71
     3
 72
    15
 73
    11
 74
     9
 42
0.0000000001
 43
0.0000000001
 44
0.0000000001
 40
0.0
 40
0.0
 40
0.0
 40
0.0
 40
48.50842630931453
 40
105.0016066508757
 40
204.0803402442787
 40
275.1817860850854
 40
339.2480258811297
 40
454.5683038597799
 40
496.1879728397114
 40
522.6494947828617
 40
522.6494947828617
 40
522.6494947828617
 40
522.6494947828617
 10
17007.28249673362
 20
-81689.39843070928
 30
0.0
 10
17023.20753292883
 20
-81692.18239691472
 30
0.0
 10
17057.67895395182
 20
-81698.20858549002
 30
0.0
 10
17120.81738486697
 20
-81729.77616173712
 30
0.0
 10
17157.50305882313
 20
-81798.78336774846
 30
0.0
 10
17218.64098242091
 20
-81851.08537029094
 30
0.0
 10
17300.87228187586
 20
-81871.68355301281
 30
0.0
 10
17368.12917398756
 20
-81899.2888632016
 30
0.0
 10
17414.27753933183
 20
-81949.49254445322
 30
0.0
 10
17409.13588100744
 20
-81972.66103969585
 30
0.0
 10
17407.13744204463
 20
-81981.66607672503
 30
0.0
 11
17007.28249673362
 21
-81689.39843070928
 31
0.0
 11
17054.63374696322
 21
-81699.93059690145
 31
0.0
 11
17104.61561815881
 21
-81726.26103512211
 31
0.0
 11
17167.75059419971
 21
-81802.61920594087
 31
0.0
 11
17222.99373159669
 21
-81847.38092363794
 31
0.0
 11
17283.49808666833
 21
-81868.44525602634
 31
0.0
 11
17386.09245003105
 21
-81921.10608700414
 31
0.0
 11
17409.76806301283
 21
-81955.3356385048
 31
0.0
 11
17407.13744204463
 21
-81981.66607672503
 31
0.0
  0
SPLINE
  5
13E9F
330
1F07
100
AcDbEntity
  8
器具
100
AcDbSpline
210
0.0
220
0.0
230
1.0
 70
     8
 71
     3
 72
    11
 73
     7
 74
     5
 42
0.0000000001
 43
0.0000000001
 44
0.0000000001
 40
0.0
 40
0.0
 40
0.0
 40
0.0
 40
56.92521076738263
 40
109.875252964428
 40
158.2451255524038
 40
224.01074682528
 40
224.01074682528
 40
224.01074682528
 40
224.01074682528
 10
17202.23929461659
 20
-82411.21491405895
 30
0.0
 10
17186.76357346861
 20
-82422.33371682834
 30
0.0
 10
17156.89282282899
 20
-82443.79488052862
 30
0.0
 10
17108.9139000893
 20
-82465.26076366084
 30
0.0
 10
17058.32449718406
 20
-82491.71014739388
 30
0.0
 10
17019.45019573617
 20
-82487.41498069202
 30
0.0
 10
16997.0505678922
 20
-82484.94007742515
 30
0.0
 11
17202.23929461659
 21
-82411.21491405895
 31
0.0
 11
17154.88804438911
 21
-82442.81141264352
 31
0.0
 11
17107.53679416061
 21
-82466.50879795218
 31
0.0
 11
17062.81618916508
 21
-82484.94007742515
 31
0.0
 11
16997.0505678922
 21
-82484.94007742515
 31
0.0
  0
SPLINE
  5
13EA0
330
1F07
100
AcDbEntity
  8
器具
100
AcDbSpline
210
0.0
220
0.0
230
1.0
 70
     8
 71
     3
 72
    10
 73
     6
 74
     0
 42
0.0000000001
 43
0.0000000001
 40
0.3130521134878434
 40
0.3130521134878434
 40
0.3130521134878434
 40
0.3130521134878434
 40
0.8600356954146823
 40
1.58343926116478
 40
2.75973310524874
 40
2.75973310524874
 40
2.75973310524874
 40
2.75973310524874
 10
17051.245600673
 20
-82225.92600879357
 30
0.0
 10
17061.33686427711
 20
-82225.19019436024
 30
0.0
 10
17084.63284522961
 20
-82222.46233673722
 30
0.0
 10
17127.76288788606
 20
-82204.68773852887
 30
0.0
 10
17149.38900304012
 20
-82176.12743685856
 30
0.0
 10
17162.77990729475
 20
-82158.44287990858
 30
0.0
  0
SPLINE
  5
13EA1
330
1F07
100
AcDbEntity
  8
器具
100
AcDbSpline
210
0.0
220
0.0
230
1.0
 70
     8
 71
     3
 72
    21
 73
    17
 74
    15
 42
0.0000000001
 43
0.0000000001
 44
0.0000000001
 40
0.0
 40
0.0
 40
0.0
 40
0.0
 40
37.1721399565759
 40
63.12650585004167
 40
85.51414900448071
 40
116.3906988056651
 40
136.946723031586
 40
157.0233323290532
 40
177.1628174357078
 40
204.3743497693553
 40
223.6154727938937
 40
247.1418133474875
 40
285.016674291125
 40
313.338532866542
 40
351.4569659287595
 40
375.2461634701321
 40
375.2461634701321
 40
375.2461634701321
 40
375.2461634701321
 10
16517.98629290507
 20
-81689.39843070928
 30
0.0
 10
16505.46926039883
 20
-81688.46622086318
 30
0.0
 10
16484.21257389509
 20
-81686.88312259732
 30
0.0
 10
16458.57535133058
 20
-81673.65441731678
 30
0.0
 10
16435.8251146492
 20
-81660.133580584
 30
0.0
 10
16417.67135396549
 20
-81643.65755882128
 30
0.0
 10
16399.91709003085
 20
-81626.84495539178
 30
0.0
 10
16394.75285933067
 20
-81606.60210760621
 30
0.0
 10
16391.67741408534
 20
-81584.42586523817
 30
0.0
 10
16392.01505061078
 20
-81562.19992040348
 30
0.0
 10
16394.0321203464
 20
-81538.66277990545
 30
0.0
 10
16407.94666451992
 20
-81514.7653916042
 30
0.0
 10
16428.96705815169
 20
-81493.85867319733
 30
0.0
 10
16454.35142193164
 20
-81468.76669378611
 30
0.0
 10
16485.15173599344
 20
-81463.54537654303
 30
0.0
 10
16504.5867409158
 20
-81456.85241284162
 30
0.0
 10
16512.0550152918
 20
-81454.28051283387
 30
0.0
 11
16517.98629290507
 21
-81689.39843070928
 31
0.0
 11
16481.24356481094
 21
-81683.76461129865
 31
0.0
 11
16457.68186881178
 21
-81672.87996198986
 31
0.0
 11
16438.65127846441
 21
-81661.088304047
 31
0.0
 11
16415.08958246428
 21
-81641.13315911588
 31
0.0
 11
16401.49628977955
 21
-81625.71328473365
 31
0.0
 11
16395.15275157544
 21
-81606.66519391236
 31
0.0
 11
16392.43410274366
 21
-81586.71004898954
 31
0.0
 11
16392.43410274366
 21
-81559.49851665589
 31
0.0
 11
16395.15275157544
 21
-81540.45042583883
 31
0.0
 11
16406.0273711645
 21
-81519.58822680237
 31
0.0
 11
16431.40152398174
 21
-81491.46959489563
 31
0.0
 11
16453.15078742578
 21
-81473.32855818854
 31
0.0
 11
16489.39953556919
 21
-81461.53690024089
 31
0.0
 11
16512.0550152918
 21
-81454.28051283387
 31
0.0
  0
SPLINE
  5
13EA2
330
1F07
100
AcDbEntity
  8
器具
100
AcDbSpline
210
0.0
220
0.0
230
1.0
 70
     8
 71
     3
 72
    19
 73
    15
 74
    13
 42
0.0000000001
 43
0.0000000001
 44
0.0000000001
 40
0.0
 40
0.0
 40
0.0
 40
0.0
 40
28.65632436682101
 40
76.7728670839547
 40
132.1540776906993
 40
171.997290053969
 40
220.5678834541496
 40
252.23697047651
 40
287.6432410060929
 40
330.1985639147629
 40
368.0044879383641
 40
414.5697201652343
 40
450.9580429605888
 40
488.6437548188876
 40
488.6437548188876
 40
488.6437548188876
 40
488.6437548188876
 10
16936.80335705733
 20
-81471.79855508612
 30
0.0
 10
16946.40870004882
 20
-81471.91569198138
 30
0.0
 10
16972.14227674002
 20
-81472.22951224588
 30
0.0
 10
17013.95240170709
 20
-81487.4909021417
 30
0.0
 10
17060.9236800894
 20
-81498.26412561973
 30
0.0
 10
17101.7016125955
 20
-81524.15967035581
 30
0.0
 10
17134.41858910959
 20
-81547.59966178032
 30
0.0
 10
17159.35540333688
 20
-81577.24216865771
 30
0.0
 10
17183.69532288956
 20
-81604.27660935832
 30
0.0
 10
17216.76290210013
 20
-81627.05957458614
 30
0.0
 10
17259.82405646256
 20
-81630.05040981746
 30
0.0
 10
17298.91767544442
 20
-81637.45719856178
 30
0.0
 10
17338.68917307551
 20
-81649.13581523425
 30
0.0
 10
17355.54136179817
 20
-81667.84922736475
 30
0.0
 10
17364.11503719406
 20
-81677.36981390678
 30
0.0
 11
16936.80335705733
 21
-81471.79855508612
 31
0.0
 11
16965.41811443546
 21
-81473.34146999206
 31
0.0
 11
17011.90716231766
 21
-81485.74993927949
 31
0.0
 11
17064.59472565424
 21
-81502.81156751134
 31
0.0
 11
17099.02681939918
 21
-81522.85932279127
 31
0.0
 11
17137.35283585395
 21
-81552.69586089399
 31
0.0
 11
17158.64504834567
 21
-81576.13882913688
 31
0.0
 11
17183.13110969553
 21
-81601.7129721799
 31
0.0
 11
17219.32790975313
 21
-81624.0903530242
 31
0.0
 11
17256.58929374597
 21
-81630.48387742133
 31
0.0
 11
17302.36756758855
 21
-81639.00857661465
 31
0.0
 11
17336.4351512499
 21
-81651.79567086376
 31
0.0
 11
17364.11503719406
 21
-81677.36981390678
 31
0.0
  0
ELLIPSE
  5
13EA3
330
1F07
100
AcDbEntity
  8
器具
100
AcDbEllipse
 10
19310.38972635469
 20
-82339.42662783098
 30
0.0
 11
18.73012368937359
 21
102.1729325693474
 31
0.0
210
0.0
220
0.0
230
-1.0
 40
0.3954365912986051
 41
2.167802979908052
 42
3.873321145786576
  0
SPLINE
  5
13EA4
330
1F07
100
AcDbEntity
  8
器具
100
AcDbSpline
210
0.0
220
0.0
230
1.0
 70
     8
 71
     3
 72
    14
 73
    10
 74
     8
 42
0.0000000001
 43
0.0000000001
 44
0.0000000001
 40
0.0
 40
0.0
 40
0.0
 40
0.0
 40
58.46297882092534
 40
119.2531427572753
 40
204.6842759331117
 40
284.3736571537306
 40
350.8804670941745
 40
402.5290531819043
 40
437.3480493247452
 40
437.3480493247452
 40
437.3480493247452
 40
437.3480493247452
 10
19472.69523561431
 20
-82442.06956818912
 30
0.0
 10
19484.2722084775
 20
-82426.33054503929
 30
0.0
 10
19507.88698872637
 20
-82394.22598908955
 30
0.0
 10
19532.01511325635
 20
-82328.9522684813
 30
0.0
 10
19532.6295922466
 20
-82253.30328725577
 30
0.0
 10
19536.2907622493
 20
-82175.13381279133
 30
0.0
 10
19517.38999570105
 20
-82112.49113301857
 30
0.0
 10
19506.30914948695
 20
-82059.8520161314
 30
0.0
 10
19482.65701172969
 20
-82042.05971626667
 30
0.0
 10
19473.13270594831
 20
-82034.89506560357
 30
0.0
 11
19472.69523561431
 21
-82442.06956818912
 31
0.0
 11
19505.12918421916
 21
-82393.42844494434
 31
0.0
 11
19526.20001682732
 21
-82336.4068346145
 31
0.0
 11
19533.22363578388
 21
-82251.2649102032
 31
0.0
 11
19531.66281539484
 21
-82171.59081579957
 31
0.0
 11
19516.83519155145
 21
-82106.75797427914
 31
0.0
 11
19498.88597545655
 21
-82058.32862278192
 31
0.0
 11
19473.13270594831
 21
-82034.89506560357
 31
0.0
  0
SPLINE
  5
13EA5
330
1F07
100
AcDbEntity
  8
器具
100
AcDbSpline
 70
     0
 71
     3
 72
     8
 73
     4
 74
     0
 42
0.0000000001
 43
0.0000000001
 40
0.0
 40
0.0
 40
0.0
 40
0.0
 40
0.2364919705947375
 40
0.2364919705947375
 40
0.2364919705947375
 40
0.2364919705947375
 10
19473.13270594831
 20
-82034.89506560357
 30
0.0
 10
19469.6949033109
 20
-82032.20213647801
 30
0.0
 10
19466.25710067543
 20
-82029.50920735293
 30
0.0
 10
19462.81929803898
 20
-82026.8162782321
 30
0.0
  0
SPLINE
  5
13EA6
330
1F07
100
AcDbEntity
  8
器具
100
AcDbSpline
210
0.0
220
0.0
230
1.0
 70
     8
 71
     3
 72
    10
 73
     6
 74
     0
 42
0.0000000001
 43
0.0000000001
 40
0.1173440344217935
 40
0.1173440344217935
 40
0.1173440344217935
 40
0.1173440344217935
 40
2.112344147919035
 40
3.776864906071691
 40
5.182479075873573
 40
5.182479075873573
 40
5.182479075873573
 40
5.182479075873573
 10
17047.55563240839
 20
-82205.2212626874
 30
0.0
 10
17063.7933328301
 20
-82172.22434298273
 30
0.0
 10
17093.56226178599
 20
-82111.66794913314
 30
0.0
 10
17134.00508825574
 20
-82026.54394725835
 30
0.0
 10
17144.12636791519
 20
-81970.62980586123
 30
0.0
 10
17148.22275355135
 20
-81944.86912275378
 30
0.0
  0
SPLINE
  5
13EA7
330
1F07
100
AcDbEntity
  8
器具
100
AcDbSpline
210
0.0
220
0.0
230
1.0
 70
     8
 71
     3
 72
    12
 73
     8
 74
     0
 42
0.0000000001
 43
0.0000000001
 40
0.0
 40
0.0
 40
0.0
 40
0.0
 40
1.514413948847701
 40
2.661488699554009
 40
4.035060966216514
 40
5.579194620125961
 40
6.006458861153994
 40
6.006458861153994
 40
6.006458861153994
 40
6.006458861153994
 10
16704.66269696268
 20
-81275.93715341937
 30
0.0
 10
16729.75450982284
 20
-81288.34300003006
 30
0.0
 10
16773.85181652283
 20
-81310.14550692867
 30
0.0
 10
16835.91271131557
 20
-81351.77764694493
 30
0.0
 10
16893.30794404262
 20
-81400.07179341772
 30
0.0
 10
16940.64866632721
 20
-81440.2197420315
 30
0.0
 10
16964.29562932219
 20
-81467.86354558319
 30
0.0
 10
16969.31703909644
 20
-81473.951846447
 30
0.0
  0
SPLINE
  5
13EA8
330
1F07
100
AcDbEntity
  8
器具
100
AcDbSpline
210
0.0
220
0.0
230
1.0
 70
     8
 71
     3
 72
    16
 73
    12
 74
     0
 42
0.0000000001
 43
0.0000000001
 40
0.4491976626629266
 40
0.4491976626629266
 40
0.4491976626629266
 40
0.4491976626629266
 40
1.64844483254703
 40
3.422777163729845
 40
4.175566251412356
 40
4.736801213540386
 40
5.30508405851055
 40
5.813524762738438
 40
6.15536248057692
 40
6.891817359182198
 40
7.439384515920401
 40
7.439384515920401
 40
7.439384515920401
 40
7.439384515920401
 10
16879.38801201069
 20
-81388.40567254712
 30
0.0
 10
16901.38124946337
 20
-81385.36884325617
 30
0.0
 10
16955.87684170491
 20
-81378.3846046391
 30
0.0
 10
17023.74104521681
 20
-81375.85474530771
 30
0.0
 10
17082.71213540018
 20
-81374.60876380142
 30
0.0
 10
17112.56857691641
 20
-81394.58930985286
 30
0.0
 10
17132.36574031319
 20
-81418.69755779625
 30
0.0
 10
17136.23281511412
 20
-81445.60045397277
 30
0.0
 10
17133.40063541698
 20
-81474.67180110062
 30
0.0
 10
17129.77870005319
 20
-81504.72196735503
 30
0.0
 10
17122.07459302844
 20
-81527.10188766048
 30
0.0
 10
17118.37072194574
 20
-81536.52890976152
 30
0.0
  0
SPLINE
  5
13EA9
330
1F07
100
AcDbEntity
  8
器具
100
AcDbSpline
210
0.0
220
0.0
230
1.0
 70
     8
 71
     3
 72
    20
 73
    16
 74
     0
 42
0.0000000001
 43
0.0000000001
 40
0.2710092293797941
 40
0.2710092293797941
 40
0.2710092293797941
 40
0.2710092293797941
 40
1.091687521501822
 40
2.410546380097729
 40
3.968862913595355
 40
4.582668819879113
 40
5.795062067720582
 40
6.635707280455729
 40
7.279336651339573
 40
8.117985264336946
 40
8.793988400897404
 40
9.833250026302325
 40
10.79501158635508
 40
11.914717308802
 40
12.40433390773178
 40
12.40433390773178
 40
12.40433390773178
 40
12.40433390773178
 10
16796.35322678969
 20
-81325.73198676615
 30
0.0
 10
16811.16856857054
 20
-81322.54213876105
 30
0.0
 10
16849.80446518621
 20
-81314.2857956261
 30
0.0
 10
16916.79435221787
 20
-81301.09964449072
 30
0.0
 10
16980.64077117519
 20
-81291.48497552321
 30
0.0
 10
17043.2185273558
 20
-81288.89563806012
 30
0.0
 10
17092.10709355587
 20
-81293.24265485255
 30
0.0
 10
17141.78091361285
 20
-81306.28637408829
 30
0.0
 10
17172.97194564844
 20
-81337.14136180893
 30
0.0
 10
17195.06355659407
 20
-81370.77549032383
 30
0.0
 10
17209.67114076749
 20
-81415.70799443268
 30
0.0
 10
17221.19371495384
 20
-81464.78372326301
 30
0.0
 10
17210.09432494463
 20
-81521.95775526815
 30
0.0
 10
17202.8923753847
 20
-81569.29186496656
 30
0.0
 10
17190.16465872257
 20
-81596.18358144742
 30
0.0
 10
17186.10376544829
 20
-81604.3022620089
 30
0.0
  0
SPLINE
  5
13EAA
330
1F07
100
AcDbEntity
  8
器具
100
AcDbSpline
210
0.0
220
0.0
230
1.0
 70
     8
 71
     3
 72
    28
 73
    24
 74
     0
 42
0.0000000001
 43
0.0000000001
 40
0.4075862509243488
 40
0.4075862509243488
 40
0.4075862509243488
 40
0.4075862509243488
 40
0.9156752479764577
 40
1.781870633829415
 40
3.181722221570254
 40
4.276652733235149
 40
5.731007959550963
 40
7.016033341233458
 40
7.730735438103905
 40
8.171439125833975
 40
8.617444255243864
 40
8.694723707548389
 40
8.880950030890156
 40
9.044989560774938
 40
9.340992096097741
 40
9.845156107601471
 40
10.31714957927045
 40
10.64921617623214
 40
11.26478149520006
 40
12.57908953218058
 40
13.43769242677189
 40
14.66651635921647
 40
14.89235445605747
 40
14.89235445605747
 40
14.89235445605747
 40
14.89235445605747
 10
17094.36272437322
 20
-81718.70991824112
 30
0.0
 10
17092.38810173052
 20
-81727.8974718793
 30
0.0
 10
17088.05707317339
 20
-81752.87696734301
 30
0.0
 10
17091.70270127953
 20
-81804.88185368618
 30
0.0
 10
17115.34889588359
 20
-81862.76806501535
 30
0.0
 10
17139.75854199727
 20
-81931.37336390478
 30
0.0
 10
17174.05020179403
 20
-81994.13310103954
 30
0.0
 10
17211.89752151216
 20
-82044.59428903865
 30
0.0
 10
17233.35822954177
 20
-82086.200422473
 30
0.0
 10
17253.41190608058
 20
-82104.80104378701
 30
0.0
 10
17266.98492958667
 20
-82124.49877987612
 30
0.0
 10
17279.97788433351
 20
-82118.47937071325
 30
0.0
 10
17280.84852091491
 20
-82109.58733061506
 30
0.0
 10
17285.74501210658
 20
-82098.8811696629
 30
0.0
 10
17285.93447906882
 20
-82080.53229876494
 30
0.0
 10
17290.06634979351
 20
-82057.99699654459
 30
0.0
 10
17288.93017865356
 20
-82031.95668751648
 30
0.0
 10
17269.56908302154
 20
-82013.02468321721
 30
0.0
 10
17245.5250039729
 20
-81979.29386619682
 30
0.0
 10
17212.71759300044
 20
-81938.92003601114
 30
0.0
 10
17186.651669029
 20
-81881.46353406471
 30
0.0
 10
17175.67497731071
 20
-81839.63773705324
 30
0.0
 10
17173.4425710364
 20
-81812.90679712837
 30
0.0
 10
17173.18030175478
 20
-81808.7490326746
 30
0.0
  0
SPLINE
  5
13EAB
330
1F07
100
AcDbEntity
  8
器具
100
AcDbSpline
210
0.0
220
0.0
230
1.0
 70
     8
 71
     3
 72
    13
 73
     9
 74
     7
 42
0.0000000001
 43
0.0000000001
 44
0.0000000001
 40
0.0
 40
0.0
 40
0.0
 40
0.0
 40
75.32710631993797
 40
182.4944445291595
 40
275.6854990533099
 40
374.7653864710609
 40
482.9621180081311
 40
596.3780472680898
 40
596.3780472680898
 40
596.3780472680898
 40
596.3780472680898
 10
16052.96413624051
 20
-81202.92441238019
 30
0.0
 10
16076.66682455042
 20
-81194.66304046648
 30
0.0
 10
16134.0911588743
 20
-81174.64827351078
 30
0.0
 10
16225.48805243356
 20
-81157.55532887835
 30
0.0
 10
16325.4525010922
 20
-81165.15696907958
 30
0.0
 10
16425.02683447633
 20
-81174.61704004355
 30
0.0
 10
16530.39091416973
 20
-81196.27664707694
 30
0.0
 10
16598.3872994159
 20
-81225.57286609225
 30
0.0
 10
16633.18618315873
 20
-81240.56595309136
 30
0.0
 11
16052.96413624051
 21
-81202.92441238019
 31
0.0
 11
16124.59649430215
 21
-81179.62251921539
 31
0.0
 11
16230.25419332558
 21
-81161.69798251501
 31
0.0
 11
16323.37626851248
 21
-81165.28291713214
 31
0.0
 11
16421.87073658315
 21
-81176.03763006137
 31
0.0
 11
16527.52845987034
 21
-81199.33952322634
 31
0.0
 11
16633.18618315873
 21
-81240.56595309136
 31
0.0
  0
SPLINE
  5
13EAC
330
1F07
100
AcDbEntity
  8
器具
100
AcDbSpline
210
0.0
220
0.0
230
1.0
 70
     8
 71
     3
 72
    14
 73
    10
 74
     0
 42
0.0000000001
 43
0.0000000001
 40
0.0
 40
0.0
 40
0.0
 40
0.0
 40
1.006716486919094
 40
2.306100504152091
 40
3.063759549860235
 40
4.397584805614224
 40
6.077660908780345
 40
7.846920095732811
 40
8.972438229128503
 40
8.972438229128503
 40
8.972438229128503
 40
8.972438229128503
 10
16005.87738208068
 20
-81220.13620849967
 30
0.0
 10
15989.56142038555
 20
-81229.03906147262
 30
0.0
 10
15952.18620305655
 20
-81249.43295983575
 30
0.0
 10
15904.62256518966
 20
-81280.42661451434
 30
0.0
 10
15857.52524055526
 20
-81321.95854273867
 30
0.0
 10
15814.7611835399
 20
-81377.61614566704
 30
0.0
 10
15772.57988350863
 20
-81455.21689012728
 30
0.0
 10
15732.82944930484
 20
-81530.03814909034
 30
0.0
 10
15714.66430370891
 20
-81580.2656158735
 30
0.0
 10
15708.10659851829
 20
-81600.00300331716
 30
0.0
  0
ELLIPSE
  5
13EAD
330
1F07
100
AcDbEntity
  8
器具
100
AcDbEllipse
 10
16241.51351020596
 20
-82170.06904855926
 30
0.0
 11
-738.6365329544247
 21
372.9002144160979
 31
0.0
210
0.0
220
0.0
230
-1.0
 40
0.5735224030942715
 41
5.319317111259603
 42
11.4887048457796
  0
ELLIPSE
  5
13EAE
330
1F07
100
AcDbEntity
  8
器具
100
AcDbEllipse
 10
16267.43058238915
 20
-82137.64292121515
 30
0.0
 11
-738.6365329544247
 21
372.9002144160979
 31
0.0
210
0.0
220
0.0
230
-1.0
 40
0.5735224030942715
 41
0.0766055272856706
 42
3.304453193691046
  0
SPLINE
  5
13EAF
330
1F07
100
AcDbEntity
  8
器具
100
AcDbSpline
210
0.0
220
0.0
230
1.0
 70
     8
 71
     3
 72
    18
 73
    14
 74
     0
 42
0.0000000001
 43
0.0000000001
 40
0.0
 40
0.0
 40
0.0
 40
0.0
 40
0.8441027040932249
 40
2.337984691468718
 40
3.924698872351697
 40
4.708956312747695
 40
6.445766627369883
 40
8.479747979302988
 40
10.9239299574944
 40
13.60973124781731
 40
15.68581598215707
 40
17.45344704050482
 40
17.88706524406039
 40
17.88706524406039
 40
17.88706524406039
 40
17.88706524406039
 10
17016.61715755518
 20
-82486.92160143631
 30
0.0
 10
17025.10880165645
 20
-82473.77692961777
 30
0.0
 10
17048.62884704616
 20
-82437.36898856898
 30
0.0
 10
17063.08086437134
 20
-82363.70597222183
 30
0.0
 10
17053.62291478456
 20
-82292.8931692029
 30
0.0
 10
17053.6519924163
 20
-82216.76084454792
 30
0.0
 10
17027.60736685658
 20
-82135.18085060464
 30
0.0
 10
16974.46360507064
 20
-82033.28567953823
 30
0.0
 10
16893.23511497264
 20
-81927.93036839121
 30
0.0
 10
16797.57944784673
 20
-81834.92507965413
 30
0.0
 10
16702.13293487661
 20
-81760.95731856209
 30
0.0
 10
16636.0842535675
 20
-81717.59458566539
 30
0.0
 10
16602.94335191835
 20
-81694.06552878211
 30
0.0
 10
16596.43754902461
 20
-81689.39843070928
 30
0.0
  0
SPLINE
  5
13EB0
330
1F07
100
AcDbEntity
  8
器具
100
AcDbSpline
210
0.0
220
0.0
230
1.0
 70
     8
 71
     3
 72
    18
 73
    14
 74
     0
 42
0.0000000001
 43
0.0000000001
 40
0.4450744438050633
 40
0.4450744438050633
 40
0.4450744438050633
 40
0.4450744438050633
 40
1.486674181599183
 40
2.520971650088712
 40
4.306265635583994
 40
5.880425757372467
 40
7.117249954469757
 40
7.91357718206802
 40
9.382237567625724
 40
10.71875824589242
 40
12.2591334636585
 40
13.47647338102663
 40
14.55147522052894
 40
14.55147522052894
 40
14.55147522052894
 40
14.55147522052894
 10
16394.52253226796
 20
-81603.30335555547
 30
0.0
 10
16376.40276236598
 20
-81596.84926945352
 30
0.0
 10
16340.24793655805
 20
-81584.1118360975
 30
0.0
 10
16272.47558619252
 20
-81561.97395594588
 30
0.0
 10
16194.48103763748
 20
-81539.30057673921
 30
0.0
 10
16109.92771262464
 20
-81527.3639113702
 30
0.0
 10
16043.25453510714
 20
-81529.92084597769
 30
0.0
 10
15978.65165664299
 20
-81523.30345596876
 30
0.0
 10
15912.56044497876
 20
-81535.16379852973
 30
0.0
 10
15833.30341146755
 20
-81546.18992564937
 30
0.0
 10
15759.95829000437
 20
-81567.85476169972
 30
0.0
 10
15699.08470736861
 20
-81604.73895149547
 30
0.0
 10
15665.14472092886
 20
-81630.01012381165
 30
0.0
 10
15649.22844328476
 20
-81641.86113016706
 30
0.0
  0
ELLIPSE
  5
13EB1
330
1F07
100
AcDbEntity
  8
器具
100
AcDbEllipse
 10
16240.44369749434
 20
-82195.59920509249
 30
0.0
 11
-566.423861374924
 21
238.0174131006087
 31
0.0
210
0.0
220
0.0
230
-0.9999999999999998
 40
0.5594443247472768
 41
1.306874982748366
 42
7.446672144473232
  0
ELLIPSE
  5
13EBB
330
1F07
100
AcDbEntity
  8
器具
100
AcDbEllipse
 10
16249.62953116397
 20
-82140.25042331051
 30
0.0
 11
-534.6018374405398
 21
266.8405793143527
 31
0.0
210
0.0
220
0.0
230
-0.9999999999999998
 40
0.5279972155053611
 41
2.370063518027635
 42
6.155952765395395
  0
ELLIPSE
  5
13EBC
330
1F07
100
AcDbEntity
  8
器具
100
AcDbEllipse
 10
16592.90251729254
 20
-82164.42640911749
 30
0.0
 11
-44.68423405680727
 21
21.66382191376927
 31
0.0
210
0.0
220
0.0
230
-0.9999999999999998
 40
0.687369148781083
 41
0.0
 42
6.283185307179586
  0
ELLIPSE
  5
13EBD
330
1F07
100
AcDbEntity
  8
器具
100
AcDbEllipse
 10
16444.14588643872
 20
-82032.38895529665
 30
0.0
 11
-44.68423405680727
 21
21.66382191376927
 31
0.0
210
0.0
220
0.0
230
-0.9999999999999998
 40
0.687369148781083
 41
0.0
 42
6.283185307179586
  0
ELLIPSE
  5
13EBE
330
1F07
100
AcDbEntity
  8
器具
100
AcDbEllipse
 10
16449.75936114466
 20
-82214.99393688231
 30
0.0
 11
-44.68423405680727
 21
21.66382191376927
 31
0.0
210
0.0
220
0.0
230
-0.9999999999999998
 40
0.687369148781083
 41
0.0
 42
6.283185307179586
  0
ELLIPSE
  5
13EBF
330
1F07
100
AcDbEntity
  8
器具
100
AcDbEllipse
 10
16463.79298725385
 20
-82394.78960127064
 30
0.0
 11
-44.68423405680727
 21
21.66382191376927
 31
0.0
210
0.0
220
0.0
230
-0.9999999999999998
 40
0.687369148781083
 41
0.0
 42
6.283185307179586
  0
ELLIPSE
  5
13EC0
330
1F07
100
AcDbEntity
  8
器具
100
AcDbEllipse
 10
16604.12941817863
 20
-82332.9848501622
 30
0.0
 11
-44.68423405680727
 21
21.66382191376927
 31
0.0
210
0.0
220
0.0
230
-0.9999999999999998
 40
0.687369148781083
 41
0.0
 42
6.283185307179586
  0
ELLIPSE
  5
13EC1
330
1F07
100
AcDbEntity
  8
器具
100
AcDbEllipse
 10
16747.27257432562
 20
-82285.22659413243
 30
0.0
 11
-44.68423405680727
 21
21.66382191376927
 31
0.0
210
0.0
220
0.0
230
-0.9999999999999998
 40
0.687369148781083
 41
0.0
 42
6.283185307179586
  0
ELLIPSE
  5
13EC2
330
1F07
100
AcDbEntity
  8
器具
100
AcDbEllipse
 10
16309.42293021981
 20
-82254.3242413076
 30
0.0
 11
-44.68423405680727
 21
21.66382191376927
 31
0.0
210
0.0
220
0.0
230
-0.9999999999999998
 40
0.687369148781083
 41
0.0
 42
6.283185307179586
  0
ELLIPSE
  5
13EC3
330
1F07
100
AcDbEntity
  8
器具
100
AcDbEllipse
 10
16331.87675625592
 20
-82428.50127129253
 30
0.0
 11
-44.68423405680727
 21
21.66382191376927
 31
0.0
210
0.0
220
0.0
230
-0.9999999999999998
 40
0.687369148781083
 41
0.0
 42
6.283185307179586
  0
ELLIPSE
  5
13EC4
330
1F07
100
AcDbEntity
  8
器具
100
AcDbEllipse
 10
16194.34705055217
 20
-82394.78960127064
 30
0.0
 11
-44.68423405680727
 21
21.66382191376927
 31
0.0
210
0.0
220
0.0
230
-0.9999999999999998
 40
0.687369148781083
 41
0.0
 42
6.283185307179586
  0
ELLIPSE
  5
13EC5
330
1F07
100
AcDbEntity
  8
器具
100
AcDbEllipse
 10
16177.50669922298
 20
-82226.23116022141
 30
0.0
 11
-44.68423405680727
 21
21.66382191376927
 31
0.0
210
0.0
220
0.0
230
-0.9999999999999998
 40
0.687369148781083
 41
0.0
 42
6.283185307179586
  0
ELLIPSE
  5
13EC6
330
1F07
100
AcDbEntity
  8
器具
100
AcDbEllipse
 10
16048.39716918429
 20
-82265.56146465087
 30
0.0
 11
-44.68423405680727
 21
21.66382191376927
 31
0.0
210
0.0
220
0.0
230
-0.9999999999999998
 40
0.687369148781083
 41
0.0
 42
6.283185307179586
  0
ELLIPSE
  5
13EC7
330
1F07
100
AcDbEntity
  8
器具
100
AcDbEllipse
 10
16034.36354307707
 20
-82094.1937064045
 30
0.0
 11
-44.68423405680727
 21
21.66382191376927
 31
0.0
210
0.0
220
0.0
230
-0.9999999999999998
 40
0.687369148781083
 41
0.0
 42
6.283185307179586
  0
ELLIPSE
  5
13EC8
330
1F07
100
AcDbEntity
  8
器具
100
AcDbEllipse
 10
16166.27977407291
 20
-82038.00754423669
 30
0.0
 11
-44.68423405680727
 21
21.66382191376927
 31
0.0
210
0.0
220
0.0
230
-0.9999999999999998
 40
0.687369148781083
 41
0.0
 42
6.283185307179586
  0
ELLIPSE
  5
13EC9
330
1F07
100
AcDbEntity
  8
器具
100
AcDbEllipse
 10
16298.19600507084
 20
-82091.38438920302
 30
0.0
 11
-44.68423405680727
 21
21.66382191376927
 31
0.0
210
0.0
220
0.0
230
-0.9999999999999998
 40
0.687369148781083
 41
0.0
 42
6.283185307179586
  0
ELLIPSE
  5
13ECA
330
1F07
100
AcDbEntity
  8
器具
100
AcDbEllipse
 10
16286.96910418369
 20
-81911.58872481452
 30
0.0
 11
-44.68423405680727
 21
21.66382191376927
 31
0.0
210
0.0
220
0.0
230
-0.9999999999999998
 40
0.687369148781083
 41
0.0
 42
6.283185307179586
  0
ELLIPSE
  5
13ECB
330
1F07
100
AcDbEntity
  8
器具
100
AcDbEllipse
 10
16143.8259480368
 20
-81866.63983145324
 30
0.0
 11
-44.68423405680727
 21
21.66382191376927
 31
0.0
210
0.0
220
0.0
230
-0.9999999999999998
 40
0.687369148781083
 41
0.0
 42
6.283185307179586
  0
ELLIPSE
  5
13ECC
330
1F07
100
AcDbEntity
  8
器具
100
AcDbEllipse
 10
16017.52316748397
 20
-81917.207359218
 30
0.0
 11
-44.68423405680727
 21
21.66382191376927
 31
0.0
210
0.0
220
0.0
230
-0.9999999999999998
 40
0.687369148781083
 41
0.0
 42
6.283185307179586
  0
ELLIPSE
  5
13ECD
330
1F07
100
AcDbEntity
  8
器具
100
AcDbEllipse
 10
15896.83383737327
 20
-81967.77488698664
 30
0.0
 11
-44.68423405680727
 21
21.66382191376927
 31
0.0
210
0.0
220
0.0
230
-0.9999999999999998
 40
0.687369148781083
 41
0.0
 42
6.283185307179586
  0
ELLIPSE
  5
13ECE
330
1F07
100
AcDbEntity
  8
器具
100
AcDbEllipse
 10
15764.91760637534
 20
-82023.96104915461
 30
0.0
 11
-44.68423405680727
 21
21.66382191376927
 31
0.0
210
0.0
220
0.0
230
-0.9999999999999998
 40
0.687369148781083
 41
0.0
 42
6.283185307179586
  0
ELLIPSE
  5
13ECF
330
1F07
100
AcDbEntity
  8
器具
100
AcDbEllipse
 10
15913.67421296629
 20
-82153.18918577422
 30
0.0
 11
-44.68423405680727
 21
21.66382191376927
 31
0.0
210
0.0
220
0.0
230
-0.9999999999999998
 40
0.687369148781083
 41
0.0
 42
6.283185307179586
  0
LINE
  5
13ED0
330
1F07
100
AcDbEntity
  8
器具
100
AcDbLine
 10
16517.9862929041
 20
-81689.39843070644
 30
0.0
 11
17007.28249673359
 21
-81689.39843070644
 31
0.0
  0
LINE
  5
13ED1
330
1F07
100
AcDbEntity
  8
器具
100
AcDbLine
 10
16512.05501529094
 20
-81454.28051283353
 30
0.0
 11
16936.80335705681
 21
-81471.79855508383
 31
0.0
  0
LINE
  5
13ED2
330
1F07
100
AcDbEntity
  8
器具
100
AcDbLine
 10
17407.1374420437
 20
-81981.6660767238
 30
0.0
 11
17202.23929461578
 21
-82411.21491405781
 31
0.0
  0
LINE
  5
13ED3
330
1F07
100
AcDbEntity
  8
器具
100
AcDbLine
 10
17162.77990729402
 20
-82158.44287990705
 30
0.0
 11
17211.1623334123
 21
-82046.41926427044
 31
0.0
  0
LINE
  5
13ED4
330
1F07
100
AcDbEntity
  8
器具
100
AcDbLine
 10
17241.84689868145
 20
-81975.37289017509
 30
0.0
 11
17287.4955494061
 21
-81869.67899854554
 31
0.0
  0
LINE
  5
13ED5
330
1F07
100
AcDbEntity
  8
器具
100
AcDbLine
 10
17364.11503719369
 20
-81677.36981390678
 30
0.0
 11
17407.80350756881
 21
-81948.33105589179
 31
0.0
  0
LINE
  5
13ED6
330
1F07
100
AcDbEntity
  8
器具
100
AcDbLine
 10
19294.75911515778
 20
-82442.06956818748
 30
0.0
 11
19472.69523561429
 21
-82442.06956818748
 31
0.0
  0
LINE
  5
13ED7
330
1F07
100
AcDbEntity
  8
器具
100
AcDbLine
 10
19379.84937349375
 20
-82026.81627822933
 30
0.0
 11
19462.81929803842
 21
-82026.81627822933
 31
0.0
  0
LINE
  5
13ED8
330
1F07
100
AcDbEntity
  8
器具
100
AcDbLine
 10
17110.4734632287
 20
-81851.47719289288
 30
0.0
 11
17022.34377777799
 21
-82055.59255509198
 31
0.0
  0
LINE
  5
13ED9
330
1F07
100
AcDbEntity
  8
器具
100
AcDbLine
 10
17022.34377777799
 20
-82055.59255509198
 30
0.0
 11
17004.46655139394
 21
-82028.75205521788
 31
0.0
  0
LINE
  5
13EDA
330
1F07
100
AcDbEntity
  8
器具
100
AcDbLine
 10
17004.46655139394
 20
-82028.75205521788
 30
0.0
 11
17097.55670480922
 21
-81813.73124277751
 31
0.0
  0
LINE
  5
13EDD
330
1F07
100
AcDbEntity
  8
器具
100
AcDbLine
 10
19541.71333685999
 20
-81653.99656200108
 30
0.0
 11
19621.34312528565
 21
-81646.22691897015
 31
0.0
  0
LINE
  5
13EDE
330
1F07
100
AcDbEntity
  8
器具
100
AcDbLine
 10
19579.1812222822
 20
-81602.94688456307
 30
0.0
 11
19517.49394116312
 21
-81623.71912422566
 31
0.0
  0
LINE
  5
13EDF
330
1F07
100
AcDbEntity
  8
器具
100
AcDbLine
 10
19442.09657378646
 20
-81980.10054480439
 30
0.0
 11
19411.40685180563
 21
-81988.90563463306
 31
0.0
  0
LINE
  5
13EE0
330
1F07
100
AcDbEntity
  8
器具
100
AcDbLine
 10
19559.43975320563
 20
-82871.92206325158
 30
0.0
 11
19640.01401863745
 21
-82879.88873466392
 31
0.0
  0
LINE
  5
13EE1
330
1F07
100
AcDbEntity
  8
器具
100
AcDbLine
 10
19637.77690639085
 20
-82828.61561654538
 30
0.0
 11
19566.24802468938
 21
-82830.79493999077
 31
0.0
  0
LINE
  5
13EE2
330
1F07
100
AcDbEntity
  8
器具
100
AcDbLine
 10
19404.16808763551
 20
-82461.35933107531
 30
0.0
 11
19428.61022105857
 21
-82471.53584865097
 31
0.0
  0
LINE
  5
13EE3
330
1F07
100
AcDbEntity
  8
器具
100
AcDbLine
 10
19781.59322214414
 20
-82826.42028458742
 30
0.0
 11
19843.91917250282
 21
-82769.76993915633
 31
0.0
  0
LINE
  5
13EE4
330
1F07
100
AcDbEntity
  8
器具
100
AcDbLine
 10
19732.38734077004
 20
-82783.65202954661
 30
0.0
 11
19637.77690639085
 21
-82828.61561654538
 31
0.0
  0
LINE
  5
13EE5
330
1F07
100
AcDbEntity
  8
器具
100
AcDbLine
 10
20071.23845116169
 20
-82898.59529234126
 30
0.0
 11
20043.9032967956
 21
-82881.51203581557
 31
0.0
  0
LINE
  5
13EE6
330
1F07
100
AcDbEntity
  8
器具
100
AcDbLine
 10
19699.62371344282
 20
-82868.39427543538
 30
0.0
 11
19781.59322214414
 21
-82826.42028458742
 31
0.0
  0
LINE
  5
13EE7
330
1F07
100
AcDbEntity
  8
器具
100
AcDbLine
 10
19640.01401863745
 20
-82879.88873466392
 30
0.0
 11
19699.62371344282
 21
-82868.39427543538
 31
0.0
  0
LINE
  5
13EE8
330
1F07
100
AcDbEntity
  8
器具
100
AcDbLine
 10
19706.64565234194
 20
-82879.2656979944
 30
0.0
 11
20039.96758326217
 21
-82881.96552356204
 31
0.0
  0
LINE
  5
13EE9
330
1F07
100
AcDbEntity
  8
器具
100
AcDbLine
 10
19899.37455148017
 20
-81779.04700157874
 30
0.0
 11
19845.82915878914
 21
-81706.7091963244
 31
0.0
  0
LINE
  5
13EEA
330
1F07
100
AcDbEntity
  8
器具
100
AcDbLine
 10
19751.29862829784
 20
-81706.6107961623
 30
0.0
 11
19812.06300166608
 21
-81774.04792712939
 31
0.0
  0
LINE
  5
13EEB
330
1F07
100
AcDbEntity
  8
器具
100
AcDbLine
 10
19475.07408181816
 20
-81986.06038678871
 30
0.0
 11
19442.09657378646
 21
-81980.10054480439
 31
0.0
  0
LINE
  5
13EEC
330
1F07
100
AcDbEntity
  8
器具
100
AcDbLine
 10
19655.7279581654
 20
-81920.98963319573
 30
0.0
 11
19650.80274070354
 21
-81915.15225754045
 31
0.0
  0
LINE
  5
13EED
330
1F07
100
AcDbEntity
  8
器具
100
AcDbLine
 10
19650.80274070354
 20
-81915.15225754045
 30
0.0
 11
19640.22495206655
 21
-81916.17421136589
 31
0.0
  0
LINE
  5
13EEE
330
1F07
100
AcDbEntity
  8
器具
100
AcDbLine
 10
19640.22495206655
 20
-81916.17421136589
 30
0.0
 11
19631.48114827374
 21
-81924.49827430191
 31
0.0
  0
LINE
  5
13EEF
330
1F07
100
AcDbEntity
  8
器具
100
AcDbLine
 10
19631.48114827374
 20
-81924.49827430191
 30
0.0
 11
19627.3901171181
 21
-81932.64745600684
 31
0.0
  0
LINE
  5
13EF0
330
1F07
100
AcDbEntity
  8
器具
100
AcDbLine
 10
19622.02746851518
 20
-81960.91085204683
 30
0.0
 11
19622.62571682478
 21
-81975.96453777235
 31
0.0
  0
LINE
  5
13EF1
330
1F07
100
AcDbEntity
  8
器具
100
AcDbLine
 10
19622.62571682478
 20
-81975.96453777235
 30
0.0
 11
19626.91902220649
 21
-81994.6313865415
 31
0.0
  0
LINE
  5
13EF2
330
1F07
100
AcDbEntity
  8
器具
100
AcDbLine
 10
19626.91902220649
 20
-81994.6313865415
 30
0.0
 11
19634.43652442386
 21
-82007.62010784394
 31
0.0
  0
LINE
  5
13EF3
330
1F07
100
AcDbEntity
  8
器具
100
AcDbLine
 10
19634.43652442386
 20
-82007.62010784394
 30
0.0
 11
19644.45274932743
 21
-82012.68729384084
 31
0.0
  0
LINE
  5
13EF4
330
1F07
100
AcDbEntity
  8
器具
100
AcDbLine
 10
19644.45274932743
 20
-82012.68729384084
 30
0.0
 11
19655.20909218966
 21
-82006.98625825051
 31
0.0
  0
LINE
  5
13EF5
330
1F07
100
AcDbEntity
  8
器具
100
AcDbLine
 10
19624.40449289843
 20
-81942.35627062155
 30
0.0
 11
19622.02746851518
 21
-81960.91085204683
 31
0.0
  0
LINE
  5
13EF6
330
1F07
100
AcDbEntity
  8
器具
100
AcDbLine
 10
19428.61022105857
 20
-82471.53584865097
 30
0.0
 11
19454.42113475739
 21
-82472.58367739302
 31
0.0
  0
LINE
  5
13EF7
330
1F07
100
AcDbEntity
  8
器具
100
AcDbLine
 10
19619.99342763591
 20
-82508.88165406495
 30
0.0
 11
19621.12697290507
 21
-82521.16758635979
 31
0.0
  0
LINE
  5
13EF8
330
1F07
100
AcDbEntity
  8
器具
100
AcDbLine
 10
19621.12697290507
 20
-82521.16758635979
 30
0.0
 11
19624.24856939337
 21
-82534.13292553625
 31
0.0
  0
LINE
  5
13EF9
330
1F07
100
AcDbEntity
  8
器具
100
AcDbLine
 10
19624.24856939337
 20
-82534.13292553625
 30
0.0
 11
19630.92205452449
 21
-82547.18915562426
 31
0.0
  0
LINE
  5
13EFA
330
1F07
100
AcDbEntity
  8
器具
100
AcDbLine
 10
19630.92205452449
 20
-82547.18915562426
 30
0.0
 11
19638.51060108835
 21
-82553.24526135295
 31
0.0
  0
LINE
  5
13EFB
330
1F07
100
AcDbEntity
  8
器具
100
AcDbLine
 10
19638.51060108835
 20
-82553.24526135295
 30
0.0
 11
19649.26389647546
 21
-82551.78681937403
 31
0.0
  0
LINE
  5
13EFC
330
1F07
100
AcDbEntity
  8
器具
100
AcDbLine
 10
19649.26389647546
 20
-82551.78681937403
 30
0.0
 11
19657.09837979155
 21
-82542.68951021504
 31
0.0
  0
LINE
  5
13EFD
330
1F07
100
AcDbEntity
  8
器具
100
AcDbLine
 10
19657.09837979155
 20
-82542.68951021504
 30
0.0
 11
19663.47842079545
 21
-82524.65163292646
 31
0.0
  0
LINE
  5
13EFE
330
1F07
100
AcDbEntity
  8
器具
100
AcDbLine
 10
19663.47842079545
 20
-82524.65163292646
 30
0.0
 11
19665.44774792519
 21
-82504.74002152362
 31
0.0
  0
LINE
  5
13EFF
330
1F07
100
AcDbEntity
  8
器具
100
AcDbLine
 10
19665.44774792519
 20
-82504.74002152362
 30
0.0
 11
19664.16748212003
 21
-82488.65243945145
 31
0.0
  0
LINE
  5
13F00
330
1F07
100
AcDbEntity
  8
器具
100
AcDbLine
 10
19664.16748212003
 20
-82488.65243945145
 30
0.0
 11
19659.18282186318
 21
-82471.26797068139
 31
0.0
  0
LINE
  5
13F01
330
1F07
100
AcDbEntity
  8
器具
100
AcDbLine
 10
19659.18282186318
 20
-82471.26797068139
 30
0.0
 11
19651.52784836369
 21
-82460.08079161347
 31
0.0
  0
LINE
  5
13F02
330
1F07
100
AcDbEntity
  8
器具
100
AcDbLine
 10
19651.52784836369
 20
-82460.08079161347
 30
0.0
 11
19642.96567937147
 21
-82456.42916686504
 31
0.0
  0
LINE
  5
13F03
330
1F07
100
AcDbEntity
  8
器具
100
AcDbLine
 10
19642.96567937147
 20
-82456.42916686504
 30
0.0
 11
19632.47270970538
 21
-82461.83632918246
 31
0.0
  0
LINE
  5
13F04
330
1F07
100
AcDbEntity
  8
器具
100
AcDbLine
 10
19632.47270970538
 20
-82461.83632918246
 30
0.0
 11
19625.27886375837
 21
-82474.17241314249
 31
0.0
  0
LINE
  5
13F05
330
1F07
100
AcDbEntity
  8
器具
100
AcDbLine
 10
19625.27886375837
 20
-82474.17241314249
 30
0.0
 11
19621.59057728053
 21
-82487.41213093872
 31
0.0
  0
LINE
  5
13F06
330
1F07
100
AcDbEntity
  8
器具
100
AcDbLine
 10
19621.59057728053
 20
-82487.41213093872
 30
0.0
 11
19620.28228769296
 21
-82497.27672667557
 31
0.0
  0
LINE
  5
13F07
330
1F07
100
AcDbEntity
  8
器具
100
AcDbLine
 10
19620.28228769296
 20
-82497.27672667557
 30
0.0
 11
19619.95065350788
 21
-82504.47657942489
 31
0.0
  0
LINE
  5
13F08
330
1F07
100
AcDbEntity
  8
器具
100
AcDbLine
 10
19454.42113475739
 20
-82472.58367739302
 30
0.0
 11
19487.74131972587
 21
-82459.31827746494
 31
0.0
  0
LINE
  5
13F09
330
1F07
100
AcDbEntity
  8
器具
100
AcDbLine
 10
19945.18909889967
 20
-81869.1269334278
 30
0.0
 11
19899.37455148017
 21
-81779.04700157874
 31
0.0
  0
LINE
  5
13F0A
330
1F07
100
AcDbEntity
  8
器具
100
AcDbLine
 10
19812.06300166608
 20
-81774.04792712939
 30
0.0
 11
19861.72501376265
 21
-81859.1962697441
 31
0.0
  0
LINE
  5
13F0B
330
1F07
100
AcDbEntity
  8
器具
100
AcDbLine
 10
19773.68926757196
 20
-81935.64752348912
 30
0.0
 11
19768.65457279088
 21
-81924.87184388118
 31
0.0
  0
LINE
  5
13F0C
330
1F07
100
AcDbEntity
  8
器具
100
AcDbLine
 10
19768.65457279088
 20
-81924.87184388118
 30
0.0
 11
19755.4940228147
 21
-81915.73137860387
 31
0.0
  0
LINE
  5
13F0D
330
1F07
100
AcDbEntity
  8
器具
100
AcDbLine
 10
19755.4940228147
 20
-81915.73137860387
 30
0.0
 11
19658.76679918909
 21
-81915.1963123455
 31
0.0
  0
LINE
  5
13F0E
330
1F07
100
AcDbEntity
  8
器具
100
AcDbLine
 10
19664.69254993269
 20
-81986.88070278686
 30
0.0
 11
19667.36640892188
 21
-81968.20321706047
 31
0.0
  0
LINE
  5
13F0F
330
1F07
100
AcDbEntity
  8
器具
100
AcDbLine
 10
19667.36640892188
 20
-81968.20321706047
 30
0.0
 11
19666.8405303498
 21
-81952.02789587396
 31
0.0
  0
LINE
  5
13F10
330
1F07
100
AcDbEntity
  8
器具
100
AcDbLine
 10
19549.62999378644
 20
-82076.81351603367
 30
0.0
 11
19519.21711096176
 21
-82022.25645174527
 31
0.0
  0
LINE
  5
13F11
330
1F07
100
AcDbEntity
  8
器具
100
AcDbLine
 10
19754.95431018344
 20
-82013.29855564027
 30
0.0
 11
19764.2826025586
 21
-82009.08332545333
 31
0.0
  0
LINE
  5
13F12
330
1F07
100
AcDbEntity
  8
器具
100
AcDbLine
 10
19764.2826025586
 20
-82009.08332545333
 30
0.0
 11
19774.4013406794
 21
-81990.38271388253
 31
0.0
  0
LINE
  5
13F13
330
1F07
100
AcDbEntity
  8
器具
100
AcDbLine
 10
19774.4013406794
 20
-81990.38271388253
 30
0.0
 11
19777.39084425074
 21
-81975.06698056818
 31
0.0
  0
LINE
  5
13F14
330
1F07
100
AcDbEntity
  8
器具
100
AcDbLine
 10
19777.39084425074
 20
-81975.06698056818
 30
0.0
 11
19776.81229355241
 21
-81948.68340973481
 31
0.0
  0
LINE
  5
13F15
330
1F07
100
AcDbEntity
  8
器具
100
AcDbLine
 10
19901.48829946774
 20
-81964.26453119928
 30
0.0
 11
19928.87019386435
 21
-82090.54535907915
 31
0.0
  0
LINE
  5
13F16
330
1F07
100
AcDbEntity
  8
器具
100
AcDbLine
 10
19666.8405303498
 20
-81952.02789587396
 30
0.0
 11
19662.98936095883
 21
-81934.45856302005
 31
0.0
  0
LINE
  5
13F17
330
1F07
100
AcDbEntity
  8
器具
100
AcDbLine
 10
19776.81229355241
 20
-81948.68340973481
 30
0.0
 11
19773.68926757196
 21
-81935.64752348912
 31
0.0
  0
LINE
  5
13F18
330
1F07
100
AcDbEntity
  8
器具
100
AcDbLine
 10
19986.41604334832
 20
-81996.78286313915
 30
0.0
 11
19945.18909889967
 21
-81869.1269334278
 31
0.0
  0
LINE
  5
13F19
330
1F07
100
AcDbEntity
  8
器具
100
AcDbLine
 10
19861.72501376265
 20
-81859.1962697441
 30
0.0
 11
19901.48829946774
 21
-81964.26453119928
 31
0.0
  0
LINE
  5
13F1A
330
1F07
100
AcDbEntity
  8
器具
100
AcDbLine
 10
19537.11249016016
 20
-82400.75344351135
 30
0.0
 11
19556.93694472643
 21
-82353.0463654354
 31
0.0
  0
LINE
  5
13F1B
330
1F07
100
AcDbEntity
  8
器具
100
AcDbLine
 10
19520.05811353891
 20
-82427.83135694212
 30
0.0
 11
19537.11249016016
 21
-82400.75344351135
 31
0.0
  0
LINE
  5
13F1C
330
1F07
100
AcDbEntity
  8
器具
100
AcDbLine
 10
19556.93694472643
 20
-82353.0463654354
 30
0.0
 11
19567.95253302634
 21
-82309.59929741617
 31
0.0
  0
LINE
  5
13F1D
330
1F07
100
AcDbEntity
  8
器具
100
AcDbLine
 10
19989.25009359798
 20
-82462.3403959622
 30
0.0
 11
20009.89269082404
 21
-82327.28410455809
 31
0.0
  0
LINE
  5
13F1E
330
1F07
100
AcDbEntity
  8
器具
100
AcDbLine
 10
19934.30919313432
 20
-82335.13711903775
 30
0.0
 11
19915.10917288945
 21
-82454.66761231751
 31
0.0
  0
LINE
  5
13F1F
330
1F07
100
AcDbEntity
  8
器具
100
AcDbLine
 10
19752.92752759595
 20
-82554.60760569999
 30
0.0
 11
19765.28119178473
 21
-82546.91633297245
 31
0.0
  0
LINE
  5
13F20
330
1F07
100
AcDbEntity
  8
器具
100
AcDbLine
 10
19765.28119178473
 20
-82546.91633297245
 30
0.0
 11
19773.10443857594
 21
-82529.04758698901
 31
0.0
  0
LINE
  5
13F21
330
1F07
100
AcDbEntity
  8
器具
100
AcDbLine
 10
19773.10443857594
 20
-82529.04758698901
 30
0.0
 11
19775.20929957814
 21
-82517.72613877159
 31
0.0
  0
LINE
  5
13F22
330
1F07
100
AcDbEntity
  8
器具
100
AcDbLine
 10
19775.20929957814
 20
-82517.72613877159
 30
0.0
 11
19775.82203594534
 21
-82500.22118981972
 31
0.0
  0
LINE
  5
13F23
330
1F07
100
AcDbEntity
  8
器具
100
AcDbLine
 10
19775.82203594534
 20
-82500.22118981972
 30
0.0
 11
19773.11542811295
 21
-82481.85053817728
 31
0.0
  0
LINE
  5
13F24
330
1F07
100
AcDbEntity
  8
器具
100
AcDbLine
 10
19773.11542811295
 20
-82481.85053817728
 30
0.0
 11
19767.51110629141
 21
-82467.62084407654
 31
0.0
  0
LINE
  5
13F25
330
1F07
100
AcDbEntity
  8
器具
100
AcDbLine
 10
19767.51110629141
 20
-82467.62084407654
 30
0.0
 11
19760.65507031209
 21
-82459.58898779331
 31
0.0
  0
LINE
  5
13F26
330
1F07
100
AcDbEntity
  8
器具
100
AcDbLine
 10
19760.65507031209
 20
-82459.58898779331
 30
0.0
 11
19753.46724022727
 21
-82457.0404286644
 31
0.0
  0
LINE
  5
13F27
330
1F07
100
AcDbEntity
  8
器具
100
AcDbLine
 10
19843.91917250282
 20
-82769.76993915633
 30
0.0
 11
19888.31103879088
 21
-82711.69209082019
 31
0.0
  0
LINE
  5
13F28
330
1F07
100
AcDbEntity
  8
器具
100
AcDbLine
 10
19888.31103879088
 20
-82711.69209082019
 30
0.0
 11
19928.77124014956
 21
-82639.8624052482
 31
0.0
  0
LINE
  5
13F29
330
1F07
100
AcDbEntity
  8
器具
100
AcDbLine
 10
19928.77124014956
 20
-82639.8624052482
 30
0.0
 11
19967.37044228846
 21
-82542.77292466996
 31
0.0
  0
LINE
  5
13F2A
330
1F07
100
AcDbEntity
  8
器具
100
AcDbLine
 10
19967.37044228846
 20
-82542.77292466996
 30
0.0
 11
19989.25009359798
 21
-82462.3403959622
 31
0.0
  0
LINE
  5
13F2B
330
1F07
100
AcDbEntity
  8
器具
100
AcDbLine
 10
19915.10917288945
 20
-82454.66761231751
 30
0.0
 11
19884.38674516951
 21
-82558.77060908419
 31
0.0
  0
LINE
  5
13F2C
330
1F07
100
AcDbEntity
  8
器具
100
AcDbLine
 10
19884.38674516951
 20
-82558.77060908419
 30
0.0
 11
19848.42309482464
 21
-82639.78320604604
 31
0.0
  0
LINE
  5
13F2D
330
1F07
100
AcDbEntity
  8
器具
100
AcDbLine
 10
19848.42309482464
 20
-82639.78320604604
 30
0.0
 11
19784.42691550401
 21
-82734.58161639942
 31
0.0
  0
LINE
  5
13F2E
330
1F07
100
AcDbEntity
  8
器具
100
AcDbLine
 10
19575.13665961657
 20
-82251.29777790918
 30
0.0
 11
19573.97656141006
 21
-82182.73091543174
 31
0.0
  0
LINE
  5
13F2F
330
1F07
100
AcDbEntity
  8
器具
100
AcDbLine
 10
20009.89269082404
 20
-82327.28410455809
 30
0.0
 11
20013.65594702053
 21
-82217.37521693585
 31
0.0
  0
LINE
  5
13F30
330
1F07
100
AcDbEntity
  8
器具
100
AcDbLine
 10
20013.65594702053
 20
-82217.37521693585
 30
0.0
 11
20005.77374093491
 21
-82104.34277584559
 31
0.0
  0
LINE
  5
13F31
330
1F07
100
AcDbEntity
  8
器具
100
AcDbLine
 10
19939.1573770174
 20
-82233.90132802059
 30
0.0
 11
19934.30919313432
 21
-82335.13711903775
 31
0.0
  0
LINE
  5
13F32
330
1F07
100
AcDbEntity
  8
器具
100
AcDbLine
 10
19784.42691550401
 20
-82734.58161639942
 30
0.0
 11
19732.38734077004
 21
-82783.65202954661
 31
0.0
  0
LINE
  5
13F33
330
1F07
100
AcDbEntity
  8
器具
100
AcDbLine
 10
19567.95253302634
 20
-82309.59929741617
 30
0.0
 11
19575.13665961657
 21
-82251.29777790918
 31
0.0
  0
LINE
  5
13F34
330
1F07
100
AcDbEntity
  8
器具
100
AcDbLine
 10
19573.97656141006
 20
-82182.73091543174
 30
0.0
 11
19566.48080029839
 21
-82132.98931498229
 31
0.0
  0
LINE
  5
13F35
330
1F07
100
AcDbEntity
  8
器具
100
AcDbLine
 10
19566.48080029839
 20
-82132.98931498229
 30
0.0
 11
19549.62999378644
 21
-82076.81351603367
 31
0.0
  0
LINE
  5
13F36
330
1F07
100
AcDbEntity
  8
器具
100
AcDbLine
 10
20005.77374093491
 20
-82104.34277584559
 30
0.0
 11
19986.41604334832
 21
-81996.78286313915
 31
0.0
  0
LINE
  5
13F37
330
1F07
100
AcDbEntity
  8
器具
100
AcDbLine
 10
19928.87019386435
 20
-82090.54535907915
 30
0.0
 11
19939.1573770174
 21
-82233.90132802059
 31
0.0
  0
LINE
  5
13F38
330
1F07
100
AcDbEntity
  8
器具
100
AcDbLine
 10
19487.74131972587
 20
-82459.31827746494
 30
0.0
 11
19520.05811353891
 21
-82427.83135694212
 31
0.0
  0
LINE
  5
13F39
330
1F07
100
AcDbEntity
  8
器具
100
AcDbLine
 10
19753.46724022727
 20
-82457.0404286644
 30
0.0
 11
19646.86982412445
 21
-82456.45076343381
 31
0.0
  0
LINE
  5
13F3A
330
1F07
100
AcDbEntity
  8
器具
100
AcDbLine
 10
19649.95015233908
 20
-82554.03796545978
 30
0.0
 11
19752.92752759595
 21
-82554.60760569999
 31
0.0
  0
LINE
  5
13F3B
330
1F07
100
AcDbEntity
  8
器具
100
AcDbLine
 10
19662.98936095883
 20
-81934.45856302005
 30
0.0
 11
19655.7279581654
 21
-81920.98963319573
 31
0.0
  0
LINE
  5
13F3C
330
1F07
100
AcDbEntity
  8
器具
100
AcDbLine
 10
19655.20909218966
 20
-82006.98625825051
 30
0.0
 11
19664.69254993269
 21
-81986.88070278686
 31
0.0
  0
LINE
  5
13F3D
330
1F07
100
AcDbEntity
  8
器具
100
AcDbLine
 10
19519.21711096176
 20
-82022.25645174527
 30
0.0
 11
19475.07408181816
 21
-81986.06038678871
 31
0.0
  0
LINE
  5
13F3E
330
1F07
100
AcDbEntity
  8
器具
100
AcDbLine
 10
19754.95431018344
 20
-82013.29855564027
 30
0.0
 11
19644.45274932743
 21
-82012.68729384084
 31
0.0
  0
LINE
  5
13F3F
330
1F07
100
AcDbEntity
  8
器具
100
AcDbLine
 10
19666.63179631617
 20
-81598.28062437959
 30
0.0
 11
19579.1812222822
 21
-81602.94688456307
 31
0.0
  0
LINE
  5
13F40
330
1F07
100
AcDbEntity
  8
器具
100
AcDbLine
 10
19621.34312528565
 20
-81646.22691897015
 30
0.0
 11
19692.68440772242
 21
-81667.29569122395
 31
0.0
  0
LINE
  5
13F41
330
1F07
100
AcDbEntity
  8
器具
100
AcDbLine
 10
19845.82915878914
 20
-81706.7091963244
 30
0.0
 11
19780.7646441884
 21
-81648.59605489208
 31
0.0
  0
LINE
  5
13F42
330
1F07
100
AcDbEntity
  8
器具
100
AcDbLine
 10
20029.92383767598
 20
-81590.8938780519
 30
0.0
 11
20068.72306390101
 21
-81577.18408304686
 31
0.0
  0
LINE
  5
13F43
330
1F07
100
AcDbEntity
  8
器具
100
AcDbLine
 10
19780.7646441884
 20
-81648.59605489208
 30
0.0
 11
19723.88228519098
 21
-81617.37710722805
 31
0.0
  0
LINE
  5
13F44
330
1F07
100
AcDbEntity
  8
器具
100
AcDbLine
 10
19692.68440772242
 20
-81667.29569122395
 30
0.0
 11
19751.29862829784
 21
-81706.6107961623
 31
0.0
  0
LINE
  5
13F45
330
1F07
100
AcDbEntity
  8
器具
100
AcDbLine
 10
19723.88228519098
 20
-81617.37710722805
 30
0.0
 11
19666.63179631617
 21
-81598.28062437959
 31
0.0
  0
LINE
  5
13F46
330
1F07
100
AcDbEntity
  8
器具
100
AcDbLine
 10
20047.06255487024
 20
-81599.5630600328
 30
0.0
 11
19663.39207371689
 21
-81597.48590937697
 31
0.0
  0
LINE
  5
13F47
330
1F07
100
AcDbEntity
  8
器具
100
AcDbLine
 10
19387.43818791231
 20
-82750.2487422417
 30
0.0
 11
19438.25751209081
 21
-82804.358675283
 31
0.0
  0
LINE
  5
13F48
330
1F07
100
AcDbEntity
  8
器具
100
AcDbLine
 10
19498.49687572229
 20
-82808.17054698051
 30
0.0
 11
19443.9496592069
 21
-82770.44270547406
 31
0.0
  0
LINE
  5
13F49
330
1F07
100
AcDbEntity
  8
器具
100
AcDbLine
 10
19493.87956851447
 20
-82844.60845848109
 30
0.0
 11
19559.43975320563
 21
-82871.92206325158
 31
0.0
  0
LINE
  5
13F4A
330
1F07
100
AcDbEntity
  8
器具
100
AcDbLine
 10
19566.24802468938
 20
-82830.79493999077
 30
0.0
 11
19498.49687572229
 21
-82808.17054698051
 31
0.0
  0
LINE
  5
13F4B
330
1F07
100
AcDbEntity
  8
器具
100
AcDbLine
 10
19438.25751209081
 20
-82804.358675283
 30
0.0
 11
19493.87956851447
 21
-82844.60845848109
 31
0.0
  0
LINE
  5
13F4C
330
1F07
100
AcDbEntity
  8
器具
100
AcDbLine
 10
19424.45649595006
 20
-81730.10470220091
 30
0.0
 11
19488.9861679156
 21
-81677.71142525843
 31
0.0
  0
LINE
  5
13F4D
330
1F07
100
AcDbEntity
  8
器具
100
AcDbLine
 10
19409.68359380469
 20
-81706.27731440836
 30
0.0
 11
19373.97076742444
 21
-81750.88285717633
 31
0.0
  0
LINE
  5
13F4E
330
1F07
100
AcDbEntity
  8
器具
100
AcDbLine
 10
19373.25133307957
 20
-81795.466756018
 30
0.0
 11
19424.45649595006
 21
-81730.10470220091
 31
0.0
  0
LINE
  5
13F4F
330
1F07
100
AcDbEntity
  8
器具
100
AcDbLine
 10
19411.40685180563
 20
-81988.90563463306
 30
0.0
 11
19382.84826524027
 21
-82010.87988144507
 31
0.0
  0
LINE
  5
13F54
330
1F07
100
AcDbEntity
  8
器具
100
AcDbLine
 10
19373.97076742444
 20
-81750.88285717633
 30
0.0
 11
19340.32850193968
 21
-81804.44877309803
 31
0.0
  0
LINE
  5
13F55
330
1F07
100
AcDbEntity
  8
器具
100
AcDbLine
 10
19298.93723541009
 20
-82464.21912907813
 30
0.0
 11
19296.46864432297
 21
-82497.87401587374
 31
0.0
  0
LINE
  5
13F56
330
1F07
100
AcDbEntity
  8
器具
100
AcDbLine
 10
19296.46864432297
 20
-82497.87401587374
 30
0.0
 11
19302.11589980704
 21
-82520.07859807694
 31
0.0
  0
LINE
  5
13F57
330
1F07
100
AcDbEntity
  8
器具
100
AcDbLine
 10
19302.11589980704
 20
-82520.07859807694
 30
0.0
 11
19317.30743890206
 21
-82533.70246068262
 31
0.0
  0
LINE
  5
13F58
330
1F07
100
AcDbEntity
  8
器具
100
AcDbLine
 10
19317.30743890206
 20
-82533.70246068262
 30
0.0
 11
19335.1270502945
 21
-82514.01965796734
 31
0.0
  0
LINE
  5
13F59
330
1F07
100
AcDbEntity
  8
器具
100
AcDbLine
 10
19335.1270502945
 20
-82514.01965796734
 30
0.0
 11
19338.92234130157
 21
-82479.82449716042
 31
0.0
  0
LINE
  5
13F5A
330
1F07
100
AcDbEntity
  8
器具
100
AcDbLine
 10
19338.92234130157
 20
-82479.82449716042
 30
0.0
 11
19332.43981313075
 21
-82453.44159718722
 31
0.0
  0
LINE
  5
13F5D
330
1F07
100
AcDbEntity
  8
器具
100
AcDbLine
 10
19312.49500281852
 20
-82623.93149016373
 30
0.0
 11
19343.90298007463
 21
-82685.81130155606
 31
0.0
  0
LINE
  5
13F5E
330
1F07
100
AcDbEntity
  8
器具
100
AcDbLine
 10
19443.9496592069
 20
-82770.44270547406
 30
0.0
 11
19383.53465205335
 21
-82702.80442765306
 31
0.0
  0
LINE
  5
13F5F
330
1F07
100
AcDbEntity
  8
器具
100
AcDbLine
 10
19383.24802471086
 20
-82444.59638562275
 30
0.0
 11
19404.16808763551
 21
-82461.35933107531
 31
0.0
  0
LINE
  5
13F60
330
1F07
100
AcDbEntity
  8
器具
100
AcDbLine
 10
19317.30743890206
 20
-82533.70246068262
 30
0.0
 11
19412.48639683555
 21
-82534.22896239536
 31
0.0
  0
LINE
  5
13F61
330
1F07
100
AcDbEntity
  8
器具
100
AcDbLine
 10
19343.90298007463
 20
-82685.81130155606
 30
0.0
 11
19387.43818791231
 21
-82750.2487422417
 31
0.0
  0
LINE
  5
13F62
330
1F07
100
AcDbEntity
  8
器具
100
AcDbLine
 10
19383.53465205335
 20
-82702.80442765306
 30
0.0
 11
19345.48516638906
 21
-82640.4125095269
 31
0.0
  0
LINE
  5
13F63
330
1F07
100
AcDbEntity
  8
器具
100
AcDbLine
 10
19468.13527145467
 20
-81653.28484731913
 30
0.0
 11
19409.68359380469
 21
-81706.27731440836
 31
0.0
  0
LINE
  5
13F64
330
1F07
100
AcDbEntity
  8
器具
100
AcDbLine
 10
19517.49394116312
 20
-81623.71912422566
 30
0.0
 11
19468.13527145467
 21
-81653.28484731913
 31
0.0
  0
LINE
  5
13F65
330
1F07
100
AcDbEntity
  8
器具
100
AcDbLine
 10
19488.9861679156
 20
-81677.71142525843
 30
0.0
 11
19541.71333685999
 21
-81653.99656200108
 31
0.0
  0
LINE
  5
13F66
330
1F07
100
AcDbEntity
  8
器具
100
AcDbLine
 10
19563.10926532083
 20
-82121.7495757501
 30
0.0
 11
19924.35542385952
 21
-82069.72397668485
 31
0.0
  0
LINE
  5
13F67
330
1F07
100
AcDbEntity
  8
器具
100
AcDbLine
 10
19553.87842904561
 20
-82360.4066106259
 30
0.0
 11
19919.40707466658
 21
-82427.91085305894
 31
0.0
  0
LINE
  5
13F68
330
1F07
100
AcDbEntity
  8
器具
100
AcDbLine
 10
19497.14559638974
 20
-82004.15841926679
 30
0.0
 11
19692.68440772242
 21
-81667.29569122395
 31
0.0
  0
LINE
  5
13F69
330
1F07
100
AcDbEntity
  8
器具
100
AcDbLine
 10
19411.40685180563
 20
-81988.90563463306
 30
0.0
 11
19437.90602825765
 21
-81719.18468588192
 31
0.0
  0
LINE
  5
13F6A
330
1F07
100
AcDbEntity
  8
器具
100
AcDbLine
 10
19404.16808763551
 20
-82461.35933107531
 30
0.0
 11
19438.79179268227
 21
-82764.66815995329
 31
0.0
  0
LINE
  5
13F6B
330
1F07
100
AcDbEntity
  8
器具
100
AcDbLine
 10
19487.74131972587
 20
-82459.31827746494
 30
0.0
 11
19698.64704721745
 21
-82799.68709623322
 31
0.0
  0
LINE
  5
13F6C
330
1F07
100
AcDbEntity
  8
器具
100
AcDbLine
 10
19693.55550190634
 20
-82791.47013937839
 30
0.0
 11
19674.75774431848
 21
-82561.96350231427
 31
0.0
  0
LINE
  5
13F6D
330
1F07
100
AcDbEntity
  8
器具
100
AcDbLine
 10
19692.68440772242
 20
-81667.29569122395
 30
0.0
 11
19661.85276425707
 21
-81891.31080564019
 31
0.0
  0
LINE
  5
13F6E
330
1F07
100
AcDbEntity
  8
器具
100
AcDbLine
 10
20197.25000747869
 20
-82862.66231966875
 30
0.0
 11
20296.52676958565
 21
-82797.1462367849
 31
0.0
  0
LINE
  5
13F6F
330
1F07
100
AcDbEntity
  8
器具
100
AcDbLine
 10
20350.55716371627
 20
-82843.14880883098
 30
0.0
 11
20403.07864187093
 21
-82794.57744243112
 31
0.0
  0
LINE
  5
13F70
330
1F07
100
AcDbEntity
  8
器具
100
AcDbLine
 10
20387.31922531518
 20
-82751.13470954579
 30
0.0
 11
20341.31300089013
 21
-82805.69347588405
 31
0.0
  0
LINE
  5
13F71
330
1F07
100
AcDbEntity
  8
器具
100
AcDbLine
 10
20290.33980863031
 20
-82849.75565412675
 30
0.0
 11
20225.53722048541
 21
-82886.02052626419
 31
0.0
  0
LINE
  5
13F72
330
1F07
100
AcDbEntity
  8
器具
100
AcDbLine
 10
20276.6500761599
 20
-82886.24444024369
 30
0.0
 11
20350.55716371627
 21
-82843.14880883098
 31
0.0
  0
LINE
  5
13F73
330
1F07
100
AcDbEntity
  8
器具
100
AcDbLine
 10
20225.53722048541
 20
-82886.02052626419
 30
0.0
 11
20163.57040458919
 21
-82905.19101545616
 31
0.0
  0
LINE
  5
13F74
330
1F07
100
AcDbEntity
  8
器具
100
AcDbLine
 10
20163.57040458919
 20
-82905.19101545616
 30
0.0
 11
20112.89608085363
 21
-82904.92869243976
 31
0.0
  0
LINE
  5
13F75
330
1F07
100
AcDbEntity
  8
器具
100
AcDbLine
 10
20176.08974232274
 20
-82905.70581707704
 30
0.0
 11
20276.6500761599
 21
-82886.24444024369
 31
0.0
  0
LINE
  5
13F76
330
1F07
100
AcDbEntity
  8
器具
100
AcDbLine
 10
20115.5658963591
 20
-82881.54484809465
 30
0.0
 11
20197.25000747869
 21
-82862.66231966875
 31
0.0
  0
LINE
  5
13F77
330
1F07
100
AcDbEntity
  8
器具
100
AcDbLine
 10
20341.31300089013
 20
-82805.69347588405
 30
0.0
 11
20290.33980863031
 21
-82849.75565412675
 31
0.0
  0
LINE
  5
13F78
330
1F07
100
AcDbEntity
  8
器具
100
AcDbLine
 10
20385.41496089214
 20
-81794.50112589723
 30
0.0
 11
20338.09913860199
 21
-81727.39838644845
 31
0.0
  0
LINE
  5
13F79
330
1F07
100
AcDbEntity
  8
器具
100
AcDbLine
 10
20341.90996532013
 20
-81664.81019368383
 30
0.0
 11
20396.23329218182
 21
-81730.28229331563
 31
0.0
  0
LINE
  5
13F7A
330
1F07
100
AcDbEntity
  8
器具
100
AcDbLine
 10
20460.1594795945
 20
-81749.95849201968
 30
0.0
 11
20392.74257713111
 21
-81664.95361123516
 31
0.0
  0
LINE
  5
13F7B
330
1F07
100
AcDbEntity
  8
器具
100
AcDbLine
 10
20401.62740525452
 20
-81738.93571085542
 30
0.0
 11
20428.59797061846
 21
-81782.20279855569
 31
0.0
  0
LINE
  5
13F7C
330
1F07
100
AcDbEntity
  8
器具
100
AcDbLine
 10
20502.09984701966
 20
-81826.66728694176
 30
0.0
 11
20467.14954083195
 21
-81762.74329117322
 31
0.0
  0
LINE
  5
13F7D
330
1F07
100
AcDbEntity
  8
器具
100
AcDbLine
 10
20418.13601377294
 20
-81859.45773844052
 30
0.0
 11
20385.41496089214
 21
-81794.50112589723
 31
0.0
  0
LINE
  5
13F7E
330
1F07
100
AcDbEntity
  8
器具
100
AcDbLine
 10
20428.59797061846
 20
-81782.20279855569
 30
0.0
 11
20467.44428424514
 21
-81864.01517261863
 31
0.0
  0
LINE
  5
13F7F
330
1F07
100
AcDbEntity
  8
器具
100
AcDbLine
 10
20476.56714249137
 20
-82058.89732859821
 30
0.0
 11
20460.15352175567
 21
-81982.21958894428
 31
0.0
  0
LINE
  5
13F80
330
1F07
100
AcDbEntity
  8
器具
100
AcDbLine
 10
20502.94745653812
 20
-81973.13278873911
 30
0.0
 11
20524.49861126302
 21
-82083.17431482974
 31
0.0
  0
LINE
  5
13F81
330
1F07
100
AcDbEntity
  8
器具
100
AcDbLine
 10
20574.3942985029
 20
-82075.93460391006
 30
0.0
 11
20547.94948381155
 21
-81951.22268832783
 31
0.0
  0
LINE
  5
13F82
330
1F07
100
AcDbEntity
  8
器具
100
AcDbLine
 10
20460.15352175567
 20
-81982.21958894428
 30
0.0
 11
20418.13601377294
 21
-81859.45773844052
 31
0.0
  0
LINE
  5
13F83
330
1F07
100
AcDbEntity
  8
器具
100
AcDbLine
 10
20467.44428424514
 20
-81864.01517261863
 30
0.0
 11
20502.94745653812
 21
-81973.13278873911
 31
0.0
  0
LINE
  5
13F84
330
1F07
100
AcDbEntity
  8
器具
100
AcDbLine
 10
20547.94948381155
 20
-81951.22268832783
 30
0.0
 11
20502.09984701966
 21
-81826.66728694176
 31
0.0
  0
LINE
  5
13F85
330
1F07
100
AcDbEntity
  8
器具
100
AcDbLine
 10
20452.28627756324
 20
-82520.95880128729
 30
0.0
 11
20481.61936975649
 21
-82382.58704579338
 31
0.0
  0
LINE
  5
13F86
330
1F07
100
AcDbEntity
  8
器具
100
AcDbLine
 10
20526.01685263598
 20
-82371.81019122679
 30
0.0
 11
20506.14096145159
 21
-82480.73682965612
 31
0.0
  0
LINE
  5
13F87
330
1F07
100
AcDbEntity
  8
器具
100
AcDbLine
 10
20557.09493427823
 20
-82481.0881979285
 30
0.0
 11
20577.02595576961
 21
-82371.7908575268
 31
0.0
  0
LINE
  5
13F88
330
1F07
100
AcDbEntity
  8
器具
100
AcDbLine
 10
20370.71367964195
 20
-82705.99444358262
 30
0.0
 11
20416.18583725272
 21
-82620.40607392821
 31
0.0
  0
LINE
  5
13F89
330
1F07
100
AcDbEntity
  8
器具
100
AcDbLine
 10
20416.18583725272
 20
-82620.40607392821
 30
0.0
 11
20452.28627756324
 21
-82520.95880128729
 31
0.0
  0
LINE
  5
13F8A
330
1F07
100
AcDbEntity
  8
器具
100
AcDbLine
 10
20506.14096145159
 20
-82480.73682965612
 30
0.0
 11
20479.53081994517
 21
-82571.2499727016
 31
0.0
  0
LINE
  5
13F8B
330
1F07
100
AcDbEntity
  8
器具
100
AcDbLine
 10
20479.53081994517
 20
-82571.2499727016
 30
0.0
 11
20451.53384945284
 21
-82640.52465302588
 31
0.0
  0
LINE
  5
13F8C
330
1F07
100
AcDbEntity
  8
器具
100
AcDbLine
 10
20451.53384945284
 20
-82640.52465302588
 30
0.0
 11
20417.69599389416
 21
-82705.04915494484
 31
0.0
  0
LINE
  5
13F8D
330
1F07
100
AcDbEntity
  8
器具
100
AcDbLine
 10
20417.69599389416
 20
-82705.04915494484
 30
0.0
 11
20387.31922531518
 21
-82751.13470954579
 31
0.0
  0
LINE
  5
13F8E
330
1F07
100
AcDbEntity
  8
器具
100
AcDbLine
 10
20451.97530706361
 20
-82731.80775608622
 30
0.0
 11
20511.1334967411
 21
-82621.36274794258
 31
0.0
  0
LINE
  5
13F8F
330
1F07
100
AcDbEntity
  8
器具
100
AcDbLine
 10
20511.1334967411
 20
-82621.36274794258
 30
0.0
 11
20557.09493427823
 21
-82481.0881979285
 31
0.0
  0
LINE
  5
13F90
330
1F07
100
AcDbEntity
  8
器具
100
AcDbLine
 10
20481.61936975649
 20
-82382.58704579338
 30
0.0
 11
20490.52311790474
 21
-82283.90938691822
 31
0.0
  0
LINE
  5
13F91
330
1F07
100
AcDbEntity
  8
器具
100
AcDbLine
 10
20490.52311790474
 20
-82283.90938691822
 30
0.0
 11
20489.3795435325
 21
-82168.58754182943
 31
0.0
  0
LINE
  5
13F92
330
1F07
100
AcDbEntity
  8
器具
100
AcDbLine
 10
20534.09672798944
 20
-82193.87158970841
 30
0.0
 11
20533.18099090943
 21
-82292.77093223103
 31
0.0
  0
LINE
  5
13F93
330
1F07
100
AcDbEntity
  8
器具
100
AcDbLine
 10
20533.18099090943
 20
-82292.77093223103
 30
0.0
 11
20526.01685263598
 21
-82371.81019122679
 31
0.0
  0
LINE
  5
13F94
330
1F07
100
AcDbEntity
  8
器具
100
AcDbLine
 10
20577.02595576961
 20
-82371.7908575268
 30
0.0
 11
20584.59737080449
 21
-82284.14077228171
 31
0.0
  0
LINE
  5
13F95
330
1F07
100
AcDbEntity
  8
器具
100
AcDbLine
 10
20296.52676958565
 20
-82797.1462367849
 30
0.0
 11
20370.71367964195
 21
-82705.99444358262
 31
0.0
  0
LINE
  5
13F96
330
1F07
100
AcDbEntity
  8
器具
100
AcDbLine
 10
20403.07864187093
 20
-82794.57744243112
 30
0.0
 11
20451.97530706361
 21
-82731.80775608622
 31
0.0
  0
LINE
  5
13F97
330
1F07
100
AcDbEntity
  8
器具
100
AcDbLine
 10
20489.3795435325
 20
-82168.58754182943
 30
0.0
 11
20476.56714249137
 21
-82058.89732859821
 31
0.0
  0
LINE
  5
13F98
330
1F07
100
AcDbEntity
  8
器具
100
AcDbLine
 10
20524.49861126302
 20
-82083.17431482974
 30
0.0
 11
20534.09672798944
 21
-82193.87158970841
 31
0.0
  0
LINE
  5
13F99
330
1F07
100
AcDbEntity
  8
器具
100
AcDbLine
 10
20584.59737080449
 20
-82284.14077228171
 30
0.0
 11
20574.3942985029
 21
-82075.93460391006
 31
0.0
  0
LINE
  5
13F9A
330
1F07
100
AcDbEntity
  8
器具
100
AcDbLine
 10
20328.63597414407
 20
-81713.97783855899
 30
0.0
 11
20273.51422495916
 21
-81661.18544195514
 31
0.0
  0
LINE
  5
13F9B
330
1F07
100
AcDbEntity
  8
器具
100
AcDbLine
 10
20154.30000899681
 20
-81604.46170452837
 30
0.0
 11
20106.98611183105
 21
-81599.5630600328
 31
0.0
  0
LINE
  5
13F9C
330
1F07
100
AcDbEntity
  8
器具
100
AcDbLine
 10
20120.38295945979
 20
-81568.86254219418
 30
0.0
 11
20174.7566167412
 21
-81568.98402545147
 31
0.0
  0
LINE
  5
13F9D
330
1F07
100
AcDbEntity
  8
器具
100
AcDbLine
 10
20174.7566167412
 20
-81568.98402545147
 30
0.0
 11
20242.26985257893
 21
-81593.2504331665
 31
0.0
  0
LINE
  5
13F9E
330
1F07
100
AcDbEntity
  8
器具
100
AcDbLine
 10
20280.34885613077
 20
-81587.9254300388
 30
0.0
 11
20228.91370499917
 21
-81572.84298530651
 31
0.0
  0
LINE
  5
13F9F
330
1F07
100
AcDbEntity
  8
器具
100
AcDbLine
 10
20228.91370499917
 20
-81572.84298530651
 30
0.0
 11
20174.7566167412
 21
-81568.98402545147
 31
0.0
  0
LINE
  5
13FA0
330
1F07
100
AcDbEntity
  8
器具
100
AcDbLine
 10
20273.51422495916
 20
-81661.18544195514
 30
0.0
 11
20251.72067462653
 21
-81645.52513283435
 31
0.0
  0
LINE
  5
13FA1
330
1F07
100
AcDbEntity
  8
器具
100
AcDbLine
 10
20251.72067462653
 20
-81645.52513283435
 30
0.0
 11
20194.91346311292
 21
-81616.24338996167
 31
0.0
  0
LINE
  5
13FA2
330
1F07
100
AcDbEntity
  8
器具
100
AcDbLine
 10
20293.79268624226
 20
-81623.58513688994
 30
0.0
 11
20341.90996532013
 21
-81664.81019368383
 31
0.0
  0
LINE
  5
13FA3
330
1F07
100
AcDbEntity
  8
器具
100
AcDbLine
 10
20392.74257713111
 20
-81664.95361123516
 30
0.0
 11
20338.21416149358
 21
-81619.26980934914
 31
0.0
  0
LINE
  5
13FA4
330
1F07
100
AcDbEntity
  8
器具
100
AcDbLine
 10
20194.91346311292
 20
-81616.24338996167
 30
0.0
 11
20154.30000899681
 21
-81604.46170452837
 31
0.0
  0
LINE
  5
13FA5
330
1F07
100
AcDbEntity
  8
器具
100
AcDbLine
 10
20242.26985257893
 20
-81593.2504331665
 30
0.0
 11
20293.79268624226
 21
-81623.58513688994
 31
0.0
  0
LINE
  5
13FA6
330
1F07
100
AcDbEntity
  8
器具
100
AcDbLine
 10
20338.21416149358
 20
-81619.26980934914
 30
0.0
 11
20280.34885613077
 21
-81587.9254300388
 31
0.0
  0
LINE
  5
13FA7
330
1F07
100
AcDbEntity
  8
器具
100
AcDbLine
 10
20112.89608085363
 20
-82904.92869243976
 30
0.0
 11
20071.23845116169
 21
-82898.59529234126
 31
0.0
  0
LINE
  5
13FA8
330
1F07
100
AcDbEntity
  8
器具
100
AcDbLine
 10
20068.72306390101
 20
-81577.18408304686
 30
0.0
 11
20120.38295945979
 21
-81568.86254219418
 31
0.0
  0
LINE
  5
13FA9
330
1F07
100
AcDbEntity
  8
器具
100
AcDbLine
 10
19789.09576863733
 20
-82819.60094452053
 30
0.0
 11
20243.29109858997
 21
-82819.60094452053
 31
0.0
  0
LINE
  5
13FAA
330
1F07
100
AcDbEntity
  8
器具
100
AcDbLine
 10
19864.82155561104
 20
-82761.82795731115
 30
0.0
 11
20319.01688556334
 21
-82761.82795731115
 31
0.0
  0
LINE
  5
13FAB
330
1F07
100
AcDbEntity
  8
器具
100
AcDbLine
 10
19911.2913496517
 20
-82691.05528652533
 30
0.0
 11
20365.48667960409
 21
-82691.05528652533
 31
0.0
  0
LINE
  5
13FAC
330
1F07
100
AcDbEntity
  8
器具
100
AcDbLine
 10
19951.69981765307
 20
-82600.06293294196
 30
0.0
 11
20405.89514760546
 21
-82600.06293294196
 31
0.0
  0
LINE
  5
13FAD
330
1F07
100
AcDbEntity
  8
器具
100
AcDbLine
 10
19993.91411968565
 20
-81992.47750710631
 30
0.0
 11
20448.10944963836
 21
-81992.47750710631
 31
0.0
  0
LINE
  5
13FAE
330
1F07
100
AcDbEntity
  8
器具
100
AcDbLine
 10
19960.2493305951
 20
-81899.82475642679
 30
0.0
 11
20414.44466054745
 21
-81899.82475642679
 31
0.0
  0
LINE
  5
13FAF
330
1F07
100
AcDbEntity
  8
器具
100
AcDbLine
 10
19929.38989406275
 20
-81814.19061338374
 30
0.0
 11
20383.58522401538
 21
-81814.19061338374
 31
0.0
  0
LINE
  5
13FB0
330
1F07
100
AcDbEntity
  8
器具
100
AcDbLine
 10
19885.90637101762
 20
-81748.210084121
 30
0.0
 11
20340.10170097029
 21
-81748.210084121
 31
0.0
  0
LINE
  5
13FB1
330
1F07
100
AcDbEntity
  8
器具
100
AcDbLine
 10
19836.81158446595
 20
-81693.46019130403
 30
0.0
 11
20291.00691441845
 21
-81693.46019130403
 31
0.0
  0
CIRCLE
  5
13FB2
330
1F07
100
AcDbEntity
  8
器具
100
AcDbCircle
 10
16543.15609879102
 20
-81559.79366954431
 30
0.0
 40
37.24638237972344
  0
LINE
  5
13FB3
330
1F07
100
AcDbEntity
  8
器具
100
AcDbLine
 10
16618.93738319928
 20
-81458.68869917036
 30
0.0
 11
16704.66269696211
 21
-81275.93715341637
 31
0.0
  0
LINE
  5
13FB4
330
1F07
100
AcDbEntity
  8
器具
100
AcDbLine
 10
16633.186183158
 20
-81240.56595308957
 30
0.0
 11
16545.68944279899
 21
-81455.66770912063
 31
0.0
  0
LINE
  5
13FB5
330
1F07
100
AcDbEntity
  8
器具
100
AcDbLine
 10
16052.9641362396
 20
-81202.9244123784
 30
0.0
 11
15920.20057640329
 21
-81504.05673807137
 31
0.0
  0
LINE
  5
13FB6
330
1F07
100
AcDbEntity
  8
器具
100
AcDbLine
 10
15920.20057640329
 20
-81504.05673807137
 30
0.0
 11
15892.36547705177
 21
-81505.79978591384
 31
0.0
  0
LINE
  5
13FB7
330
1F07
100
AcDbEntity
  8
器具
100
AcDbLine
 10
15892.36547705177
 20
-81505.79978591384
 30
0.0
 11
15872.25766150121
 21
-81510.34442205968
 31
0.0
  0
LINE
  5
13FB8
330
1F07
100
AcDbEntity
  8
器具
100
AcDbLine
 10
15872.25766150121
 20
-81510.34442205968
 30
0.0
 11
16005.87738208023
 21
-81220.13620850056
 31
0.0
  0
LINE
  5
13FBD
330
1F07
100
AcDbEntity
  8
器具
  6
Continuous
100
AcDbLine
 10
17389.81586725265
 20
-82017.97905663939
 30
0.0
 11
19396.84547450236
 21
-82068.89190766622
 31
0.0
  0
LINE
  5
13FBE
330
1F07
100
AcDbEntity
  8
器具
  6
Continuous
100
AcDbLine
 10
17336.56001916644
 20
-82129.62471041336
 30
0.0
 11
19507.61071726349
 21
-82184.69832784512
 31
0.0
  0
LINE
  5
13FBF
330
1F07
100
AcDbEntity
  8
器具
  6
Continuous
100
AcDbLine
 10
17231.59353314029
 20
-82349.67663668774
 30
0.0
 11
19481.22944642425
 21
-82406.74374606363
 31
0.0
  0
LINE
  5
13FC0
330
1F07
100
AcDbEntity
  8
器具
100
AcDbLine
 10
19340.32850193968
 20
-81804.44877309803
 30
0.0
 11
19314.82271147682
 21
-81858.10240397509
 31
0.0
  0
LINE
  5
13FC1
330
1F07
100
AcDbEntity
  8
器具
100
AcDbLine
 10
19314.82271147682
 20
-81858.10240397509
 30
0.0
 11
19289.6006541138
 21
-81913.99962654022
 31
0.0
  0
LINE
  5
13FC2
330
1F07
100
AcDbEntity
  8
器具
100
AcDbLine
 10
19289.6006541138
 20
-81913.99962654022
 30
0.0
 11
19272.0552026208
 21
-81968.80167455656
 31
0.0
  0
LINE
  5
13FC3
330
1F07
100
AcDbEntity
  8
器具
100
AcDbLine
 10
19272.0552026208
 20
-81968.80167455656
 30
0.0
 11
19259.99160608812
 21
-82021.41109344502
 31
0.0
  0
LINE
  5
13FC4
330
1F07
100
AcDbEntity
  8
器具
100
AcDbLine
 10
19259.99160608812
 20
-82021.41109344502
 30
0.0
 11
19253.290605538
 21
-82065.25031332633
 31
0.0
  0
LINE
  5
13FC6
330
1F07
100
AcDbEntity
  8
器具
100
AcDbLine
 10
19312.49500281852
 20
-82623.93149016373
 30
0.0
 11
19282.75900782877
 21
-82556.64820378822
 31
0.0
  0
LINE
  5
13FC7
330
1F07
100
AcDbEntity
  8
器具
100
AcDbLine
 10
19282.75900782877
 20
-82556.64820378822
 30
0.0
 11
19265.97318122163
 21
-82506.31653515855
 31
0.0
  0
LINE
  5
13FC8
330
1F07
100
AcDbEntity
  8
器具
100
AcDbLine
 10
19265.97318122163
 20
-82506.31653515855
 30
0.0
 11
19253.76393760345
 21
-82443.0206143055
 31
0.0
  0
LINE
  5
13FC9
330
1F07
100
AcDbEntity
  8
器具
100
AcDbLine
 10
19253.76393760345
 20
-82443.0206143055
 30
0.0
 11
19249.69957159984
 21
-82400.87046647541
 31
0.0
  0
LINE
  5
13FCB
330
1F07
100
AcDbEntity
  8
器具
100
AcDbLine
 10
19382.84826524027
 20
-82010.87988144507
 30
0.0
 11
19333.42131171283
 21
-82067.28301014923
 31
0.0
  0
LINE
  5
13FCC
330
1F07
100
AcDbEntity
  8
器具
100
AcDbLine
 10
19373.25133307957
 20
-81795.466756018
 30
0.0
 11
19322.7843336265
 21
-81895.83918528841
 31
0.0
  0
LINE
  5
13FCD
330
1F07
100
AcDbEntity
  8
器具
100
AcDbLine
 10
19322.7843336265
 20
-81895.83918528841
 30
0.0
 11
19284.04346445389
 21
-81998.53022948477
 31
0.0
  0
LINE
  5
13FCE
330
1F07
100
AcDbEntity
  8
器具
100
AcDbLine
 10
19284.04346445389
 20
-81998.53022948477
 30
0.0
 11
19271.69687271336
 21
-82065.71722997532
 31
0.0
  0
LINE
  5
13FCF
330
1F07
100
AcDbEntity
  8
器具
100
AcDbLine
 10
19345.48516638906
 20
-82640.4125095269
 30
0.0
 11
19301.26999905263
 21
-82554.11205009673
 31
0.0
  0
LINE
  5
13FD0
330
1F07
100
AcDbEntity
  8
器具
100
AcDbLine
 10
19301.26999905263
 20
-82554.11205009673
 30
0.0
 11
19284.42264910741
 21
-82497.00945151888
 31
0.0
  0
LINE
  5
13FD1
330
1F07
100
AcDbEntity
  8
器具
100
AcDbLine
 10
19284.42264910741
 20
-82497.00945151888
 30
0.0
 11
19264.71682618569
 21
-82401.25141314548
 31
0.0
  0
TEXT
  5
13FD4
330
1F07
100
AcDbEntity
  8
0
 62
     7
100
AcDbText
 10
16089.88764496847
 20
-78170.67871998322
 30
0.0
 40
299.9999947731441
  1
LEDｱｳﾄﾄﾞｱｽﾎﾟｯﾄﾗｲﾄ
  7
WMF-ＭＳ Ｐゴシック0
100
AcDbText
  0
TEXT
  5
13FD5
330
1F07
100
AcDbEntity
  8
0
 62
     7
100
AcDbText
 10
16089.88764496847
 20
-78661.06332682394
 30
0.0
 40
299.9999947731441
  1
BGSL-20059GL-40
  7
WMF-ＭＳ Ｐゴシック0
100
AcDbText
  0
TEXT
  5
13FD6
330
1F07
100
AcDbEntity
  8
0
 62
     7
100
AcDbText
 10
17568.69961122369
 20
-79151.44793366464
 30
0.0
 40
299.9999947731441
  1
LED50W  (2900K)
  7
WMF-ＭＳ Ｐゴシック0
100
AcDbText
  0
MTEXT
  5
13FD7
330
1F07
100
AcDbEntity
  8
記号
 62
     2
100
AcDbMText
 10
14932.6772762083
 20
-84917.6385754648
 30
0.0
 40
250.0
 41
6533.332686219465
 71
     4
 72
     5
  1
幅:186　長さ:586(mm)
  7
スタイル1
 73
     1
 44
1.0
1001
ACAD
1000
MTEXTBEGIN
1070
    73
1070
     1
1070
    44
1040
1.0
1070
    74
1070
     0
1000
MTEXTEND
  0
MTEXT
  5
15070
330
1F07
100
AcDbEntity
  8
記号
 62
     2
100
AcDbMText
 10
19764.07133768633
 20
-79844.07944215227
 30
0.0
 40
300.0001909587983
 41
2900.001845935049
 71
     5
 72
     5
  1
Re:ray
  7
スタイル1
 73
     1
 44
1.0
1001
ACAD
1000
MTEXTBEGIN
1070
    73
1070
     1
1070
    44
1040
1.0
1070
    74
1070
     0
1000
MTEXTEND
  0
LINE
  5
15229
330
1F07
100
AcDbEntity
  8
器具
100
AcDbLine
 10
16138.32421420047
 20
-81810.35246344071
 30
0.0
 11
16221.2286130043
 21
-81827.59767199252
 31
0.0
  0
LINE
  5
1522A
330
1F07
100
AcDbEntity
  8
器具
100
AcDbLine
 10
15644.56356001787
 20
-82305.3534708967
 30
0.0
 11
15703.46795098637
 21
-82366.69533058694
 31
0.0
  0
ENDSEC
  0
SECTION
  2
OBJECTS
  0
DICTIONARY
  5
1EF5
330
0
100
AcDbDictionary
281
     1
  3
ACAD_COLOR
350
8C47
  3
ACAD_GROUP
350
1EF6
  3
ACAD_LAYOUT
350
1F02
  3
ACAD_MATERIAL
350
8C46
  3
ACAD_MLINESTYLE
350
1EFF
  3
ACAD_PLOTSETTINGS
350
1F01
  3
ACAD_PLOTSTYLENAME
350
1EF7
  3
ACAD_TABLESTYLE
350
8C48
  3
ACDBHEADERROUNDTRIPXREC
350
1523D
  3
AcDbVariableDictionary
350
4454
  0
DICTIONARY
  5
9A3A
330
1EEB
100
AcDbDictionary
280
     1
281
     1
  3
ACAD_LAYERFILTERS
360
A52F
  3
ACAD_LAYERSTATES
360
9A3B
  0
DICTIONARY
  5
980C
330
1F07
100
AcDbDictionary
280
     1
281
     1
  3
ACAD_SORTENTS
360
980D
  0
DICTIONARY
  5
8C47
102
{ACAD_REACTORS
330
1EF5
102
}
330
1EF5
100
AcDbDictionary
281
     1
  0
DICTIONARY
  5
1EF6
102
{ACAD_REACTORS
330
1EF5
102
}
330
1EF5
100
AcDbDictionary
281
     1
  0
DICTIONARY
  5
1F02
102
{ACAD_REACTORS
330
1EF5
102
}
330
1EF5
100
AcDbDictionary
281
     1
  3
Model
350
1F0A
  3
ﾚｲｱｳﾄ1
350
1F06
  0
DICTIONARY
  5
8C46
102
{ACAD_REACTORS
330
1EF5
102
}
330
1EF5
100
AcDbDictionary
281
     1
  0
DICTIONARY
  5
1EFF
102
{ACAD_REACTORS
330
1EF5
102
}
330
1EF5
100
AcDbDictionary
281
     1
  3
Standard
350
1F00
  0
DICTIONARY
  5
1F01
102
{ACAD_REACTORS
330
1EF5
102
}
330
1EF5
100
AcDbDictionary
281
     1
  0
ACDBDICTIONARYWDFLT
  5
1EF7
102
{ACAD_REACTORS
330
1EF5
102
}
330
1EF5
100
AcDbDictionary
281
     1
  3
Normal
350
1EF8
100
AcDbDictionaryWithDefault
340
1EF8
  0
DICTIONARY
  5
8C48
102
{ACAD_REACTORS
330
1EF5
102
}
330
1EF5
100
AcDbDictionary
281
     1
  3
Standard
350
8C49
  0
DICTIONARY
  5
1523D
102
{ACAD_REACTORS
330
1EF5
102
}
330
1EF5
100
AcDbDictionary
281
     1
  0
DICTIONARY
  5
4454
102
{ACAD_REACTORS
330
1EF5
102
}
330
1EF5
100
AcDbDictionary
281
     1
  3
CTABLESTYLE
350
8CAE
  3
DIMASSOC
350
8CAF
  3
PROJECTNAME
350
8CB0
  3
SORTENTS
350
4455
  0
DICTIONARY
  5
A52F
102
{ACAD_REACTORS
330
9A3A
102
}
330
9A3A
100
AcDbDictionary
280
     1
281
     1
  0
DICTIONARY
  5
9A3B
102
{ACAD_REACTORS
330
9A3A
102
}
330
9A3A
100
AcDbDictionary
281
     1
  0
SORTENTSTABLE
  5
980D
102
{ACAD_REACTORS
330
980C
102
}
330
980C
100
AcDbSortentsTable
330
1F07
331
13EC3
  5
13ECE
331
13F9B
  5
13FA6
331
13F82
  5
13F8D
331
13F69
  5
13F74
331
13FAC
  5
13FB7
331
13F1E
  5
13F29
331
13EEC
  5
13EF7
331
13ED3
  5
13EDE
331
13F05
  5
13F10
331
13FD5
  5
13FDE
331
13EA1
  5
13EAC
331
12F8F
  5
12F97
331
13D10
  5
13EA3
331
13F2E
  5
13F39
331
13F15
  5
13F20
331
13F3F
  5
13F4A
331
13F58
  5
13F65
331
13F71
  5
13F7C
331
13EB1
  5
13EBC
331
13EC2
  5
13ECD
331
13F9A
  5
13FA5
331
13F81
  5
13F8C
331
13F68
  5
13F73
331
13F4F
  5
13F60
331
13FAB
  5
13FB6
331
13F1D
  5
13F28
331
13F04
  5
13F0F
331
13EEB
  5
13EF6
331
13ED2
  5
13EDD
331
13FD4
  5
13FDC
331
13EA0
  5
13EAB
331
13D0F
  5
13EA2
331
13F70
  5
13F7B
331
13F2D
  5
13F38
331
13F14
  5
13F1F
331
13F3E
  5
13F49
331
13F57
  5
13F64
331
13EDA
  5
13EE5
331
13EB0
  5
13EBB
331
13EC1
  5
13ECC
331
13F99
  5
13FA4
331
13F80
  5
13F8B
331
13F4E
  5
13F5D
331
13F67
  5
13F72
331
13FAA
  5
13FB5
331
12DBC
  5
12DD6
331
13F1C
  5
13F27
331
13F03
  5
13F0E
331
13EEA
  5
13EF5
331
13ED1
  5
13EDC
331
13F3D
  5
13F48
331
13F56
  5
13F63
331
13F13
  5
13F1E
331
13F2C
  5
13F37
331
13ED9
  5
13EE4
331
13EC0
  5
13ECB
331
13EAF
  5
13EBA
331
13FA9
  5
13FB4
331
13F7F
  5
13F8A
331
13F4D
  5
13F5C
331
13F66
  5
13F71
331
13F98
  5
13FA3
331
13F02
  5
13F0D
331
13EE9
  5
13EF4
331
13ED0
  5
13EDB
331
13F1B
  5
13F26
331
13F8F
  5
13F9A
331
13F3C
  5
13F47
331
13F55
  5
13F62
331
13F12
  5
13F1D
331
13F2B
  5
13F36
331
13ED8
  5
13EE3
331
13EBF
  5
13ECA
331
13EAE
  5
13EB9
331
13FA8
  5
13FB3
331
13F7E
  5
13F89
331
13F4C
  5
13F5B
331
13F65
  5
13F70
331
13F97
  5
13FA2
331
13F01
  5
13F0C
331
13EE8
  5
13EF3
331
13ECF
  5
13EDA
331
13F1A
  5
13F25
331
13FB8
  5
13FC3
331
13FD1
  5
13FDB
331
13F8E
  5
13F99
331
13FA7
  5
13FB2
331
12F8B
  5
12F93
331
13F3B
  5
13F46
331
13F54
  5
13F61
331
13F11
  5
13F1C
331
13F2A
  5
13F35
331
13EBE
  5
13EC9
331
13D7C
  5
13EA8
331
13EAD
  5
13EB8
331
13F7D
  5
13F88
331
13F4B
  5
13F5A
331
13F64
  5
13F6F
331
13F96
  5
13FA1
331
13F00
  5
13F0B
331
13EE7
  5
13EF2
331
13ECE
  5
13ED9
331
13F19
  5
13F24
331
13FB7
  5
13FC2
331
13FD0
  5
13FDA
331
13F8D
  5
13F98
331
13FA6
  5
13FB1
331
12DD9
  5
12DE1
331
13F3A
  5
13F45
331
13F10
  5
13F1B
331
13EF7
  5
13F02
331
13F29
  5
13F34
331
15070
  5
15133
331
13FC7
  5
13FD0
331
13EBD
  5
13EC8
331
13D7B
  5
13EA7
331
13EAC
  5
13EB7
331
13F7C
  5
13F87
331
13F4A
  5
13F59
331
13F63
  5
13F6E
331
13F95
  5
13FA0
331
13EFF
  5
13F0A
331
13EE6
  5
13EF1
331
13ECD
  5
13ED8
331
13F18
  5
13F23
331
13FB6
  5
13FC1
331
13FCF
  5
13FD9
331
13F8C
  5
13F97
331
13FA5
  5
13FB0
331
12DD8
  5
12DE0
331
13F39
  5
13F44
331
13EF6
  5
13F01
331
13F0F
  5
13F1A
331
13F28
  5
13F33
331
13FC6
  5
13FCF
331
13EBC
  5
13EC7
331
13EAB
  5
13EB6
331
13F7B
  5
13F86
331
13F49
  5
13F58
331
13F62
  5
13F6D
331
13F94
  5
13F9F
331
13EFE
  5
13F09
331
13EE5
  5
13EF0
331
13ECC
  5
13ED7
331
13FB5
  5
13FC0
331
13FCE
  5
13FD8
331
13F8B
  5
13F96
331
13FA4
  5
13FAF
331
12DD7
  5
12DDF
331
13F38
  5
13F43
331
13EF5
  5
13F00
331
13F0E
  5
13F19
331
13F27
  5
13F32
331
13EBB
  5
13EC6
331
13EAA
  5
13EB5
331
13F7A
  5
13F85
331
13F48
  5
13F57
331
13F61
  5
13F6C
331
13F93
  5
13F9E
331
13EFD
  5
13F08
331
13EE4
  5
13EEF
331
13ECB
  5
13ED6
331
13FB4
  5
13FBF
331
13FCD
  5
13FD7
331
13F8A
  5
13F95
331
13FA3
  5
13FAE
331
12DD6
  5
12DDE
331
13F37
  5
13F42
331
13EF4
  5
13EFF
331
13F0D
  5
13F18
331
13F26
  5
13F31
331
13FC4
  5
13FCE
331
13EA9
  5
13EB4
331
13F79
  5
13F84
331
13F60
  5
13F6B
331
13F47
  5
13F54
331
13F92
  5
13F9D
331
13EFC
  5
13F07
331
13EE3
  5
13EEE
331
13ECA
  5
13ED5
331
13FB3
  5
13FBE
331
13FCC
  5
13FD6
331
13F89
  5
13F94
331
13FA2
  5
13FAD
331
12F7E
  5
12F8E
331
13F36
  5
13F41
331
13F0C
  5
13F17
331
13EF3
  5
13EFE
331
13F25
  5
13F30
331
13FC3
  5
13FCD
331
12DF5
  5
12DFD
331
13EA8
  5
13EB3
331
13F5F
  5
13F6A
331
13F46
  5
13F53
331
13F78
  5
13F83
331
13F91
  5
13F9C
331
13EFB
  5
13F06
331
13EE2
  5
13EED
331
13EC9
  5
13ED4
331
13E9F
  5
13EAA
331
13FCB
  5
13FD5
331
13FB2
  5
13FBD
331
13FA1
  5
13FAC
331
13F6F
  5
13F7A
331
13F88
  5
13F93
331
12F7D
  5
12F8D
331
13F35
  5
13F40
331
13F0B
  5
13F16
331
13EF2
  5
13EFD
331
13F24
  5
13F2F
331
13FC2
  5
13FCC
331
13EA7
  5
13EB2
331
13F90
  5
13F9B
331
13F45
  5
13F52
331
13F5E
  5
13F69
331
13F77
  5
13F82
331
13EFA
  5
13F05
331
13EE1
  5
13EEC
331
13E9E
  5
13EA9
331
13EC8
  5
13ED3
331
13FA0
  5
13FAB
331
13F6E
  5
13F79
331
13F87
  5
13F92
331
13FB1
  5
13FBC
331
12F7C
  5
12F8C
331
13F23
  5
13F2E
331
13F34
  5
13F3F
331
13F0A
  5
13F15
331
13EF1
  5
13EFC
331
13FC1
  5
13FCB
331
13EA6
  5
13EB1
331
13F44
  5
13F4F
331
13F5D
  5
13F68
331
13F76
  5
13F81
331
13EF9
  5
13F04
331
13EE0
  5
13EEB
331
13EC7
  5
13ED2
331
13F9F
  5
13FAA
331
13F6D
  5
13F78
331
13F86
  5
13F91
331
13FB0
  5
13FBB
331
13FC9
  5
13FD4
331
12F7B
  5
12F8B
331
13F22
  5
13F2D
331
13F33
  5
13F3E
331
13F09
  5
13F14
331
13EF0
  5
13EFB
331
13ED7
  5
13EE2
331
13FC0
  5
13FC9
331
13EA5
  5
13EB0
331
13F43
  5
13F4E
331
13F75
  5
13F80
331
13EF8
  5
13F03
331
13EDF
  5
13EEA
331
13EC6
  5
13ED1
331
13F9E
  5
13FA9
331
13F6C
  5
13F77
331
13F85
  5
13F90
331
13FAF
  5
13FBA
331
13FC8
  5
13FD1
331
13F21
  5
13F2C
331
13F32
  5
13F3D
331
13F08
  5
13F13
331
13EEF
  5
13EFA
331
13ED6
  5
13EE1
331
13FBF
  5
13EA6
331
13EA4
  5
13EAF
331
13F42
  5
13F4D
331
13F74
  5
13F7F
331
13EDE
  5
13EE9
331
13EC5
  5
13ED0
331
13F9D
  5
13FA8
331
13F84
  5
13F8F
331
13F6B
  5
13F76
331
13FAE
  5
13FB9
331
13F20
  5
13F2B
331
13F31
  5
13F3C
331
13F07
  5
13F12
331
13EEE
  5
13EF9
331
13ED5
  5
13EE0
331
13FD7
  5
13FE0
331
13FBE
  5
13EA5
331
13EA3
  5
13EAE
331
13F17
  5
13F22
331
13F41
  5
13F4C
331
13F5A
  5
13F67
331
13F73
  5
13F7E
331
13EDD
  5
13EE8
331
13EC4
  5
13ECF
331
13F9C
  5
13FA7
331
13F83
  5
13F8E
331
13F6A
  5
13F75
331
13FAD
  5
13FB8
331
13F1F
  5
13F2A
331
13F30
  5
13F3B
331
13EED
  5
13EF8
331
13ED4
  5
13EDF
331
13F06
  5
13F11
331
13FD6
  5
13FDF
331
13FBD
  5
13EA4
331
13EA2
  5
13EAD
331
13F2F
  5
13F3A
331
13F16
  5
13F21
331
13F40
  5
13F4B
331
13F59
  5
13F66
331
13F72
  5
13F7D
  0
LAYOUT
  5
1F0A
102
{ACAD_XDICTIONARY
360
15240
102
}
102
{ACAD_REACTORS
330
1F02
102
}
330
1F02
100
AcDbPlotSettings
  1

  2
DocuWorks Printer
  4
A4
  6

 40
5.408083438873291
 41
5.408078670501708
 42
5.408096313476562
 43
5.4080810546875
 44
210.0156707763672
 45
297.0106506347656
 46
0.0
 47
0.0
 48
11970.77576805161
 49
-85462.14838366363
140
27226.8854263111
141
-73529.9208076525
142
1.0
143
40.0
 70
 11936
 72
     1
 73
     1
 74
     4
  7
aclt.ctb
 75
     0
147
0.01
148
-11970.77576805161
149
85462.14838366363
100
AcDbLayout
  1
Model
 70
     1
 71
     0
 10
0.0
 20
0.0
 11
12.0
 21
9.0
 12
0.0
 22
0.0
 32
0.0
 14
0.0
 24
0.0
 34
0.0
 15
0.0
 25
0.0
 35
0.0
146
0.0
 13
0.0
 23
0.0
 33
0.0
 16
1.0
 26
0.0
 36
0.0
 17
0.0
 27
1.0
 37
0.0
 76
     0
330
1F07
1001
ACAD_PSEXT
1000
DocuWorks Printer
1000
DocuWorks Printer Driver
1000
DocuWorks Port
1000

1070
     0
  0
LAYOUT
  5
1F06
102
{ACAD_XDICTIONARY
360
1523E
102
}
102
{ACAD_REACTORS
330
1F02
102
}
330
1F02
100
AcDbPlotSettings
  1

  2
HP DesignJet 430 (D / A1)
  4

  6

 40
0.0
 41
0.0
 42
0.0
 43
0.0
 44
0.0
 45
0.0
 46
0.0
 47
0.0
 48
0.0
 49
0.0
140
0.0
141
0.0
142
1.0
143
1.0
 70
   688
 72
     0
 73
     0
 74
     5
  7
aclt.ctb
 75
    16
147
1.0
148
0.0
149
0.0
100
AcDbLayout
  1
ﾚｲｱｳﾄ1
 70
     0
 71
     1
 10
0.0
 20
0.0
 11
12.0
 21
9.0
 12
0.0
 22
0.0
 32
0.0
 14
1.000000000000000E+20
 24
1.000000000000000E+20
 34
1.000000000000000E+20
 15
-1.000000000000000E+20
 25
-1.000000000000000E+20
 35
-1.000000000000000E+20
146
0.0
 13
0.0
 23
0.0
 33
0.0
 16
1.0
 26
0.0
 36
0.0
 17
0.0
 27
1.0
 37
0.0
 76
     0
330
1F03
  0
MLINESTYLE
  5
1F00
102
{ACAD_REACTORS
330
1EFF
102
}
330
1EFF
100
AcDbMlineStyle
  2
STANDARD
 70
     0
  3

 62
   256
 51
90.0
 52
90.0
 71
     2
 49
0.5
 62
   256
  6
BYLAYER
 49
-0.5
 62
   256
  6
BYLAYER
  0
ACDBPLACEHOLDER
  5
1EF8
102
{ACAD_REACTORS
330
1EF7
102
}
330
1EF7
  0
TABLESTYLE
  5
8C49
102
{ACAD_REACTORS
330
8C48
102
}
330
8C48
100
AcDbTableStyle
  3
Standard
 70
     0
 71
     0
 40
0.06
 41
0.06
280
     0
281
     0
  7
STANDARD
140
0.18
170
     2
 62
     0
 63
     7
283
     0
274
    -2
284
     1
 64
     0
275
    -2
285
     1
 65
     0
276
    -2
286
     1
 66
     0
277
    -2
287
     1
 67
     0
278
    -2
288
     1
 68
     0
279
    -2
289
     1
 69
     0
  7
STANDARD
140
0.25
170
     5
 62
     0
 63
     7
283
     0
274
    -2
284
     1
 64
     0
275
    -2
285
     1
 65
     0
276
    -2
286
     1
 66
     0
277
    -2
287
     1
 67
     0
278
    -2
288
     1
 68
     0
279
    -2
289
     1
 69
     0
  7
STANDARD
140
0.18
170
     5
 62
     0
 63
     7
283
     0
274
    -2
284
     1
 64
     0
275
    -2
285
     1
 65
     0
276
    -2
286
     1
 66
     0
277
    -2
287
     1
 67
     0
278
    -2
288
     1
 68
     0
279
    -2
289
     1
 69
     0
  0
DICTIONARYVAR
  5
8CAE
102
{ACAD_REACTORS
330
4454
102
}
330
4454
100
DictionaryVariables
280
     0
  1
STANDARD
  0
DICTIONARYVAR
  5
8CAF
102
{ACAD_REACTORS
330
4454
102
}
330
4454
100
DictionaryVariables
280
     0
  1
1
  0
DICTIONARYVAR
  5
8CB0
102
{ACAD_REACTORS
330
4454
102
}
330
4454
100
DictionaryVariables
280
     0
  1

  0
DICTIONARYVAR
  5
4455
102
{ACAD_REACTORS
330
4454
102
}
330
4454
100
DictionaryVariables
280
     0
  1
96
  0
DICTIONARY
  5
15240
330
1F0A
100
AcDbDictionary
280
     1
281
     1
  3
ACAD_XREC_ROUNDTRIP
360
15241
  0
DICTIONARY
  5
1523E
330
1F06
100
AcDbDictionary
280
     1
281
     1
  3
ACAD_XREC_ROUNDTRIP
360
1523F
  0
XRECORD
  5
15241
102
{ACAD_REACTORS
330
15240
102
}
330
15240
100
AcDbXrecord
280
     1
102
SHADEPLOT
 70
     0
102
SHADEPLOTRESLEVEL
 70
     2
102
SHADEPLOTCUSTOMDPI
 70
   300
  0
XRECORD
  5
1523F
102
{ACAD_REACTORS
330
1523E
102
}
330
1523E
100
AcDbXrecord
280
     1
102
SHADEPLOT
 70
     0
102
SHADEPLOTRESLEVEL
 70
     2
102
SHADEPLOTCUSTOMDPI
 70
   300
  0
ENDSEC
  0
EOF
