  0
SECTION
  2
HEADER
  9
$ACADVER
  1
AC1015
  9
$ACADMAINTVER
 70
    20
  9
$DWGCODEPAGE
  3
ANSI_932
  9
$INSBASE
 10
0.0
 20
0.0
 30
0.0
  9
$EXTMIN
 10
8337.987816412079
 20
-77432.67189880921
 30
0.0
  9
$EXTMAX
 10
42530.53403744381
 20
-70180.29424381389
 30
0.0
  9
$LIMMIN
 10
0.0
 20
0.0
  9
$LIMMAX
 10
59400.0
 20
42000.0
  9
$ORTHOMODE
 70
     1
  9
$REGENMODE
 70
     1
  9
$FILLMODE
 70
     1
  9
$QTEXTMODE
 70
     0
  9
$MIRRTEXT
 70
     1
  9
$LTSCALE
 40
100.0
  9
$ATTMODE
 70
     1
  9
$TEXTSIZE
 40
300.0
  9
$TRACEWID
 40
0.05
  9
$TEXTSTYLE
  7
スタイル1
  9
$CLAYER
  8
下書き
  9
$CELTYPE
  6
ByLayer
  9
$CECOLOR
 62
   256
  9
$CELTSCALE
 40
1.0
  9
$DISPSILH
 70
     0
  9
$DIMSCALE
 40
100.0
  9
$DIMASZ
 40
2.0
  9
$DIMEXO
 40
2.0
  9
$DIMDLI
 40
0.38
  9
$DIMRND
 40
0.0
  9
$DIMDLE
 40
0.0
  9
$DIMEXE
 40
0.18
  9
$DIMTP
 40
0.0
  9
$DIMTM
 40
0.0
  9
$DIMTXT
 40
2.0
  9
$DIMCEN
 40
0.09
  9
$DIMTSZ
 40
0.0
  9
$DIMTOL
 70
     0
  9
$DIMLIM
 70
     0
  9
$DIMTIH
 70
     0
  9
$DIMTOH
 70
     1
  9
$DIMSE1
 70
     0
  9
$DIMSE2
 70
     0
  9
$DIMTAD
 70
     1
  9
$DIMZIN
 70
     0
  9
$DIMBLK
  1
Open30
  9
$DIMASO
 70
     1
  9
$DIMSHO
 70
     1
  9
$DIMPOST
  1

  9
$DIMAPOST
  1

  9
$DIMALT
 70
     0
  9
$DIMALTD
 70
     2
  9
$DIMALTF
 40
25.4
  9
$DIMLFAC
 40
1.0
  9
$DIMTOFL
 70
     0
  9
$DIMTVP
 40
0.0
  9
$DIMTIX
 70
     0
  9
$DIMSOXD
 70
     0
  9
$DIMSAH
 70
     0
  9
$DIMBLK1
  1

  9
$DIMBLK2
  1

  9
$DIMSTYLE
  2
STANDARD
  9
$DIMCLRD
 70
     0
  9
$DIMCLRE
 70
     0
  9
$DIMCLRT
 70
     0
  9
$DIMTFAC
 40
1.0
  9
$DIMGAP
 40
1.0
  9
$DIMJUST
 70
     0
  9
$DIMSD1
 70
     0
  9
$DIMSD2
 70
     0
  9
$DIMTOLJ
 70
     1
  9
$DIMTZIN
 70
     0
  9
$DIMALTZ
 70
     0
  9
$DIMALTTZ
 70
     0
  9
$DIMUPT
 70
     0
  9
$DIMDEC
 70
     1
  9
$DIMTDEC
 70
     1
  9
$DIMALTU
 70
     2
  9
$DIMALTTD
 70
     2
  9
$DIMTXSTY
  7
STANDARD
  9
$DIMAUNIT
 70
     0
  9
$DIMADEC
 70
     0
  9
$DIMALTRND
 40
0.0
  9
$DIMAZIN
 70
     0
  9
$DIMDSEP
 70
    46
  9
$DIMATFIT
 70
     3
  9
$DIMFRAC
 70
     0
  9
$DIMLDRBLK
  1
Open30
  9
$DIMLUNIT
 70
     2
  9
$DIMLWD
 70
    -2
  9
$DIMLWE
 70
    -2
  9
$DIMTMOVE
 70
     0
  9
$LUNITS
 70
     2
  9
$LUPREC
 70
     4
  9
$SKETCHINC
 40
0.1
  9
$FILLETRAD
 40
0.0
  9
$AUNITS
 70
     0
  9
$AUPREC
 70
     0
  9
$MENU
  1
acad
  9
$ELEVATION
 40
0.0
  9
$PELEVATION
 40
0.0
  9
$THICKNESS
 40
0.0
  9
$LIMCHECK
 70
     0
  9
$CHAMFERA
 40
0.0
  9
$CHAMFERB
 40
0.0
  9
$CHAMFERC
 40
0.0
  9
$CHAMFERD
 40
0.0
  9
$SKPOLY
 70
     0
  9
$TDCREATE
 40
2426945.499536991
  9
$TDUCREATE
 40
2426945.124536991
  9
$TDUPDATE
 40
2456244.962908345
  9
$TDUUPDATE
 40
2456244.587908345
  9
$TDINDWG
 40
1.7121548264
  9
$TDUSRTIMER
 40
1.7121529745
  9
$USRTIMER
 70
     1
  9
$ANGBASE
 50
0.0
  9
$ANGDIR
 70
     0
  9
$PDMODE
 70
     0
  9
$PDSIZE
 40
0.0
  9
$PLINEWID
 40
0.0
  9
$SPLFRAME
 70
     0
  9
$SPLINETYPE
 70
     6
  9
$SPLINESEGS
 70
     8
  9
$HANDSEED
  5
1524A
  9
$SURFTAB1
 70
     6
  9
$SURFTAB2
 70
     6
  9
$SURFTYPE
 70
     6
  9
$SURFU
 70
     6
  9
$SURFV
 70
     6
  9
$UCSBASE
  2

  9
$UCSNAME
  2

  9
$UCSORG
 10
0.0
 20
0.0
 30
0.0
  9
$UCSXDIR
 10
1.0
 20
0.0
 30
0.0
  9
$UCSYDIR
 10
0.0
 20
1.0
 30
0.0
  9
$UCSORTHOREF
  2

  9
$UCSORTHOVIEW
 70
     0
  9
$UCSORGTOP
 10
0.0
 20
0.0
 30
0.0
  9
$UCSORGBOTTOM
 10
0.0
 20
0.0
 30
0.0
  9
$UCSORGLEFT
 10
0.0
 20
0.0
 30
0.0
  9
$UCSORGRIGHT
 10
0.0
 20
0.0
 30
0.0
  9
$UCSORGFRONT
 10
0.0
 20
0.0
 30
0.0
  9
$UCSORGBACK
 10
0.0
 20
0.0
 30
0.0
  9
$PUCSBASE
  2

  9
$PUCSNAME
  2

  9
$PUCSORG
 10
0.0
 20
0.0
 30
0.0
  9
$PUCSXDIR
 10
1.0
 20
0.0
 30
0.0
  9
$PUCSYDIR
 10
0.0
 20
1.0
 30
0.0
  9
$PUCSORTHOREF
  2

  9
$PUCSORTHOVIEW
 70
     0
  9
$PUCSORGTOP
 10
0.0
 20
0.0
 30
0.0
  9
$PUCSORGBOTTOM
 10
0.0
 20
0.0
 30
0.0
  9
$PUCSORGLEFT
 10
0.0
 20
0.0
 30
0.0
  9
$PUCSORGRIGHT
 10
0.0
 20
0.0
 30
0.0
  9
$PUCSORGFRONT
 10
0.0
 20
0.0
 30
0.0
  9
$PUCSORGBACK
 10
0.0
 20
0.0
 30
0.0
  9
$USERI1
 70
     0
  9
$USERI2
 70
     0
  9
$USERI3
 70
     0
  9
$USERI4
 70
     0
  9
$USERI5
 70
     0
  9
$USERR1
 40
0.0
  9
$USERR2
 40
0.0
  9
$USERR3
 40
0.0
  9
$USERR4
 40
0.0
  9
$USERR5
 40
0.0
  9
$WORLDVIEW
 70
     1
  9
$SHADEDGE
 70
     3
  9
$SHADEDIF
 70
    70
  9
$TILEMODE
 70
     1
  9
$MAXACTVP
 70
    16
  9
$PINSBASE
 10
0.0
 20
0.0
 30
0.0
  9
$PLIMCHECK
 70
     0
  9
$PEXTMIN
 10
1.000000000000000E+20
 20
1.000000000000000E+20
 30
1.000000000000000E+20
  9
$PEXTMAX
 10
-1.000000000000000E+20
 20
-1.000000000000000E+20
 30
-1.000000000000000E+20
  9
$PLIMMIN
 10
0.0
 20
0.0
  9
$PLIMMAX
 10
12.0
 20
9.0
  9
$UNITMODE
 70
     0
  9
$VISRETAIN
 70
     0
  9
$PLINEGEN
 70
     1
  9
$PSLTSCALE
 70
     0
  9
$TREEDEPTH
 70
  3020
  9
$CMLSTYLE
  2
Standard
  9
$CMLJUST
 70
     0
  9
$CMLSCALE
 40
1.0
  9
$PROXYGRAPHICS
 70
     1
  9
$MEASUREMENT
 70
     0
  9
$CELWEIGHT
370
    -1
  9
$ENDCAPS
280
     0
  9
$JOINSTYLE
280
     0
  9
$LWDISPLAY
290
     0
  9
$INSUNITS
 70
     0
  9
$HYPERLINKBASE
  1

  9
$STYLESHEET
  1

  9
$XEDIT
290
     1
  9
$CEPSNTYPE
380
     0
  9
$PSTYLEMODE
290
     1
  9
$FINGERPRINTGUID
  2
{8637CE02-3222-11D7-99D2-0040267E6A47}
  9
$VERSIONGUID
  2
{58115D88-FC35-4007-91F8-E95E48CAAFDC}
  9
$EXTNAMES
290
     1
  9
$PSVPSCALE
 40
0.0
  9
$OLESTARTUP
290
     0
  0
ENDSEC
  0
SECTION
  2
CLASSES
  0
CLASS
  1
ACDBDICTIONARYWDFLT
  2
AcDbDictionaryWithDefault
  3
ObjectDBX Classes
 90
        0
280
     0
281
     0
  0
CLASS
  1
ACDBPLACEHOLDER
  2
AcDbPlaceHolder
  3
ObjectDBX Classes
 90
        0
280
     0
281
     0
  0
CLASS
  1
LAYOUT
  2
AcDbLayout
  3
ObjectDBX Classes
 90
        0
280
     0
281
     0
  0
CLASS
  1
DICTIONARYVAR
  2
AcDbDictionaryVar
  3
ObjectDBX Classes
 90
        0
280
     0
281
     0
  0
CLASS
  1
TABLESTYLE
  2
AcDbTableStyle
  3
ObjectDBX Classes
 90
     2047
280
     0
281
     0
  0
CLASS
  1
SORTENTSTABLE
  2
AcDbSortentsTable
  3
ObjectDBX Classes
 90
        0
280
     0
281
     0
  0
ENDSEC
  0
SECTION
  2
TABLES
  0
TABLE
  2
VPORT
  5
1EF1
330
0
100
AcDbSymbolTable
 70
     3
  0
VPORT
  5
15244
330
1EF1
100
AcDbSymbolTableRecord
100
AcDbViewportTableRecord
  2
*Active
 70
     0
 10
0.0
 20
0.0
 11
1.0
 21
1.0
 12
13532.37247657942
 22
-73657.74972561002
 13
0.0
 23
0.0
 14
1000.0
 24
1000.0
 15
1000.0
 25
1000.0
 16
0.0
 26
0.0
 36
1.0
 17
0.0
 27
0.0
 37
0.0
 40
12729.8610729882
 41
1.652054794520547
 42
50.0
 43
0.0
 44
0.0
 50
0.0
 51
0.0
 71
     0
 72
   100
 73
     1
 74
     1
 75
     0
 76
     0
 77
     0
 78
     0
281
     0
 65
     1
110
0.0
120
0.0
130
0.0
111
1.0
121
0.0
131
0.0
112
0.0
122
1.0
132
0.0
 79
     0
146
0.0
  0
ENDTAB
  0
TABLE
  2
LTYPE
  5
1EEE
330
0
100
AcDbSymbolTable
 70
     8
  0
LTYPE
  5
1EFC
330
1EEE
100
AcDbSymbolTableRecord
100
AcDbLinetypeTableRecord
  2
ByBlock
 70
     0
  3

 72
    65
 73
     0
 40
0.0
  0
LTYPE
  5
1EFD
330
1EEE
100
AcDbSymbolTableRecord
100
AcDbLinetypeTableRecord
  2
ByLayer
 70
     0
  3

 72
    65
 73
     0
 40
0.0
  0
LTYPE
  5
1EFE
330
1EEE
100
AcDbSymbolTableRecord
100
AcDbLinetypeTableRecord
  2
CONTINUOUS
 70
     0
  3
Solid line
 72
    65
 73
     0
 40
0.0
  0
LTYPE
  5
1F0C
330
1EEE
100
AcDbSymbolTableRecord
100
AcDbLinetypeTableRecord
  2
HIDDEN
 70
     0
  3
__ __ __ __ __ __ __ __ __ __ __ __ __ __ __ __
 72
    65
 73
     5
 40
8.0
 49
1.0
 74
     0
 49
-2.0
 74
     0
 49
2.0
 74
     0
 49
-2.0
 74
     0
 49
1.0
 74
     0
  0
LTYPE
  5
1F0D
330
1EEE
100
AcDbSymbolTableRecord
100
AcDbLinetypeTableRecord
  2
DOT
 70
     0
  3
. . . . . . . . . . . . . . . . . . . . . . . .
 72
    65
 73
     3
 40
1.6
 49
0.4
 74
     0
 49
-0.8
 74
     0
 49
0.4
 74
     0
  0
LTYPE
  5
1F0E
330
1EEE
100
AcDbSymbolTableRecord
100
AcDbLinetypeTableRecord
  2
CENTER
 70
     0
  3
____ _ ____ _ ____ _ ____ _ ____ _ ____ _ ____ 
 72
    65
 73
     5
 40
12.0
 49
5.0
 74
     0
 49
-0.8
 74
     0
 49
0.4
 74
     0
 49
-0.8
 74
     0
 49
5.0
 74
     0
  0
LTYPE
  5
1F0F
330
1EEE
100
AcDbSymbolTableRecord
100
AcDbLinetypeTableRecord
  2
DIVIDE
 70
     0
  3
____ . . ____ . . ____ . . ____ . . ____ . . __
 72
    65
 73
     7
 40
13.2
 49
5.0
 74
     0
 49
-0.8
 74
     0
 49
0.4
 74
     0
 49
-0.8
 74
     0
 49
0.4
 74
     0
 49
-0.8
 74
     0
 49
5.0
 74
     0
  0
LTYPE
  5
BC93
330
1EEE
100
AcDbSymbolTableRecord
100
AcDbLinetypeTableRecord
  2
DASH_CENTER
 70
     0
  3
Dash_Center
 72
    65
 73
     4
 40
36.0
 49
24.0
 74
     0
 49
-3.0
 74
     0
 49
6.0
 74
     0
 49
-3.0
 74
     0
  0
LTYPE
  5
CA49
330
1EEE
100
AcDbSymbolTableRecord
100
AcDbLinetypeTableRecord
  2
STYLE_01
 70
     0
  3

 72
    65
 73
     2
 40
0.125
 49
0.0625
 74
     0
 49
-0.0625
 74
     0
  0
LTYPE
  5
CA4A
330
1EEE
100
AcDbSymbolTableRecord
100
AcDbLinetypeTableRecord
  2
STYLE_07
 70
     0
  3

 72
    65
 73
     2
 40
0.125
 49
0.03125
 74
     0
 49
-0.09375
 74
     0
  0
ENDTAB
  0
TABLE
  2
LAYER
  5
1EEB
102
{ACAD_XDICTIONARY
360
9A3A
102
}
330
0
100
AcDbSymbolTable
 70
    13
  0
LAYER
  5
1EF9
330
1EEB
100
AcDbSymbolTableRecord
100
AcDbLayerTableRecord
  2
0
 70
     0
 62
     7
  6
CONTINUOUS
370
    -3
390
1EF8
  0
LAYER
  5
4075
330
1EEB
100
AcDbSymbolTableRecord
100
AcDbLayerTableRecord
  2
記号
 70
     0
 62
     4
  6
CONTINUOUS
370
    -3
390
1EF8
  0
LAYER
  5
42A3
330
1EEB
100
AcDbSymbolTableRecord
100
AcDbLayerTableRecord
  2
Defpoints
 70
     4
 62
     7
  6
CONTINUOUS
290
     0
370
    -3
390
1EF8
  0
LAYER
  5
58FC
330
1EEB
100
AcDbSymbolTableRecord
100
AcDbLayerTableRecord
  2
リスト
 70
     0
 62
     8
  6
CONTINUOUS
370
    13
390
1EF8
  0
LAYER
  5
8CB6
330
1EEB
100
AcDbSymbolTableRecord
100
AcDbLayerTableRecord
  2
器具
 70
     0
 62
     4
  6
CONTINUOUS
370
    -3
390
1EF8
  0
LAYER
  5
8CB7
330
1EEB
100
AcDbSymbolTableRecord
100
AcDbLayerTableRecord
  2
レイヤー_1
 70
     0
 62
   160
  6
CONTINUOUS
370
    -3
390
1EF8
  0
LAYER
  5
9466
330
1EEB
100
AcDbSymbolTableRecord
100
AcDbLayerTableRecord
  2
画層1
 70
     4
 62
   160
  6
CONTINUOUS
370
    -3
390
1EF8
1001
AcAecLayerStandard
1000

1000

  0
LAYER
  5
9F35
330
1EEB
100
AcDbSymbolTableRecord
100
AcDbLayerTableRecord
  2
下書き
 70
     0
 62
     6
  6
CONTINUOUS
370
    -3
390
1EF8
1001
AcAecLayerStandard
1000

1000

  0
LAYER
  5
A81A
330
1EEB
100
AcDbSymbolTableRecord
100
AcDbLayerTableRecord
  2
007
 70
     0
 62
     1
  6
CONTINUOUS
370
    -3
390
1EF8
  0
LAYER
  5
BC94
330
1EEB
100
AcDbSymbolTableRecord
100
AcDbLayerTableRecord
  2
図面
 70
     0
 62
     5
  6
CONTINUOUS
370
    -3
390
1EF8
  0
LAYER
  5
CA4B
330
1EEB
100
AcDbSymbolTableRecord
100
AcDbLayerTableRecord
  2
1
 70
     0
 62
     8
  6
CONTINUOUS
370
    -3
390
1EF8
1001
AcAecLayerStandard
1000

1000

  0
LAYER
  5
1246F
330
1EEB
100
AcDbSymbolTableRecord
100
AcDbLayerTableRecord
  2
寸法・文字
 70
     0
 62
     4
  6
CONTINUOUS
370
    13
390
1EF8
1001
AcAecLayerStandard
1000

1000

  0
LAYER
  5
13854
330
1EEB
100
AcDbSymbolTableRecord
100
AcDbLayerTableRecord
  2
製品
 70
     0
 62
     1
  6
CONTINUOUS
370
    -3
390
1EF8
1001
AcAecLayerStandard
1000

1000

  0
ENDTAB
  0
TABLE
  2
STYLE
  5
1EEC
330
0
100
AcDbSymbolTable
 70
    12
  0
STYLE
  5
1EFA
330
1EEC
100
AcDbSymbolTableRecord
100
AcDbTextStyleTableRecord
  2
STANDARD
 70
     0
 40
280.0
 41
1.0
 50
0.0
 71
     0
 42
280.0
  3
MS Gothic.ttf
  4

1001
ACAD
1000
MS Gothic
1071
    32817
  0
STYLE
  5
1F2D
330
1EEC
100
AcDbSymbolTableRecord
100
AcDbTextStyleTableRecord
  2
ＤＨＰ平成ゴシックW5
 70
     0
 40
1000.0
 41
1.0
 50
0.0
 71
     0
 42
1000.0
  3
txt
  4
extfont
  0
STYLE
  5
1F2E
330
1EEC
100
AcDbSymbolTableRecord
100
AcDbTextStyleTableRecord
  2
TATEDRACAD
 70
     4
 40
1000.0
 41
1.0
 50
0.0
 71
     0
 42
1000.0
  3
txt
  4
extfont
  0
STYLE
  5
1F2F
330
1EEC
100
AcDbSymbolTableRecord
100
AcDbTextStyleTableRecord
  2
ＤＨＰ平成ゴシックW51
 70
     0
 40
1000.0
 41
1.0
 50
0.0
 71
     0
 42
1000.0
  3
txt
  4
extfont
  0
STYLE
  5
1F30
330
1EEC
100
AcDbSymbolTableRecord
100
AcDbTextStyleTableRecord
  2
ＪＳＰゴシック
 70
     0
 40
1000.0
 41
1.0
 50
0.0
 71
     0
 42
1000.0
  3
txt
  4
extfont
  0
STYLE
  5
1F31
330
1EEC
100
AcDbSymbolTableRecord
100
AcDbTextStyleTableRecord
  2
ＭＳ_ゴシック
 70
     0
 40
1000.0
 41
1.0
 50
0.0
 71
     0
 42
1000.0
  3
txt
  4
extfont
  0
STYLE
  5
A258
330
1EEC
100
AcDbSymbolTableRecord
100
AcDbTextStyleTableRecord
  2
スタイル1
 70
     0
 40
300.0
 41
1.0
 50
0.0
 71
     0
 42
300.0
  3
MS Gothic.ttf
  4

1001
ACAD
1000
MS Gothic
1071
    32817
  0
STYLE
  5
A547
330
1EEC
100
AcDbSymbolTableRecord
100
AcDbTextStyleTableRecord
  2
WMF-ＭＳ Ｐゴシック0
 70
     0
 40
0.0
 41
1.0
 50
0.0
 71
     0
 42
280.0
  3
MS PGothic.ttf
  4

1001
ACAD
1000
MS PGothic
1071
    32816
  0
STYLE
  5
A58D
330
1EEC
100
AcDbSymbolTableRecord
100
AcDbTextStyleTableRecord
  2
WMF-System0
 70
     0
 40
0.0
 41
1.0
 50
0.0
 71
     0
 42
280.0
  3

  4

  0
STYLE
  5
A81B
330
1EEC
100
AcDbSymbolTableRecord
100
AcDbTextStyleTableRecord
  2
ＭＳ ゴシック
 70
     0
 40
450.0
 41
0.85
 50
0.0
 71
     0
 42
450.0
  3
MS Gothic.ttf
  4

1001
ACAD
1000
MS Gothic
1071
    32817
  0
STYLE
  5
CA4C
330
1EEC
100
AcDbSymbolTableRecord
100
AcDbTextStyleTableRecord
  2
_______
 70
     0
 40
0.0
 41
1.0
 50
0.0
 71
     0
 42
0.0
  3
MS Gothic.ttf
  4
ＭＳ ゴシック
1001
ACAD
1000
ＭＳ ゴシック
1071
        0
  0
STYLE
  5
14676
330
1EEC
100
AcDbSymbolTableRecord
100
AcDbTextStyleTableRecord
  2
ヒラギノ角ゴ Pro W3
 70
     0
 40
0.0
 41
1.0
 50
0.0
 71
     0
 42
0.0
  3
MS Gothic.ttf
  4

1001
ACAD
1000
MS Gothic
1071
    32817
  0
ENDTAB
  0
TABLE
  2
VIEW
  5
1EEF
330
0
100
AcDbSymbolTable
 70
     0
  0
ENDTAB
  0
TABLE
  2
UCS
  5
1EF0
330
0
100
AcDbSymbolTable
 70
     0
  0
ENDTAB
  0
TABLE
  2
APPID
  5
1EF2
330
0
100
AcDbSymbolTable
 70
     3
  0
APPID
  5
1EFB
330
1EF2
100
AcDbSymbolTableRecord
100
AcDbRegAppTableRecord
  2
ACAD
 70
     0
  0
APPID
  5
9467
330
1EF2
100
AcDbSymbolTableRecord
100
AcDbRegAppTableRecord
  2
AcAecLayerStandard
 70
     0
  0
APPID
  5
9D2E
330
1EF2
100
AcDbSymbolTableRecord
100
AcDbRegAppTableRecord
  2
ACAD_PSEXT
 70
     0
  0
ENDTAB
  0
TABLE
  2
DIMSTYLE
  5
1EF3
330
0
100
AcDbSymbolTable
 70
     1
100
AcDbDimStyleTable
 71
     1
340
1F32
  0
DIMSTYLE
105
1F32
330
1EF3
100
AcDbSymbolTableRecord
100
AcDbDimStyleTableRecord
  2
STANDARD
 70
     0
279
     2
340
1EFA
  0
ENDTAB
  0
TABLE
  2
BLOCK_RECORD
  5
1EEA
330
0
100
AcDbSymbolTable
 70
     3
  0
BLOCK_RECORD
  5
1F07
102
{ACAD_XDICTIONARY
360
980C
102
}
330
1EEA
100
AcDbSymbolTableRecord
100
AcDbBlockTableRecord
  2
*Model_Space
340
1F0A
  0
BLOCK_RECORD
  5
1F03
330
1EEA
100
AcDbSymbolTableRecord
100
AcDbBlockTableRecord
  2
*Paper_Space
340
1F06
  0
BLOCK_RECORD
  5
429C
330
1EEA
100
AcDbSymbolTableRecord
100
AcDbBlockTableRecord
  2
_Open30
340
0
  0
BLOCK_RECORD
  5
A543
330
1EEA
100
AcDbSymbolTableRecord
100
AcDbBlockTableRecord
  2
WMF0
340
0
  0
BLOCK_RECORD
  5
1384E
330
1EEA
100
AcDbSymbolTableRecord
100
AcDbBlockTableRecord
  2
_Open
340
0
  0
ENDTAB
  0
ENDSEC
  0
SECTION
  2
BLOCKS
  0
BLOCK
  5
1F08
330
1F07
100
AcDbEntity
  8
0
100
AcDbBlockBegin
  2
*Model_Space
 70
     0
 10
0.0
 20
0.0
 30
0.0
  3
*Model_Space
  1

  0
ENDBLK
  5
1F09
330
1F07
100
AcDbEntity
  8
0
100
AcDbBlockEnd
  0
BLOCK
  5
1F04
330
1F03
100
AcDbEntity
 67
     1
  8
0
100
AcDbBlockBegin
  2
*Paper_Space
 70
     0
 10
0.0
 20
0.0
 30
0.0
  3
*Paper_Space
  1

  0
ENDBLK
  5
1F05
330
1F03
100
AcDbEntity
 67
     1
  8
0
100
AcDbBlockEnd
  0
BLOCK
  5
42A0
330
429C
100
AcDbEntity
  8
0
100
AcDbBlockBegin
  2
_Open30
 70
     0
 10
0.0
 20
0.0
 30
0.0
  3
_Open30
  1

  0
LINE
  5
429D
330
429C
100
AcDbEntity
  8
記号
  6
DOT
 62
     0
370
    -2
100
AcDbLine
 10
-1.0
 20
0.26794919
 30
0.0
 11
0.0
 21
0.0
 31
0.0
  0
LINE
  5
429E
330
429C
100
AcDbEntity
  8
記号
  6
DOT
 62
     0
370
    -2
100
AcDbLine
 10
0.0
 20
0.0
 30
0.0
 11
-1.0
 21
-0.26794919
 31
0.0
  0
LINE
  5
429F
330
429C
100
AcDbEntity
  8
記号
  6
DOT
 62
     0
370
    -2
100
AcDbLine
 10
0.0
 20
0.0
 30
0.0
 11
-1.0
 21
0.0
 31
0.0
  0
ENDBLK
  5
42A1
330
429C
100
AcDbEntity
  8
0
100
AcDbBlockEnd
  0
BLOCK
  5
A546
330
A543
100
AcDbEntity
  8
0
 62
     7
370
     0
100
AcDbBlockBegin
  2
WMF0
 70
     0
 10
0.0
 20
0.0
 30
0.0
  3
WMF0
  1

  0
TEXT
  5
A548
330
A543
100
AcDbEntity
  8
0
 62
     7
370
     0
100
AcDbText
 10
4302.31530976598
 20
-1290.694592929794
 30
0.0
 40
894.8815844313239
  1
LEDﾀﾞｳﾝﾗｲﾄ
  7
WMF-ＭＳ Ｐゴシック0
100
AcDbText
  0
TEXT
  5
A54A
330
A543
100
AcDbEntity
  8
0
 62
     7
370
     0
100
AcDbText
 10
23920.87312229885
 20
-1290.694592929794
 30
0.0
 40
894.8815844313239
  1
LEDﾀﾞｳﾝﾗｲﾄ
  7
WMF-ＭＳ Ｐゴシック0
100
AcDbText
  0
TEXT
  5
A54B
330
A543
100
AcDbEntity
  8
0
 62
     7
370
     0
100
AcDbText
 10
43539.43093483171
 20
-1290.694592929794
 30
0.0
 40
894.8815844313239
  1
LEDﾀﾞｳﾝﾗｲﾄ
  7
WMF-ＭＳ Ｐゴシック0
100
AcDbText
  0
TEXT
  5
A54C
330
A543
100
AcDbEntity
  8
0
 62
     7
370
     0
100
AcDbText
 10
63157.98874736458
 20
-1290.694592929794
 30
0.0
 40
894.8815844313239
  1
LEDﾀﾞｳﾝﾗｲﾄ
  7
WMF-ＭＳ Ｐゴシック0
100
AcDbText
  0
TEXT
  5
A54D
330
A543
100
AcDbEntity
  8
0
 62
     7
370
     0
100
AcDbText
 10
1290.694592929794
 20
-2753.481798250227
 30
0.0
 40
894.8815844313239
  1
D1
  7
WMF-ＭＳ Ｐゴシック0
100
AcDbText
  0
TEXT
  5
A54E
330
A543
100
AcDbEntity
  8
0
 62
     7
370
     0
100
AcDbText
 10
4302.31530976598
 20
-2753.481798250227
 30
0.0
 40
894.8815844313239
  1
BML-26181WW-110
  7
WMF-ＭＳ Ｐゴシック0
100
AcDbText
  0
TEXT
  5
A54F
330
A543
100
AcDbEntity
  8
0
 62
     7
370
     0
100
AcDbText
 10
20909.25240546266
 20
-2753.481798250227
 30
0.0
 40
894.8815844313239
  1
D2
  7
WMF-ＭＳ Ｐゴシック0
100
AcDbText
  0
TEXT
  5
A550
330
A543
100
AcDbEntity
  8
0
 62
     7
370
     0
100
AcDbText
 10
23920.87312229885
 20
-2753.481798250227
 30
0.0
 40
894.8815844313239
  1
BML-26187WW-110
  7
WMF-ＭＳ Ｐゴシック0
100
AcDbText
  0
TEXT
  5
A551
330
A543
100
AcDbEntity
  8
0
 62
     7
370
     0
100
AcDbText
 10
40527.81021799553
 20
-2753.481798250227
 30
0.0
 40
894.8815844313239
  1
D3
  7
WMF-ＭＳ Ｐゴシック0
100
AcDbText
  0
TEXT
  5
A552
330
A543
100
AcDbEntity
  8
0
 62
     7
370
     0
100
AcDbText
 10
43539.43093483171
 20
-2753.481798250227
 30
0.0
 40
894.8815844313239
  1
BML-26199WW-110
  7
WMF-ＭＳ Ｐゴシック0
100
AcDbText
  0
TEXT
  5
A553
330
A543
100
AcDbEntity
  8
0
 62
     7
370
     0
100
AcDbText
 10
60146.36803052839
 20
-2753.481798250227
 30
0.0
 40
894.8815844313239
  1
D4
  7
WMF-ＭＳ Ｐゴシック0
100
AcDbText
  0
TEXT
  5
A554
330
A543
100
AcDbEntity
  8
0
 62
     7
370
     0
100
AcDbText
 10
63157.98874736458
 20
-2753.481798250227
 30
0.0
 40
894.8815844313239
  1
BML-26213WL-110
  7
WMF-ＭＳ Ｐゴシック0
100
AcDbText
  0
TEXT
  5
A555
330
A543
100
AcDbEntity
  8
0
 62
     7
370
     0
100
AcDbText
 10
9637.186293875796
 20
-4216.26900357066
 30
0.0
 40
894.8815844313239
  1
LED76W  (4500K)
  7
WMF-ＭＳ Ｐゴシック0
100
AcDbText
  0
TEXT
  5
A556
330
A543
100
AcDbEntity
  8
0
 62
     7
370
     0
100
AcDbText
 10
29255.74410640866
 20
-4216.26900357066
 30
0.0
 40
894.8815844313239
  1
LED54W  (4500K)
  7
WMF-ＭＳ Ｐゴシック0
100
AcDbText
  0
TEXT
  5
A557
330
A543
100
AcDbEntity
  8
0
 62
     7
370
     0
100
AcDbText
 10
48874.30191894153
 20
-4216.26900357066
 30
0.0
 40
894.8815844313239
  1
LED32W  (4500K)
  7
WMF-ＭＳ Ｐゴシック0
100
AcDbText
  0
TEXT
  5
A558
330
A543
100
AcDbEntity
  8
0
 62
     7
370
     0
100
AcDbText
 10
68492.8597314744
 20
-4216.26900357066
 30
0.0
 40
894.8815844313239
  1
LED17W  (2900K)
  7
WMF-ＭＳ Ｐゴシック0
100
AcDbText
  0
TEXT
  5
A559
330
A543
100
AcDbEntity
  8
0
 62
     7
370
     0
100
AcDbText
 10
4302.31530976598
 20
-20823.20609926735
 30
0.0
 40
894.8815844313239
  1
 
  7
WMF-ＭＳ Ｐゴシック0
100
AcDbText
  0
TEXT
  5
A55A
330
A543
100
AcDbEntity
  8
0
 62
     7
370
     0
100
AcDbText
 10
23920.87312229885
 20
-20823.20609926735
 30
0.0
 40
894.8815844313239
  1
 
  7
WMF-ＭＳ Ｐゴシック0
100
AcDbText
  0
TEXT
  5
A55B
330
A543
100
AcDbEntity
  8
0
 62
     7
370
     0
100
AcDbText
 10
43539.43093483171
 20
-20823.20609926735
 30
0.0
 40
894.8815844313239
  1
 
  7
WMF-ＭＳ Ｐゴシック0
100
AcDbText
  0
TEXT
  5
A55C
330
A543
100
AcDbEntity
  8
0
 62
     7
370
     0
100
AcDbText
 10
63157.98874736458
 20
-20823.20609926735
 30
0.0
 40
894.8815844313239
  1
 
  7
WMF-ＭＳ Ｐゴシック0
100
AcDbText
  0
TEXT
  5
A55D
330
A543
100
AcDbEntity
  8
0
 62
     7
370
     0
100
AcDbText
 10
4302.31530976598
 20
-24006.91942849417
 30
0.0
 40
894.8815844313239
  1
LED直管型ﾗｲﾄ
  7
WMF-ＭＳ Ｐゴシック0
100
AcDbText
  0
TEXT
  5
A55E
330
A543
100
AcDbEntity
  8
0
 62
     7
370
     0
100
AcDbText
 10
23920.87312229885
 20
-24006.91942849417
 30
0.0
 40
894.8815844313239
  1
LED軒下用ﾀﾞｳﾝﾗｲﾄ
  7
WMF-ＭＳ Ｐゴシック0
100
AcDbText
  0
TEXT
  5
A55F
330
A543
100
AcDbEntity
  8
0
 62
     7
370
     0
100
AcDbText
 10
43539.43093483171
 20
-24006.91942849417
 30
0.0
 40
894.8815844313239
  1
LEDｱｳﾄﾄﾞｱｽﾎﾟｯﾄﾗｲﾄ
  7
WMF-ＭＳ Ｐゴシック0
100
AcDbText
  0
TEXT
  5
A560
330
A543
100
AcDbEntity
  8
0
 62
     7
370
     0
100
AcDbText
 10
63157.98874736458
 20
-24006.91942849417
 30
0.0
 40
894.8815844313239
  1
LEDﾀﾞｳﾝﾗｲﾄ
  7
WMF-ＭＳ Ｐゴシック0
100
AcDbText
  0
TEXT
  5
A561
330
A543
100
AcDbEntity
  8
0
 62
     7
370
     0
100
AcDbText
 10
1376.740899125113
 20
-25469.7066338146
 30
0.0
 40
894.8815844313239
  1
F1
  7
WMF-ＭＳ Ｐゴシック0
100
AcDbText
  0
TEXT
  5
A562
330
A543
100
AcDbEntity
  8
0
 62
     7
370
     0
100
AcDbText
 10
4302.31530976598
 20
-25469.7066338146
 30
0.0
 40
894.8815844313239
  1
TBJKL-22006W
  7
WMF-ＭＳ Ｐゴシック0
100
AcDbText
  0
TEXT
  5
A563
330
A543
100
AcDbEntity
  8
0
 62
     7
370
     0
100
AcDbText
 10
20479.02087448607
 20
-25469.7066338146
 30
0.0
 40
894.8815844313239
  1
OD1
  7
WMF-ＭＳ Ｐゴシック0
100
AcDbText
  0
TEXT
  5
A564
330
A543
100
AcDbEntity
  8
0
 62
     7
370
     0
100
AcDbText
 10
23920.87312229885
 20
-25469.7066338146
 30
0.0
 40
894.8815844313239
  1
BML-26187WSW-110
  7
WMF-ＭＳ Ｐゴシック0
100
AcDbText
  0
TEXT
  5
A565
330
A543
100
AcDbEntity
  8
0
 62
     7
370
     0
100
AcDbText
 10
40097.57868701893
 20
-25469.7066338146
 30
0.0
 40
894.8815844313239
  1
OS1
  7
WMF-ＭＳ Ｐゴシック0
100
AcDbText
  0
TEXT
  5
A566
330
A543
100
AcDbEntity
  8
0
 62
     7
370
     0
100
AcDbText
 10
43539.43093483171
 20
-25469.7066338146
 30
0.0
 40
894.8815844313239
  1
BGSL-20045GW-20
  7
WMF-ＭＳ Ｐゴシック0
100
AcDbText
  0
TEXT
  5
A567
330
A543
100
AcDbEntity
  8
0
 62
     7
370
     0
100
AcDbText
 10
60576.59956150499
 20
-25469.7066338146
 30
0.0
 40
894.8815844313239
  1
0
  7
WMF-ＭＳ Ｐゴシック0
100
AcDbText
  0
TEXT
  5
A568
330
A543
100
AcDbEntity
  8
0
 62
     7
370
     0
100
AcDbText
 10
63157.98874736458
 20
-25469.7066338146
 30
0.0
 40
894.8815844313239
  1
BML-26160WW-120
  7
WMF-ＭＳ Ｐゴシック0
100
AcDbText
  0
TEXT
  5
A569
330
A543
100
AcDbEntity
  8
0
 62
     7
370
     0
100
AcDbText
 10
9637.186293875796
 20
-26932.49383913503
 30
0.0
 40
894.8815844313239
  1
LED38W  (4000K)
  7
WMF-ＭＳ Ｐゴシック0
100
AcDbText
  0
TEXT
  5
A56A
330
A543
100
AcDbEntity
  8
0
 62
     7
370
     0
100
AcDbText
 10
29255.74410640866
 20
-26932.49383913503
 30
0.0
 40
894.8815844313239
  1
LED54W  (4500K)
  7
WMF-ＭＳ Ｐゴシック0
100
AcDbText
  0
TEXT
  5
A56B
330
A543
100
AcDbEntity
  8
0
 62
     7
370
     0
100
AcDbText
 10
48874.30191894153
 20
-26932.49383913503
 30
0.0
 40
894.8815844313239
  1
LED68W  (4500K)
  7
WMF-ＭＳ Ｐゴシック0
100
AcDbText
  0
TEXT
  5
A56C
330
A543
100
AcDbEntity
  8
0
 62
     7
370
     0
100
AcDbText
 10
77613.76818817828
 20
-26932.49383913503
 30
0.0
 40
894.8815844313239
  1
0
  7
WMF-ＭＳ Ｐゴシック0
100
AcDbText
  0
TEXT
  5
A56D
330
A543
100
AcDbEntity
  8
0
 62
     7
370
     0
100
AcDbText
 10
4302.31530976598
 20
-46723.14426405853
 30
0.0
 40
894.8815844313239
  1
LEDﾀﾞｳﾝﾗｲﾄ
  7
WMF-ＭＳ Ｐゴシック0
100
AcDbText
  0
TEXT
  5
A56E
330
A543
100
AcDbEntity
  8
0
 62
     7
370
     0
100
AcDbText
 10
23920.87312229885
 20
-46723.14426405853
 30
0.0
 40
894.8815844313239
  1
LEDﾀﾞｳﾝﾗｲﾄ
  7
WMF-ＭＳ Ｐゴシック0
100
AcDbText
  0
TEXT
  5
A56F
330
A543
100
AcDbEntity
  8
0
 62
     7
370
     0
100
AcDbText
 10
43539.43093483171
 20
-46723.14426405853
 30
0.0
 40
894.8815844313239
  1
LEDﾀﾞｳﾝﾗｲﾄ
  7
WMF-ＭＳ Ｐゴシック0
100
AcDbText
  0
TEXT
  5
A570
330
A543
100
AcDbEntity
  8
0
 62
     7
370
     0
100
AcDbText
 10
63157.98874736458
 20
-46723.14426405853
 30
0.0
 40
894.8815844313239
  1
LEDﾀﾞｳﾝﾗｲﾄ
  7
WMF-ＭＳ Ｐゴシック0
100
AcDbText
  0
TEXT
  5
A571
330
A543
100
AcDbEntity
  8
0
 62
     7
370
     0
100
AcDbText
 10
1720.926123906392
 20
-48185.93146937897
 30
0.0
 40
894.8815844313239
  1
0
  7
WMF-ＭＳ Ｐゴシック0
100
AcDbText
  0
TEXT
  5
A572
330
A543
100
AcDbEntity
  8
0
 62
     7
370
     0
100
AcDbText
 10
4302.31530976598
 20
-48185.93146937897
 30
0.0
 40
894.8815844313239
  1
BML-26160WW-124
  7
WMF-ＭＳ Ｐゴシック0
100
AcDbText
  0
TEXT
  5
A573
330
A543
100
AcDbEntity
  8
0
 62
     7
370
     0
100
AcDbText
 10
21339.48393643926
 20
-48185.93146937897
 30
0.0
 40
894.8815844313239
  1
0
  7
WMF-ＭＳ Ｐゴシック0
100
AcDbText
  0
TEXT
  5
A574
330
A543
100
AcDbEntity
  8
0
 62
     7
370
     0
100
AcDbText
 10
23920.87312229885
 20
-48185.93146937897
 30
0.0
 40
894.8815844313239
  1
BML-26160WW-125
  7
WMF-ＭＳ Ｐゴシック0
100
AcDbText
  0
TEXT
  5
A575
330
A543
100
AcDbEntity
  8
0
 62
     7
370
     0
100
AcDbText
 10
40958.04174897213
 20
-48185.93146937897
 30
0.0
 40
894.8815844313239
  1
0
  7
WMF-ＭＳ Ｐゴシック0
100
AcDbText
  0
TEXT
  5
A576
330
A543
100
AcDbEntity
  8
0
 62
     7
370
     0
100
AcDbText
 10
43539.43093483171
 20
-48185.93146937897
 30
0.0
 40
894.8815844313239
  1
BML-26160WW-126
  7
WMF-ＭＳ Ｐゴシック0
100
AcDbText
  0
TEXT
  5
A577
330
A543
100
AcDbEntity
  8
0
 62
     7
370
     0
100
AcDbText
 10
60576.59956150499
 20
-48185.93146937897
 30
0.0
 40
894.8815844313239
  1
0
  7
WMF-ＭＳ Ｐゴシック0
100
AcDbText
  0
TEXT
  5
A578
330
A543
100
AcDbEntity
  8
0
 62
     7
370
     0
100
AcDbText
 10
63157.98874736458
 20
-48185.93146937897
 30
0.0
 40
894.8815844313239
  1
BML-26160WW-127
  7
WMF-ＭＳ Ｐゴシック0
100
AcDbText
  0
TEXT
  5
A579
330
A543
100
AcDbEntity
  8
0
 62
     7
370
     0
100
AcDbText
 10
18758.09475057967
 20
-49648.7186746994
 30
0.0
 40
894.8815844313239
  1
0
  7
WMF-ＭＳ Ｐゴシック0
100
AcDbText
  0
TEXT
  5
A57A
330
A543
100
AcDbEntity
  8
0
 62
     7
370
     0
100
AcDbText
 10
38376.65256311254
 20
-49648.7186746994
 30
0.0
 40
894.8815844313239
  1
0
  7
WMF-ＭＳ Ｐゴシック0
100
AcDbText
  0
TEXT
  5
A57B
330
A543
100
AcDbEntity
  8
0
 62
     7
370
     0
100
AcDbText
 10
57995.21037564541
 20
-49648.7186746994
 30
0.0
 40
894.8815844313239
  1
0
  7
WMF-ＭＳ Ｐゴシック0
100
AcDbText
  0
TEXT
  5
A57C
330
A543
100
AcDbEntity
  8
0
 62
     7
370
     0
100
AcDbText
 10
77613.76818817828
 20
-49648.7186746994
 30
0.0
 40
894.8815844313239
  1
0
  7
WMF-ＭＳ Ｐゴシック0
100
AcDbText
  0
TEXT
  5
A57D
330
A543
100
AcDbEntity
  8
0
 62
     7
370
     0
100
AcDbText
 10
4302.31530976598
 20
-69439.36909962291
 30
0.0
 40
894.8815844313239
  1
LEDﾀﾞｳﾝﾗｲﾄ
  7
WMF-ＭＳ Ｐゴシック0
100
AcDbText
  0
TEXT
  5
A57E
330
A543
100
AcDbEntity
  8
0
 62
     7
370
     0
100
AcDbText
 10
23920.87312229885
 20
-69439.36909962291
 30
0.0
 40
894.8815844313239
  1
LEDﾀﾞｳﾝﾗｲﾄ
  7
WMF-ＭＳ Ｐゴシック0
100
AcDbText
  0
TEXT
  5
A57F
330
A543
100
AcDbEntity
  8
0
 62
     7
370
     0
100
AcDbText
 10
43539.43093483171
 20
-69439.36909962291
 30
0.0
 40
894.8815844313239
  1
LEDﾀﾞｳﾝﾗｲﾄ
  7
WMF-ＭＳ Ｐゴシック0
100
AcDbText
  0
TEXT
  5
A580
330
A543
100
AcDbEntity
  8
0
 62
     7
370
     0
100
AcDbText
 10
63157.98874736458
 20
-69439.36909962291
 30
0.0
 40
894.8815844313239
  1
LEDﾀﾞｳﾝﾗｲﾄ
  7
WMF-ＭＳ Ｐゴシック0
100
AcDbText
  0
TEXT
  5
A581
330
A543
100
AcDbEntity
  8
0
 62
     7
370
     0
100
AcDbText
 10
1720.926123906392
 20
-70902.15630494334
 30
0.0
 40
894.8815844313239
  1
0
  7
WMF-ＭＳ Ｐゴシック0
100
AcDbText
  0
TEXT
  5
A582
330
A543
100
AcDbEntity
  8
0
 62
     7
370
     0
100
AcDbText
 10
18758.09475057967
 20
-70902.15630494334
 30
0.0
 40
894.8815844313239
  1
0
  7
WMF-ＭＳ Ｐゴシック0
100
AcDbText
  0
TEXT
  5
A583
330
A543
100
AcDbEntity
  8
0
 62
     7
370
     0
100
AcDbText
 10
21339.48393643926
 20
-70902.15630494334
 30
0.0
 40
894.8815844313239
  1
0
  7
WMF-ＭＳ Ｐゴシック0
100
AcDbText
  0
TEXT
  5
A584
330
A543
100
AcDbEntity
  8
0
 62
     7
370
     0
100
AcDbText
 10
38376.65256311254
 20
-70902.15630494334
 30
0.0
 40
894.8815844313239
  1
0
  7
WMF-ＭＳ Ｐゴシック0
100
AcDbText
  0
TEXT
  5
A585
330
A543
100
AcDbEntity
  8
0
 62
     7
370
     0
100
AcDbText
 10
40958.04174897213
 20
-70902.15630494334
 30
0.0
 40
894.8815844313239
  1
0
  7
WMF-ＭＳ Ｐゴシック0
100
AcDbText
  0
TEXT
  5
A586
330
A543
100
AcDbEntity
  8
0
 62
     7
370
     0
100
AcDbText
 10
57995.21037564541
 20
-70902.15630494334
 30
0.0
 40
894.8815844313239
  1
0
  7
WMF-ＭＳ Ｐゴシック0
100
AcDbText
  0
TEXT
  5
A587
330
A543
100
AcDbEntity
  8
0
 62
     7
370
     0
100
AcDbText
 10
60576.59956150499
 20
-70902.15630494334
 30
0.0
 40
894.8815844313239
  1
0
  7
WMF-ＭＳ Ｐゴシック0
100
AcDbText
  0
TEXT
  5
A588
330
A543
100
AcDbEntity
  8
0
 62
     7
370
     0
100
AcDbText
 10
77613.76818817828
 20
-70902.15630494334
 30
0.0
 40
894.8815844313239
  1
0
  7
WMF-ＭＳ Ｐゴシック0
100
AcDbText
  0
TEXT
  5
A589
330
A543
100
AcDbEntity
  8
0
 62
     7
370
     0
100
AcDbText
 10
18758.09475057967
 20
-72364.94351026378
 30
0.0
 40
894.8815844313239
  1
0
  7
WMF-ＭＳ Ｐゴシック0
100
AcDbText
  0
TEXT
  5
A58A
330
A543
100
AcDbEntity
  8
0
 62
     7
370
     0
100
AcDbText
 10
38376.65256311254
 20
-72364.94351026378
 30
0.0
 40
894.8815844313239
  1
0
  7
WMF-ＭＳ Ｐゴシック0
100
AcDbText
  0
TEXT
  5
A58B
330
A543
100
AcDbEntity
  8
0
 62
     7
370
     0
100
AcDbText
 10
57995.21037564541
 20
-72364.94351026378
 30
0.0
 40
894.8815844313239
  1
0
  7
WMF-ＭＳ Ｐゴシック0
100
AcDbText
  0
TEXT
  5
A58C
330
A543
100
AcDbEntity
  8
0
 62
     7
370
     0
100
AcDbText
 10
77613.76818817828
 20
-72364.94351026378
 30
0.0
 40
894.8815844313239
  1
0
  7
WMF-ＭＳ Ｐゴシック0
100
AcDbText
  0
POLYLINE
  5
A58E
330
A543
100
AcDbEntity
  8
0
 62
     7
370
     0
100
AcDb2dPolyline
 66
     1
 10
0.0
 20
0.0
 30
0.0
  0
VERTEX
  5
A58F
330
A58E
100
AcDbEntity
  8
0
 62
     7
370
     0
100
AcDbVertex
100
AcDb2dVertex
 10
4130.22269737534
 20
-1462.787205320433
 30
0.0
  0
VERTEX
  5
A590
330
A58E
100
AcDbEntity
  8
0
 62
     7
370
     0
100
AcDbVertex
100
AcDb2dVertex
 10
19704.60411872819
 20
-1462.787205320433
 30
0.0
  0
SEQEND
  5
A591
330
A58E
100
AcDbEntity
  8
0
 62
     7
370
     0
  0
POLYLINE
  5
A592
330
A543
100
AcDbEntity
  8
0
 62
     7
370
     0
100
AcDb2dPolyline
 66
     1
 10
0.0
 20
0.0
 30
0.0
  0
VERTEX
  5
A593
330
A592
100
AcDbEntity
  8
0
 62
     7
370
     0
100
AcDbVertex
100
AcDb2dVertex
 10
23748.78050990821
 20
-1462.787205320433
 30
0.0
  0
VERTEX
  5
A594
330
A592
100
AcDbEntity
  8
0
 62
     7
370
     0
100
AcDbVertex
100
AcDb2dVertex
 10
39323.16193126106
 20
-1462.787205320433
 30
0.0
  0
SEQEND
  5
A595
330
A592
100
AcDbEntity
  8
0
 62
     7
370
     0
  0
POLYLINE
  5
A596
330
A543
100
AcDbEntity
  8
0
 62
     7
370
     0
100
AcDb2dPolyline
 66
     1
 10
0.0
 20
0.0
 30
0.0
  0
VERTEX
  5
A597
330
A596
100
AcDbEntity
  8
0
 62
     7
370
     0
100
AcDbVertex
100
AcDb2dVertex
 10
43367.33832244107
 20
-1462.787205320433
 30
0.0
  0
VERTEX
  5
A598
330
A596
100
AcDbEntity
  8
0
 62
     7
370
     0
100
AcDbVertex
100
AcDb2dVertex
 10
58941.71974379392
 20
-1462.787205320433
 30
0.0
  0
SEQEND
  5
A599
330
A596
100
AcDbEntity
  8
0
 62
     7
370
     0
  0
POLYLINE
  5
A59A
330
A543
100
AcDbEntity
  8
0
 62
     7
370
     0
100
AcDb2dPolyline
 66
     1
 10
0.0
 20
0.0
 30
0.0
  0
VERTEX
  5
A59B
330
A59A
100
AcDbEntity
  8
0
 62
     7
370
     0
100
AcDbVertex
100
AcDb2dVertex
 10
4044.176391180021
 20
-86.04630619531958
 30
0.0
  0
VERTEX
  5
A59C
330
A59A
100
AcDbEntity
  8
0
 62
     7
370
     0
100
AcDbVertex
100
AcDb2dVertex
 10
4044.176391180021
 20
-4474.407922156618
 30
0.0
  0
SEQEND
  5
A59D
330
A59A
100
AcDbEntity
  8
0
 62
     7
370
     0
  0
POLYLINE
  5
A59E
330
A543
100
AcDbEntity
  8
0
 62
     7
370
     0
100
AcDb2dPolyline
 66
     1
 10
0.0
 20
0.0
 30
0.0
  0
VERTEX
  5
A59F
330
A59E
100
AcDbEntity
  8
0
 62
     7
370
     0
100
AcDbVertex
100
AcDb2dVertex
 10
23662.73420371289
 20
-86.04630619531958
 30
0.0
  0
VERTEX
  5
A5A0
330
A59E
100
AcDbEntity
  8
0
 62
     7
370
     0
100
AcDbVertex
100
AcDb2dVertex
 10
23662.73420371289
 20
-4474.407922156618
 30
0.0
  0
SEQEND
  5
A5A1
330
A59E
100
AcDbEntity
  8
0
 62
     7
370
     0
  0
POLYLINE
  5
A5A2
330
A543
100
AcDbEntity
  8
0
 62
     7
370
     0
100
AcDb2dPolyline
 66
     1
 10
0.0
 20
0.0
 30
0.0
  0
VERTEX
  5
A5A3
330
A5A2
100
AcDbEntity
  8
0
 62
     7
370
     0
100
AcDbVertex
100
AcDb2dVertex
 10
43281.29201624575
 20
-86.04630619531958
 30
0.0
  0
VERTEX
  5
A5A4
330
A5A2
100
AcDbEntity
  8
0
 62
     7
370
     0
100
AcDbVertex
100
AcDb2dVertex
 10
43281.29201624575
 20
-4474.407922156618
 30
0.0
  0
SEQEND
  5
A5A5
330
A5A2
100
AcDbEntity
  8
0
 62
     7
370
     0
  0
POLYLINE
  5
A5A6
330
A543
100
AcDbEntity
  8
0
 62
     7
370
     0
100
AcDb2dPolyline
 66
     1
 10
0.0
 20
0.0
 30
0.0
  0
VERTEX
  5
A5A7
330
A5A6
100
AcDbEntity
  8
0
 62
     7
370
     0
100
AcDbVertex
100
AcDb2dVertex
 10
62899.84982877862
 20
-86.04630619531958
 30
0.0
  0
VERTEX
  5
A5A8
330
A5A6
100
AcDbEntity
  8
0
 62
     7
370
     0
100
AcDbVertex
100
AcDb2dVertex
 10
62899.84982877862
 20
-4474.407922156618
 30
0.0
  0
SEQEND
  5
A5A9
330
A5A6
100
AcDbEntity
  8
0
 62
     7
370
     0
  0
POLYLINE
  5
A5AA
330
A543
100
AcDbEntity
  8
0
 62
     7
370
     0
100
AcDb2dPolyline
 66
     1
 10
0.0
 20
0.0
 30
0.0
  0
VERTEX
  5
A5AB
330
A5AA
100
AcDbEntity
  8
0
 62
     7
370
     0
100
AcDbVertex
100
AcDb2dVertex
 10
4130.22269737534
 20
-24179.0120408848
 30
0.0
  0
VERTEX
  5
A5AC
330
A5AA
100
AcDbEntity
  8
0
 62
     7
370
     0
100
AcDbVertex
100
AcDb2dVertex
 10
19704.60411872819
 20
-24179.0120408848
 30
0.0
  0
SEQEND
  5
A5AD
330
A5AA
100
AcDbEntity
  8
0
 62
     7
370
     0
  0
POLYLINE
  5
A5AE
330
A543
100
AcDbEntity
  8
0
 62
     7
370
     0
100
AcDb2dPolyline
 66
     1
 10
0.0
 20
0.0
 30
0.0
  0
VERTEX
  5
A5AF
330
A5AE
100
AcDbEntity
  8
0
 62
     7
370
     0
100
AcDbVertex
100
AcDb2dVertex
 10
23748.78050990821
 20
-24179.0120408848
 30
0.0
  0
VERTEX
  5
A5B0
330
A5AE
100
AcDbEntity
  8
0
 62
     7
370
     0
100
AcDbVertex
100
AcDb2dVertex
 10
39323.16193126106
 20
-24179.0120408848
 30
0.0
  0
SEQEND
  5
A5B1
330
A5AE
100
AcDbEntity
  8
0
 62
     7
370
     0
  0
POLYLINE
  5
A5B2
330
A543
100
AcDbEntity
  8
0
 62
     7
370
     0
100
AcDb2dPolyline
 66
     1
 10
0.0
 20
0.0
 30
0.0
  0
VERTEX
  5
A5B3
330
A5B2
100
AcDbEntity
  8
0
 62
     7
370
     0
100
AcDbVertex
100
AcDb2dVertex
 10
43367.33832244107
 20
-24179.0120408848
 30
0.0
  0
VERTEX
  5
A5B4
330
A5B2
100
AcDbEntity
  8
0
 62
     7
370
     0
100
AcDbVertex
100
AcDb2dVertex
 10
58941.71974379392
 20
-24179.0120408848
 30
0.0
  0
SEQEND
  5
A5B5
330
A5B2
100
AcDbEntity
  8
0
 62
     7
370
     0
  0
POLYLINE
  5
A5B6
330
A543
100
AcDbEntity
  8
0
 62
     7
370
     0
100
AcDb2dPolyline
 66
     1
 10
0.0
 20
0.0
 30
0.0
  0
VERTEX
  5
A5B7
330
A5B6
100
AcDbEntity
  8
0
 62
     7
370
     0
100
AcDbVertex
100
AcDb2dVertex
 10
4044.176391180021
 20
-22802.27114175969
 30
0.0
  0
VERTEX
  5
A5B8
330
A5B6
100
AcDbEntity
  8
0
 62
     7
370
     0
100
AcDbVertex
100
AcDb2dVertex
 10
4044.176391180021
 20
-27190.63275772099
 30
0.0
  0
SEQEND
  5
A5B9
330
A5B6
100
AcDbEntity
  8
0
 62
     7
370
     0
  0
POLYLINE
  5
A5BA
330
A543
100
AcDbEntity
  8
0
 62
     7
370
     0
100
AcDb2dPolyline
 66
     1
 10
0.0
 20
0.0
 30
0.0
  0
VERTEX
  5
A5BB
330
A5BA
100
AcDbEntity
  8
0
 62
     7
370
     0
100
AcDbVertex
100
AcDb2dVertex
 10
23662.73420371289
 20
-22802.27114175969
 30
0.0
  0
VERTEX
  5
A5BC
330
A5BA
100
AcDbEntity
  8
0
 62
     7
370
     0
100
AcDbVertex
100
AcDb2dVertex
 10
23662.73420371289
 20
-27190.63275772099
 30
0.0
  0
SEQEND
  5
A5BD
330
A5BA
100
AcDbEntity
  8
0
 62
     7
370
     0
  0
POLYLINE
  5
A5BE
330
A543
100
AcDbEntity
  8
0
 62
     7
370
     0
100
AcDb2dPolyline
 66
     1
 10
0.0
 20
0.0
 30
0.0
  0
VERTEX
  5
A5BF
330
A5BE
100
AcDbEntity
  8
0
 62
     7
370
     0
100
AcDbVertex
100
AcDb2dVertex
 10
43281.29201624575
 20
-22802.27114175969
 30
0.0
  0
VERTEX
  5
A5C0
330
A5BE
100
AcDbEntity
  8
0
 62
     7
370
     0
100
AcDbVertex
100
AcDb2dVertex
 10
43281.29201624575
 20
-27190.63275772099
 30
0.0
  0
SEQEND
  5
A5C1
330
A5BE
100
AcDbEntity
  8
0
 62
     7
370
     0
  0
POLYLINE
  5
A5C2
330
A543
100
AcDbEntity
  8
0
 62
     7
370
     0
100
AcDb2dPolyline
 66
     1
 10
0.0
 20
0.0
 30
0.0
  0
VERTEX
  5
A5C3
330
A5C2
100
AcDbEntity
  8
0
 62
     7
370
     0
100
AcDbVertex
100
AcDb2dVertex
 10
62899.84982877862
 20
-22802.27114175969
 30
0.0
  0
VERTEX
  5
A5C4
330
A5C2
100
AcDbEntity
  8
0
 62
     7
370
     0
100
AcDbVertex
100
AcDb2dVertex
 10
62899.84982877862
 20
-27190.63275772099
 30
0.0
  0
SEQEND
  5
A5C5
330
A5C2
100
AcDbEntity
  8
0
 62
     7
370
     0
  0
POLYLINE
  5
A5C6
330
A543
100
AcDbEntity
  8
0
 62
     7
370
     0
100
AcDb2dPolyline
 66
     1
 10
0.0
 20
0.0
 30
0.0
  0
VERTEX
  5
A5C7
330
A5C6
100
AcDbEntity
  8
0
 62
     7
370
     0
100
AcDbVertex
100
AcDb2dVertex
 10
4130.22269737534
 20
-46895.23687644918
 30
0.0
  0
VERTEX
  5
A5C8
330
A5C6
100
AcDbEntity
  8
0
 62
     7
370
     0
100
AcDbVertex
100
AcDb2dVertex
 10
19704.60411872819
 20
-46895.23687644918
 30
0.0
  0
SEQEND
  5
A5C9
330
A5C6
100
AcDbEntity
  8
0
 62
     7
370
     0
  0
POLYLINE
  5
A5CA
330
A543
100
AcDbEntity
  8
0
 62
     7
370
     0
100
AcDb2dPolyline
 66
     1
 10
0.0
 20
0.0
 30
0.0
  0
VERTEX
  5
A5CB
330
A5CA
100
AcDbEntity
  8
0
 62
     7
370
     0
100
AcDbVertex
100
AcDb2dVertex
 10
23748.78050990821
 20
-46895.23687644918
 30
0.0
  0
VERTEX
  5
A5CC
330
A5CA
100
AcDbEntity
  8
0
 62
     7
370
     0
100
AcDbVertex
100
AcDb2dVertex
 10
39323.16193126106
 20
-46895.23687644918
 30
0.0
  0
SEQEND
  5
A5CD
330
A5CA
100
AcDbEntity
  8
0
 62
     7
370
     0
  0
POLYLINE
  5
A5CE
330
A543
100
AcDbEntity
  8
0
 62
     7
370
     0
100
AcDb2dPolyline
 66
     1
 10
0.0
 20
0.0
 30
0.0
  0
VERTEX
  5
A5CF
330
A5CE
100
AcDbEntity
  8
0
 62
     7
370
     0
100
AcDbVertex
100
AcDb2dVertex
 10
43367.33832244107
 20
-46895.23687644918
 30
0.0
  0
VERTEX
  5
A5D0
330
A5CE
100
AcDbEntity
  8
0
 62
     7
370
     0
100
AcDbVertex
100
AcDb2dVertex
 10
58941.71974379392
 20
-46895.23687644918
 30
0.0
  0
SEQEND
  5
A5D1
330
A5CE
100
AcDbEntity
  8
0
 62
     7
370
     0
  0
POLYLINE
  5
A5D2
330
A543
100
AcDbEntity
  8
0
 62
     7
370
     0
100
AcDb2dPolyline
 66
     1
 10
0.0
 20
0.0
 30
0.0
  0
VERTEX
  5
A5D3
330
A5D2
100
AcDbEntity
  8
0
 62
     7
370
     0
100
AcDbVertex
100
AcDb2dVertex
 10
4044.176391180021
 20
-45518.49597732406
 30
0.0
  0
VERTEX
  5
A5D4
330
A5D2
100
AcDbEntity
  8
0
 62
     7
370
     0
100
AcDbVertex
100
AcDb2dVertex
 10
4044.176391180021
 20
-49906.85759328536
 30
0.0
  0
SEQEND
  5
A5D5
330
A5D2
100
AcDbEntity
  8
0
 62
     7
370
     0
  0
POLYLINE
  5
A5D6
330
A543
100
AcDbEntity
  8
0
 62
     7
370
     0
100
AcDb2dPolyline
 66
     1
 10
0.0
 20
0.0
 30
0.0
  0
VERTEX
  5
A5D7
330
A5D6
100
AcDbEntity
  8
0
 62
     7
370
     0
100
AcDbVertex
100
AcDb2dVertex
 10
23662.73420371289
 20
-45518.49597732406
 30
0.0
  0
VERTEX
  5
A5D8
330
A5D6
100
AcDbEntity
  8
0
 62
     7
370
     0
100
AcDbVertex
100
AcDb2dVertex
 10
23662.73420371289
 20
-49906.85759328536
 30
0.0
  0
SEQEND
  5
A5D9
330
A5D6
100
AcDbEntity
  8
0
 62
     7
370
     0
  0
POLYLINE
  5
A5DA
330
A543
100
AcDbEntity
  8
0
 62
     7
370
     0
100
AcDb2dPolyline
 66
     1
 10
0.0
 20
0.0
 30
0.0
  0
VERTEX
  5
A5DB
330
A5DA
100
AcDbEntity
  8
0
 62
     7
370
     0
100
AcDbVertex
100
AcDb2dVertex
 10
43281.29201624575
 20
-45518.49597732406
 30
0.0
  0
VERTEX
  5
A5DC
330
A5DA
100
AcDbEntity
  8
0
 62
     7
370
     0
100
AcDbVertex
100
AcDb2dVertex
 10
43281.29201624575
 20
-49906.85759328536
 30
0.0
  0
SEQEND
  5
A5DD
330
A5DA
100
AcDbEntity
  8
0
 62
     7
370
     0
  0
POLYLINE
  5
A5DE
330
A543
100
AcDbEntity
  8
0
 62
     7
370
     0
100
AcDb2dPolyline
 66
     1
 10
0.0
 20
0.0
 30
0.0
  0
VERTEX
  5
A5DF
330
A5DE
100
AcDbEntity
  8
0
 62
     7
370
     0
100
AcDbVertex
100
AcDb2dVertex
 10
62899.84982877862
 20
-45518.49597732406
 30
0.0
  0
VERTEX
  5
A5E0
330
A5DE
100
AcDbEntity
  8
0
 62
     7
370
     0
100
AcDbVertex
100
AcDb2dVertex
 10
62899.84982877862
 20
-49906.85759328536
 30
0.0
  0
SEQEND
  5
A5E1
330
A5DE
100
AcDbEntity
  8
0
 62
     7
370
     0
  0
POLYLINE
  5
A5E2
330
A543
100
AcDbEntity
  8
0
 62
     7
370
     0
100
AcDb2dPolyline
 66
     1
 10
0.0
 20
0.0
 30
0.0
  0
VERTEX
  5
A5E3
330
A5E2
100
AcDbEntity
  8
0
 62
     7
370
     0
100
AcDbVertex
100
AcDb2dVertex
 10
4130.22269737534
 20
-69611.46171201355
 30
0.0
  0
VERTEX
  5
A5E4
330
A5E2
100
AcDbEntity
  8
0
 62
     7
370
     0
100
AcDbVertex
100
AcDb2dVertex
 10
19704.60411872819
 20
-69611.46171201355
 30
0.0
  0
SEQEND
  5
A5E5
330
A5E2
100
AcDbEntity
  8
0
 62
     7
370
     0
  0
POLYLINE
  5
A5E6
330
A543
100
AcDbEntity
  8
0
 62
     7
370
     0
100
AcDb2dPolyline
 66
     1
 10
0.0
 20
0.0
 30
0.0
  0
VERTEX
  5
A5E7
330
A5E6
100
AcDbEntity
  8
0
 62
     7
370
     0
100
AcDbVertex
100
AcDb2dVertex
 10
23748.78050990821
 20
-69611.46171201355
 30
0.0
  0
VERTEX
  5
A5E8
330
A5E6
100
AcDbEntity
  8
0
 62
     7
370
     0
100
AcDbVertex
100
AcDb2dVertex
 10
39323.16193126106
 20
-69611.46171201355
 30
0.0
  0
SEQEND
  5
A5E9
330
A5E6
100
AcDbEntity
  8
0
 62
     7
370
     0
  0
POLYLINE
  5
A5EA
330
A543
100
AcDbEntity
  8
0
 62
     7
370
     0
100
AcDb2dPolyline
 66
     1
 10
0.0
 20
0.0
 30
0.0
  0
VERTEX
  5
A5EB
330
A5EA
100
AcDbEntity
  8
0
 62
     7
370
     0
100
AcDbVertex
100
AcDb2dVertex
 10
43367.33832244107
 20
-69611.46171201355
 30
0.0
  0
VERTEX
  5
A5EC
330
A5EA
100
AcDbEntity
  8
0
 62
     7
370
     0
100
AcDbVertex
100
AcDb2dVertex
 10
58941.71974379392
 20
-69611.46171201355
 30
0.0
  0
SEQEND
  5
A5ED
330
A5EA
100
AcDbEntity
  8
0
 62
     7
370
     0
  0
POLYLINE
  5
A5EE
330
A543
100
AcDbEntity
  8
0
 62
     7
370
     0
100
AcDb2dPolyline
 66
     1
 10
0.0
 20
0.0
 30
0.0
  0
VERTEX
  5
A5EF
330
A5EE
100
AcDbEntity
  8
0
 62
     7
370
     0
100
AcDbVertex
100
AcDb2dVertex
 10
0.0
 20
0.0
 30
0.0
  0
VERTEX
  5
A5F0
330
A5EE
100
AcDbEntity
  8
0
 62
     7
370
     0
100
AcDbVertex
100
AcDb2dVertex
 10
0.0
 20
-90950.94564845281
 30
0.0
  0
SEQEND
  5
A5F1
330
A5EE
100
AcDbEntity
  8
0
 62
     7
370
     0
  0
POLYLINE
  5
A5F2
330
A543
100
AcDbEntity
  8
0
 62
     7
370
     0
100
AcDb2dPolyline
 66
     1
 10
0.0
 20
0.0
 30
0.0
  0
VERTEX
  5
A5F3
330
A5F2
100
AcDbEntity
  8
0
 62
     7
370
     0
100
AcDbVertex
100
AcDb2dVertex
 10
4044.176391180021
 20
-68234.72081288843
 30
0.0
  0
VERTEX
  5
A5F4
330
A5F2
100
AcDbEntity
  8
0
 62
     7
370
     0
100
AcDbVertex
100
AcDb2dVertex
 10
4044.176391180021
 20
-72623.08242884974
 30
0.0
  0
SEQEND
  5
A5F5
330
A5F2
100
AcDbEntity
  8
0
 62
     7
370
     0
  0
POLYLINE
  5
A5F6
330
A543
100
AcDbEntity
  8
0
 62
     7
370
     0
100
AcDb2dPolyline
 66
     1
 10
0.0
 20
0.0
 30
0.0
  0
VERTEX
  5
A5F7
330
A5F6
100
AcDbEntity
  8
0
 62
     7
370
     0
100
AcDbVertex
100
AcDb2dVertex
 10
19618.55781253287
 20
-86.04630619531958
 30
0.0
  0
VERTEX
  5
A5F8
330
A5F6
100
AcDbEntity
  8
0
 62
     7
370
     0
100
AcDbVertex
100
AcDb2dVertex
 10
19618.55781253287
 20
-90950.94564845281
 30
0.0
  0
SEQEND
  5
A5F9
330
A5F6
100
AcDbEntity
  8
0
 62
     7
370
     0
  0
POLYLINE
  5
A5FA
330
A543
100
AcDbEntity
  8
0
 62
     7
370
     0
100
AcDb2dPolyline
 66
     1
 10
0.0
 20
0.0
 30
0.0
  0
VERTEX
  5
A5FB
330
A5FA
100
AcDbEntity
  8
0
 62
     7
370
     0
100
AcDbVertex
100
AcDb2dVertex
 10
23662.73420371289
 20
-68234.72081288843
 30
0.0
  0
VERTEX
  5
A5FC
330
A5FA
100
AcDbEntity
  8
0
 62
     7
370
     0
100
AcDbVertex
100
AcDb2dVertex
 10
23662.73420371289
 20
-72623.08242884974
 30
0.0
  0
SEQEND
  5
A5FD
330
A5FA
100
AcDbEntity
  8
0
 62
     7
370
     0
  0
POLYLINE
  5
A5FE
330
A543
100
AcDbEntity
  8
0
 62
     7
370
     0
100
AcDb2dPolyline
 66
     1
 10
0.0
 20
0.0
 30
0.0
  0
VERTEX
  5
A5FF
330
A5FE
100
AcDbEntity
  8
0
 62
     7
370
     0
100
AcDbVertex
100
AcDb2dVertex
 10
39237.11562506574
 20
-86.04630619531958
 30
0.0
  0
VERTEX
  5
A600
330
A5FE
100
AcDbEntity
  8
0
 62
     7
370
     0
100
AcDbVertex
100
AcDb2dVertex
 10
39237.11562506574
 20
-90950.94564845281
 30
0.0
  0
SEQEND
  5
A601
330
A5FE
100
AcDbEntity
  8
0
 62
     7
370
     0
  0
POLYLINE
  5
A602
330
A543
100
AcDbEntity
  8
0
 62
     7
370
     0
100
AcDb2dPolyline
 66
     1
 10
0.0
 20
0.0
 30
0.0
  0
VERTEX
  5
A603
330
A602
100
AcDbEntity
  8
0
 62
     7
370
     0
100
AcDbVertex
100
AcDb2dVertex
 10
43281.29201624575
 20
-68234.72081288843
 30
0.0
  0
VERTEX
  5
A604
330
A602
100
AcDbEntity
  8
0
 62
     7
370
     0
100
AcDbVertex
100
AcDb2dVertex
 10
43281.29201624575
 20
-72623.08242884974
 30
0.0
  0
SEQEND
  5
A605
330
A602
100
AcDbEntity
  8
0
 62
     7
370
     0
  0
POLYLINE
  5
A606
330
A543
100
AcDbEntity
  8
0
 62
     7
370
     0
100
AcDb2dPolyline
 66
     1
 10
0.0
 20
0.0
 30
0.0
  0
VERTEX
  5
A607
330
A606
100
AcDbEntity
  8
0
 62
     7
370
     0
100
AcDbVertex
100
AcDb2dVertex
 10
58855.6734375986
 20
-86.04630619531958
 30
0.0
  0
VERTEX
  5
A608
330
A606
100
AcDbEntity
  8
0
 62
     7
370
     0
100
AcDbVertex
100
AcDb2dVertex
 10
58855.6734375986
 20
-90950.94564845281
 30
0.0
  0
SEQEND
  5
A609
330
A606
100
AcDbEntity
  8
0
 62
     7
370
     0
  0
POLYLINE
  5
A60A
330
A543
100
AcDbEntity
  8
0
 62
     7
370
     0
100
AcDb2dPolyline
 66
     1
 10
0.0
 20
0.0
 30
0.0
  0
VERTEX
  5
A60B
330
A60A
100
AcDbEntity
  8
0
 62
     7
370
     0
100
AcDbVertex
100
AcDb2dVertex
 10
62899.84982877862
 20
-68234.72081288843
 30
0.0
  0
VERTEX
  5
A60C
330
A60A
100
AcDbEntity
  8
0
 62
     7
370
     0
100
AcDbVertex
100
AcDb2dVertex
 10
62899.84982877862
 20
-72623.08242884974
 30
0.0
  0
SEQEND
  5
A60D
330
A60A
100
AcDbEntity
  8
0
 62
     7
370
     0
  0
POLYLINE
  5
A60E
330
A543
100
AcDbEntity
  8
0
 62
     7
370
     0
100
AcDb2dPolyline
 66
     1
 10
0.0
 20
0.0
 30
0.0
  0
VERTEX
  5
A60F
330
A60E
100
AcDbEntity
  8
0
 62
     7
370
     0
100
AcDbVertex
100
AcDb2dVertex
 10
78474.23125013147
 20
-86.04630619531958
 30
0.0
  0
VERTEX
  5
A610
330
A60E
100
AcDbEntity
  8
0
 62
     7
370
     0
100
AcDbVertex
100
AcDb2dVertex
 10
78474.23125013147
 20
-90950.94564845281
 30
0.0
  0
SEQEND
  5
A611
330
A60E
100
AcDbEntity
  8
0
 62
     7
370
     0
  0
POLYLINE
  5
A612
330
A543
100
AcDbEntity
  8
0
 62
     7
370
     0
100
AcDb2dPolyline
 66
     1
 10
0.0
 20
0.0
 30
0.0
  0
VERTEX
  5
A613
330
A612
100
AcDbEntity
  8
0
 62
     7
370
     0
100
AcDbVertex
100
AcDb2dVertex
 10
86.04630619531958
 20
0.0
 30
0.0
  0
VERTEX
  5
A614
330
A612
100
AcDbEntity
  8
0
 62
     7
370
     0
100
AcDbVertex
100
AcDb2dVertex
 10
78560.2775563268
 20
0.0
 30
0.0
  0
SEQEND
  5
A615
330
A612
100
AcDbEntity
  8
0
 62
     7
370
     0
  0
POLYLINE
  5
A616
330
A543
100
AcDbEntity
  8
0
 62
     7
370
     0
100
AcDb2dPolyline
 66
     1
 10
0.0
 20
0.0
 30
0.0
  0
VERTEX
  5
A617
330
A616
100
AcDbEntity
  8
0
 62
     7
370
     0
100
AcDbVertex
100
AcDb2dVertex
 10
62985.89613497393
 20
-1462.787205320433
 30
0.0
  0
VERTEX
  5
A618
330
A616
100
AcDbEntity
  8
0
 62
     7
370
     0
100
AcDbVertex
100
AcDb2dVertex
 10
78560.2775563268
 20
-1462.787205320433
 30
0.0
  0
SEQEND
  5
A619
330
A616
100
AcDbEntity
  8
0
 62
     7
370
     0
  0
POLYLINE
  5
A61A
330
A543
100
AcDbEntity
  8
0
 62
     7
370
     0
100
AcDb2dPolyline
 66
     1
 10
0.0
 20
0.0
 30
0.0
  0
VERTEX
  5
A61B
330
A61A
100
AcDbEntity
  8
0
 62
     7
370
     0
100
AcDbVertex
100
AcDb2dVertex
 10
86.04630619531958
 20
-4388.361615961299
 30
0.0
  0
VERTEX
  5
A61C
330
A61A
100
AcDbEntity
  8
0
 62
     7
370
     0
100
AcDbVertex
100
AcDb2dVertex
 10
78560.2775563268
 20
-4388.361615961299
 30
0.0
  0
SEQEND
  5
A61D
330
A61A
100
AcDbEntity
  8
0
 62
     7
370
     0
  0
POLYLINE
  5
A61E
330
A543
100
AcDbEntity
  8
0
 62
     7
370
     0
100
AcDb2dPolyline
 66
     1
 10
0.0
 20
0.0
 30
0.0
  0
VERTEX
  5
A61F
330
A61E
100
AcDbEntity
  8
0
 62
     7
370
     0
100
AcDbVertex
100
AcDb2dVertex
 10
86.04630619531958
 20
-22716.22483556437
 30
0.0
  0
VERTEX
  5
A620
330
A61E
100
AcDbEntity
  8
0
 62
     7
370
     0
100
AcDbVertex
100
AcDb2dVertex
 10
78560.2775563268
 20
-22716.22483556437
 30
0.0
  0
SEQEND
  5
A621
330
A61E
100
AcDbEntity
  8
0
 62
     7
370
     0
  0
POLYLINE
  5
A622
330
A543
100
AcDbEntity
  8
0
 62
     7
370
     0
100
AcDb2dPolyline
 66
     1
 10
0.0
 20
0.0
 30
0.0
  0
VERTEX
  5
A623
330
A622
100
AcDbEntity
  8
0
 62
     7
370
     0
100
AcDbVertex
100
AcDb2dVertex
 10
62985.89613497393
 20
-24179.0120408848
 30
0.0
  0
VERTEX
  5
A624
330
A622
100
AcDbEntity
  8
0
 62
     7
370
     0
100
AcDbVertex
100
AcDb2dVertex
 10
78560.2775563268
 20
-24179.0120408848
 30
0.0
  0
SEQEND
  5
A625
330
A622
100
AcDbEntity
  8
0
 62
     7
370
     0
  0
POLYLINE
  5
A626
330
A543
100
AcDbEntity
  8
0
 62
     7
370
     0
100
AcDb2dPolyline
 66
     1
 10
0.0
 20
0.0
 30
0.0
  0
VERTEX
  5
A627
330
A626
100
AcDbEntity
  8
0
 62
     7
370
     0
100
AcDbVertex
100
AcDb2dVertex
 10
86.04630619531958
 20
-27104.58645152567
 30
0.0
  0
VERTEX
  5
A628
330
A626
100
AcDbEntity
  8
0
 62
     7
370
     0
100
AcDbVertex
100
AcDb2dVertex
 10
78560.2775563268
 20
-27104.58645152567
 30
0.0
  0
SEQEND
  5
A629
330
A626
100
AcDbEntity
  8
0
 62
     7
370
     0
  0
POLYLINE
  5
A62A
330
A543
100
AcDbEntity
  8
0
 62
     7
370
     0
100
AcDb2dPolyline
 66
     1
 10
0.0
 20
0.0
 30
0.0
  0
VERTEX
  5
A62B
330
A62A
100
AcDbEntity
  8
0
 62
     7
370
     0
100
AcDbVertex
100
AcDb2dVertex
 10
86.04630619531958
 20
-45432.44967112874
 30
0.0
  0
VERTEX
  5
A62C
330
A62A
100
AcDbEntity
  8
0
 62
     7
370
     0
100
AcDbVertex
100
AcDb2dVertex
 10
78560.2775563268
 20
-45432.44967112874
 30
0.0
  0
SEQEND
  5
A62D
330
A62A
100
AcDbEntity
  8
0
 62
     7
370
     0
  0
POLYLINE
  5
A62E
330
A543
100
AcDbEntity
  8
0
 62
     7
370
     0
100
AcDb2dPolyline
 66
     1
 10
0.0
 20
0.0
 30
0.0
  0
VERTEX
  5
A62F
330
A62E
100
AcDbEntity
  8
0
 62
     7
370
     0
100
AcDbVertex
100
AcDb2dVertex
 10
62985.89613497393
 20
-46895.23687644918
 30
0.0
  0
VERTEX
  5
A630
330
A62E
100
AcDbEntity
  8
0
 62
     7
370
     0
100
AcDbVertex
100
AcDb2dVertex
 10
78560.2775563268
 20
-46895.23687644918
 30
0.0
  0
SEQEND
  5
A631
330
A62E
100
AcDbEntity
  8
0
 62
     7
370
     0
  0
POLYLINE
  5
A632
330
A543
100
AcDbEntity
  8
0
 62
     7
370
     0
100
AcDb2dPolyline
 66
     1
 10
0.0
 20
0.0
 30
0.0
  0
VERTEX
  5
A633
330
A632
100
AcDbEntity
  8
0
 62
     7
370
     0
100
AcDbVertex
100
AcDb2dVertex
 10
86.04630619531958
 20
-49820.81128709004
 30
0.0
  0
VERTEX
  5
A634
330
A632
100
AcDbEntity
  8
0
 62
     7
370
     0
100
AcDbVertex
100
AcDb2dVertex
 10
78560.2775563268
 20
-49820.81128709004
 30
0.0
  0
SEQEND
  5
A635
330
A632
100
AcDbEntity
  8
0
 62
     7
370
     0
  0
POLYLINE
  5
A636
330
A543
100
AcDbEntity
  8
0
 62
     7
370
     0
100
AcDb2dPolyline
 66
     1
 10
0.0
 20
0.0
 30
0.0
  0
VERTEX
  5
A637
330
A636
100
AcDbEntity
  8
0
 62
     7
370
     0
100
AcDbVertex
100
AcDb2dVertex
 10
86.04630619531958
 20
-68148.67450669312
 30
0.0
  0
VERTEX
  5
A638
330
A636
100
AcDbEntity
  8
0
 62
     7
370
     0
100
AcDbVertex
100
AcDb2dVertex
 10
78560.2775563268
 20
-68148.67450669312
 30
0.0
  0
SEQEND
  5
A639
330
A636
100
AcDbEntity
  8
0
 62
     7
370
     0
  0
POLYLINE
  5
A63A
330
A543
100
AcDbEntity
  8
0
 62
     7
370
     0
100
AcDb2dPolyline
 66
     1
 10
0.0
 20
0.0
 30
0.0
  0
VERTEX
  5
A63B
330
A63A
100
AcDbEntity
  8
0
 62
     7
370
     0
100
AcDbVertex
100
AcDb2dVertex
 10
62985.89613497393
 20
-69611.46171201355
 30
0.0
  0
VERTEX
  5
A63C
330
A63A
100
AcDbEntity
  8
0
 62
     7
370
     0
100
AcDbVertex
100
AcDb2dVertex
 10
78560.2775563268
 20
-69611.46171201355
 30
0.0
  0
SEQEND
  5
A63D
330
A63A
100
AcDbEntity
  8
0
 62
     7
370
     0
  0
POLYLINE
  5
A63E
330
A543
100
AcDbEntity
  8
0
 62
     7
370
     0
100
AcDb2dPolyline
 66
     1
 10
0.0
 20
0.0
 30
0.0
  0
VERTEX
  5
A63F
330
A63E
100
AcDbEntity
  8
0
 62
     7
370
     0
100
AcDbVertex
100
AcDb2dVertex
 10
86.04630619531958
 20
-72537.03612265442
 30
0.0
  0
VERTEX
  5
A640
330
A63E
100
AcDbEntity
  8
0
 62
     7
370
     0
100
AcDbVertex
100
AcDb2dVertex
 10
78560.2775563268
 20
-72537.03612265442
 30
0.0
  0
SEQEND
  5
A641
330
A63E
100
AcDbEntity
  8
0
 62
     7
370
     0
  0
POLYLINE
  5
A642
330
A543
100
AcDbEntity
  8
0
 62
     7
370
     0
100
AcDb2dPolyline
 66
     1
 10
0.0
 20
0.0
 30
0.0
  0
VERTEX
  5
A643
330
A642
100
AcDbEntity
  8
0
 62
     7
370
     0
100
AcDbVertex
100
AcDb2dVertex
 10
86.04630619531958
 20
-90864.89934225749
 30
0.0
  0
VERTEX
  5
A644
330
A642
100
AcDbEntity
  8
0
 62
     7
370
     0
100
AcDbVertex
100
AcDb2dVertex
 10
78560.2775563268
 20
-90864.89934225749
 30
0.0
  0
SEQEND
  5
A645
330
A642
100
AcDbEntity
  8
0
 62
     7
370
     0
  0
ENDBLK
  5
A646
330
A543
100
AcDbEntity
  8
0
 62
     7
370
     0
100
AcDbBlockEnd
  0
BLOCK
  5
1384F
330
1384E
100
AcDbEntity
  8
0
 62
     7
100
AcDbBlockBegin
  2
_Open
 70
     0
 10
0.0
 20
0.0
 30
0.0
  3
_Open
  1

  0
LINE
  5
13850
330
1384E
100
AcDbEntity
  8
0
  6
ByBlock
 62
     0
370
    -2
100
AcDbLine
 10
-1.0
 20
0.1666666666666666
 30
0.0
 11
0.0
 21
0.0
 31
0.0
  0
LINE
  5
13851
330
1384E
100
AcDbEntity
  8
0
  6
ByBlock
 62
     0
370
    -2
100
AcDbLine
 10
-1.0
 20
-0.1666666666666666
 30
0.0
 11
0.0
 21
0.0
 31
0.0
  0
LINE
  5
13852
330
1384E
100
AcDbEntity
  8
0
  6
ByBlock
 62
     0
370
    -2
100
AcDbLine
 10
0.0
 20
0.0
 30
0.0
 11
-1.0
 21
0.0
 31
0.0
  0
ENDBLK
  5
13853
330
1384E
100
AcDbEntity
  8
0
 62
     7
100
AcDbBlockEnd
  0
ENDSEC
  0
SECTION
  2
ENTITIES
  0
TEXT
  5
12D5F
330
1F07
100
AcDbEntity
  8
0
 62
     7
100
AcDbText
 10
29243.73356963709
 20
-77103.37104627107
 30
0.0
 40
299.9999947731441
  1
 
  7
WMF-ＭＳ Ｐゴシック0
100
AcDbText
  0
TEXT
  5
12D60
330
1F07
100
AcDbEntity
  8
0
 62
     7
100
AcDbText
 10
35820.65653197139
 20
-77103.37104627107
 30
0.0
 40
299.9999947731441
  1
 
  7
WMF-ＭＳ Ｐゴシック0
100
AcDbText
  0
TEXT
  5
12D61
330
1F07
100
AcDbEntity
  8
0
 62
     7
100
AcDbText
 10
42397.57949430572
 20
-77103.37104627107
 30
0.0
 40
299.9999947731441
  1
 
  7
WMF-ＭＳ Ｐゴシック0
100
AcDbText
  0
MTEXT
  5
12F7A
330
1F07
100
AcDbEntity
  8
記号
 62
     2
100
AcDbMText
 10
13187.14837535204
 20
-72228.69495944937
 30
0.0
 40
300.0001909587983
 41
2900.001845935049
 71
     5
 72
     5
  1
Re:ray
  7
スタイル1
 73
     1
 44
1.0
1001
ACAD
1000
MTEXTBEGIN
1070
    73
1070
     1
1070
    44
1040
1.0
1070
    74
1070
     0
1000
MTEXTEND
  0
TEXT
  5
1303A
330
1F07
100
AcDbEntity
  8
0
 62
     7
100
AcDbText
 10
9512.964682634171
 20
-71045.67884412105
 30
0.0
 40
299.9999947731441
  1
BGSL-20057GL-110
  7
WMF-ＭＳ Ｐゴシック0
100
AcDbText
  0
TEXT
  5
1303B
330
1F07
100
AcDbEntity
  8
0
 62
     7
100
AcDbText
 10
10991.77664888939
 20
-71536.06345096175
 30
0.0
 40
299.9999947731441
  1
LED50W  (2900K)
  7
WMF-ＭＳ Ｐゴシック0
100
AcDbText
  0
ELLIPSE
  5
13317
330
1F07
100
AcDbEntity
  8
器具
100
AcDbEllipse
 10
9258.10423476989
 20
-73894.74995784197
 30
0.0
 11
-235.1415253780326
 21
-251.1274312025974
 31
0.0
210
0.0
220
0.0
230
1.0
 40
0.5590148077627277
 41
4.526291062376041
 42
7.820322465794456
  0
ELLIPSE
  5
13318
330
1F07
100
AcDbEntity
  8
器具
100
AcDbEllipse
 10
9258.10423476989
 20
-73894.74995784197
 30
0.0
 11
-235.1415253780326
 21
-251.1274312025974
 31
0.0
210
0.0
220
0.0
230
1.0
 40
0.5590148077627277
 41
7.892123217403365
 42
8.416696974492579
  0
ELLIPSE
  5
13319
330
1F07
100
AcDbEntity
  8
器具
100
AcDbEllipse
 10
9258.10423476989
 20
-73894.74995784197
 30
0.0
 11
-235.1415253780326
 21
-251.1274312025974
 31
0.0
210
0.0
220
0.0
230
1.0
 40
0.5590148077627277
 41
9.377792987573325
 42
10.62914121148726
  0
ELLIPSE
  5
1331A
330
1F07
100
AcDbEntity
  8
器具
100
AcDbEllipse
 10
9266.193376075882
 20
-73883.61128060658
 30
0.0
 11
123.6520300098538
 21
150.878976493687
 31
0.0
210
0.0
220
0.0
230
1.0
 40
0.6310970429001822
 41
1.54082924247932
 42
7.608805783198731
  0
SPLINE
  5
1331B
330
1F07
100
AcDbEntity
  8
器具
100
AcDbSpline
210
0.0
220
0.0
230
1.0
 70
     8
 71
     3
 72
    11
 73
     7
 74
     5
 42
0.0000000001
 43
0.0000000001
 44
0.0000000001
 40
0.0
 40
0.0
 40
0.0
 40
0.0
 40
45.76450969819876
 40
73.8091023505706
 40
115.3803341335562
 40
150.0747405685924
 40
150.0747405685924
 40
150.0747405685924
 40
150.0747405685924
 10
9056.103026933044
 20
-73661.17746296419
 30
0.0
 10
9058.471644060093
 20
-73646.09688487044
 30
0.0
 10
9062.291754995674
 20
-73621.77489520272
 30
0.0
 10
9074.9194601643
 20
-73585.05565483519
 30
0.0
 10
9099.248426888614
 20
-73558.24046503443
 30
0.0
 10
9121.958874149026
 20
-73546.65627580445
 30
0.0
 10
9132.290204299591
 20
-73541.38645077239
 30
0.0
 11
9056.103026933044
 21
-73661.17746296419
 31
0.0
 11
9064.845806724985
 21
-73616.25581841029
 31
0.0
 11
9074.837619239017
 21
-73590.05156570731
 31
0.0
 11
9102.314916488603
 21
-73558.85596589239
 31
0.0
 11
9132.290204299591
 21
-73541.38645077239
 31
0.0
  0
SPLINE
  5
1331C
330
1F07
100
AcDbEntity
  8
器具
100
AcDbSpline
210
0.0
220
0.0
230
1.0
 70
     8
 71
     3
 72
    15
 73
    11
 74
     9
 42
0.0000000001
 43
0.0000000001
 44
0.0000000001
 40
0.0
 40
0.0
 40
0.0
 40
0.0
 40
26.25808087316845
 40
53.98100372879173
 40
106.5892986679604
 40
157.1278550414108
 40
185.3758291960916
 40
231.5882211677663
 40
257.2023589966858
 40
272.9876751794603
 40
272.9876751794603
 40
272.9876751794603
 40
272.9876751794603
 10
9334.62070190488
 20
-73448.8752473169
 30
0.0
 10
9343.618577428904
 20
-73447.17805392431
 30
0.0
 10
9362.116286936295
 20
-73443.68898694728
 30
0.0
 10
9392.255588910892
 20
-73468.87578346032
 30
0.0
 10
9403.429652553292
 20
-73511.47751795987
 30
0.0
 10
9413.217090080022
 20
-73556.02761079473
 30
0.0
 10
9445.362837656821
 20
-73584.3207809792
 30
0.0
 10
9471.474281957624
 20
-73603.63040601272
 30
0.0
 10
9494.789345412334
 20
-73623.45767477131
 30
0.0
 10
9498.188653103044
 20
-73637.08997250019
 30
0.0
 10
9499.484784851187
 20
-73642.28787027651
 30
0.0
 11
9334.62070190488
 21
-73448.8752473169
 31
0.0
 11
9360.849116163478
 21
-73447.62741054025
 31
0.0
 11
9383.330582021732
 21
-73463.84912883774
 31
0.0
 11
9403.314057318636
 21
-73512.51424377097
 31
0.0
 11
9420.799691785454
 21
-73559.93152192572
 31
0.0
 11
9440.783167082306
 21
-73579.89671060261
 31
0.0
 11
9477.003318992883
 21
-73608.59663686242
 31
0.0
 11
9494.488878597691
 21
-73627.31398875914
 31
0.0
 11
9499.484784851187
 21
-73642.28787027651
 31
0.0
  0
SPLINE
  5
1331D
330
1F07
100
AcDbEntity
  8
器具
100
AcDbSpline
210
0.0
220
0.0
230
1.0
 70
     8
 71
     3
 72
    16
 73
    12
 74
    10
 42
0.0000000001
 43
0.0000000001
 44
0.0000000001
 40
0.0
 40
0.0
 40
0.0
 40
0.0
 40
28.04460331105894
 40
53.77854967265553
 40
72.50688934190129
 40
95.02074459006568
 40
123.98996279382
 40
147.0108386654616
 40
168.1968387029269
 40
193.0616307112821
 40
242.9902061410148
 40
242.9902061410148
 40
242.9902061410148
 40
242.9902061410148
 10
9503.264523737072
 20
-73952.10002793699
 30
0.0
 10
9505.986484630058
 20
-73961.1481375867
 30
0.0
 10
9511.206138032418
 20
-73978.49886310216
 30
0.0
 10
9527.295771317847
 20
-73997.23144576705
 30
0.0
 10
9545.047329444754
 20
-74011.06418911509
 30
0.0
 10
9567.259979041374
 20
-74019.10526948904
 30
0.0
 10
9594.578811389649
 20
-74017.20154293925
 30
0.0
 10
9610.890809902102
 20
-73998.07702741261
 30
0.0
 10
9629.889327770007
 20
-73983.89716763293
 30
0.0
 10
9636.939907967487
 20
-73950.83289082093
 30
0.0
 10
9636.169570082179
 20
-73926.15070015292
 30
0.0
 10
9635.655328318097
 20
-73909.67401698233
 30
0.0
 11
9503.264523737072
 21
-73952.10002793699
 31
0.0
 11
9513.256261388997
 21
-73978.30432059238
 31
0.0
 11
9529.492863140568
 21
-73998.26950926924
 31
0.0
 11
9544.480507046078
 21
-74009.49988045315
 31
0.0
 11
9565.713015051143
 21
-74016.98682121358
 31
0.0
 11
9594.439345009138
 21
-74013.24335083422
 31
0.0
 11
9611.924904613694
 21
-73998.26950926924
 31
0.0
 11
9626.912548519216
 21
-73983.29562775012
 31
0.0
 11
9634.406370471999
 21
-73959.5869686957
 31
0.0
 11
9635.655328318097
 21
-73909.67401698233
 31
0.0
  0
SPLINE
  5
1331E
330
1F07
100
AcDbEntity
  8
器具
100
AcDbSpline
210
0.0
220
0.0
230
1.0
 70
     8
 71
     3
 72
    17
 73
    13
 74
    11
 42
0.0000000001
 43
0.0000000001
 44
0.0000000001
 40
0.0
 40
0.0
 40
0.0
 40
0.0
 40
29.25321670714512
 40
49.37829508453697
 40
88.15194559695299
 40
114.6344191623193
 40
136.8638838187411
 40
159.7759696511363
 40
187.9293816898944
 40
224.3097193324252
 40
240.5836739758461
 40
255.1455279938453
 40
255.1455279938453
 40
255.1455279938453
 40
255.1455279938453
 10
9625.663590673118
 20
-73681.32236378786
 30
0.0
 10
9625.506361965967
 20
-73671.28306817368
 30
0.0
 10
9625.240966007122
 20
-73654.33712659601
 30
0.0
 10
9608.020663142317
 20
-73629.71965572932
 30
0.0
 10
9594.373833399577
 20
-73604.82442856793
 30
0.0
 10
9573.806154604382
 20
-73583.71588487783
 30
0.0
 10
9552.661937537214
 20
-73571.3709070883
 30
0.0
 10
9541.682542815722
 20
-73548.47621690136
 30
0.0
 10
9534.935844270592
 20
-73520.11811825031
 30
0.0
 10
9537.906453724877
 20
-73492.28523769735
 30
0.0
 10
9525.876294808673
 20
-73471.78615390259
 30
0.0
 10
9516.44435773041
 20
-73467.27101796156
 30
0.0
 10
9511.990234527457
 20
-73465.13879723186
 30
0.0
 11
9625.663590673118
 21
-73681.32236378786
 31
0.0
 11
9621.899573243332
 21
-73652.31231620943
 31
0.0
 11
9611.907835598346
 21
-73634.84280108937
 31
0.0
 11
9590.675327593237
 21
-73602.39936449779
 31
0.0
 11
9571.940810142379
 21
-73583.68201260112
 31
0.0
 11
9554.455250537731
 21
-73569.95596786043
 31
0.0
 11
9543.214480177599
 21
-73549.99077918359
 31
0.0
 11
9536.969690939962
 21
-73522.53868970389
 31
0.0
 11
9533.222742532613
 21
-73486.35182268535
 31
0.0
 11
9524.479962726744
 21
-73472.62573799224
 31
0.0
 11
9511.990234527457
 21
-73465.13879723186
 31
0.0
  0
SPLINE
  5
1331F
330
1F07
100
AcDbEntity
  8
器具
100
AcDbSpline
210
0.0
220
0.0
230
1.0
 70
     8
 71
     3
 72
    14
 73
    10
 74
     8
 42
0.0000000001
 43
0.0000000001
 44
0.0000000001
 40
0.0
 40
0.0
 40
0.0
 40
0.0
 40
69.1423845079807
 40
164.316408599219
 40
219.1308384490045
 40
262.6306922181133
 40
305.5042963263169
 40
370.2100713795405
 40
438.8611113327216
 40
438.8611113327216
 40
438.8611113327216
 40
438.8611113327216
 10
9283.617584542886
 20
-73518.49588552836
 30
0.0
 10
9267.451132286232
 20
-73535.01252812423
 30
0.0
 10
9229.031667966236
 20
-73574.26421741413
 30
0.0
 10
9191.770429601033
 20
-73637.82769919001
 30
0.0
 10
9165.566872368209
 20
-73697.14886764452
 30
0.0
 10
9160.182115375084
 20
-73744.84212788694
 30
0.0
 10
9171.021435484089
 20
-73794.43138564414
 30
0.0
 10
9192.787473204992
 20
-73849.61171498454
 30
0.0
 10
9219.757842790352
 20
-73885.19285519894
 30
0.0
 10
9233.64197701977
 20
-73903.50974645284
 30
0.0
 11
9283.617584542886
 21
-73518.49588552836
 31
0.0
 11
9236.973654239916
 21
-73569.53521449477
 31
0.0
 11
9186.998046709817
 21
-73650.53233489863
 31
0.0
 11
9167.007833643982
 21
-73701.57166386502
 31
0.0
 11
9162.565547440152
 21
-73744.84409586528
 31
0.0
 11
9170.339510871158
 21
-73787.00701110842
 31
0.0
 11
9194.772085002934
 21
-73846.92267388981
 31
0.0
 11
9233.64197701977
 21
-73903.50974645284
 31
0.0
  0
SPLINE
  5
13320
330
1F07
100
AcDbEntity
  8
器具
100
AcDbSpline
210
0.0
220
0.0
230
1.0
 70
     8
 71
     3
 72
    14
 73
    10
 74
     0
 42
0.0000000001
 43
0.0000000001
 40
0.0583971389997292
 40
0.0583971389997292
 40
0.0583971389997292
 40
0.0583971389997292
 40
0.7380917635114225
 40
1.754070078105053
 40
2.33921158689911
 40
2.803570518223645
 40
3.261244263328991
 40
3.951975425680065
 40
4.517276401590613
 40
4.517276401590613
 40
4.517276401590613
 40
4.517276401590613
 10
9317.540637041057
 20
-73523.52648448911
 30
0.0
 10
9302.66395527615
 20
-73538.74493130579
 30
0.0
 10
9265.860819407462
 20
-73576.96056175626
 30
0.0
 10
9229.529787490934
 20
-73638.93721594597
 30
0.0
 10
9203.326230263344
 20
-73698.25838439949
 30
0.0
 10
9197.941473267922
 20
-73745.95164464153
 30
0.0
 10
9208.780793372829
 20
-73795.5409023997
 30
0.0
 10
9228.608331119609
 20
-73845.80682935692
 30
0.0
 10
9251.31416982011
 20
-73877.84150952991
 30
0.0
 10
9261.911882416026
 20
-73892.03671319812
 30
0.0
  0
SPLINE
  5
13321
330
1F07
100
AcDbEntity
  8
器具
100
AcDbSpline
210
0.0
220
0.0
230
1.0
 70
     8
 71
     3
 72
    24
 73
    20
 74
     0
 42
0.0000000001
 43
0.0000000001
 40
0.080840788238911
 40
0.080840788238911
 40
0.080840788238911
 40
0.080840788238911
 40
0.5536249320965215
 40
1.147936180872297
 40
1.742082331814406
 40
2.583150305947202
 40
3.827729986241324
 40
4.965712514339462
 40
6.305443050199941
 40
8.015477217862736
 40
8.979586622270279
 40
9.665754823932225
 40
10.42573486841033
 40
10.99917623980915
 40
11.69355743258184
 40
12.25090026804918
 40
12.57202616212844
 40
12.73728059096758
 40
12.88919152687032
 40
12.88919152687032
 40
12.88919152687032
 40
12.88919152687032
 10
9628.41517933751
 20
-73744.20730353948
 30
0.0
 10
9641.096134427622
 20
-73751.83069110636
 30
0.0
 10
9669.362312828425
 20
-73769.54259161775
 30
0.0
 10
9704.816693741733
 20
-73809.28186980708
 30
0.0
 10
9726.062108644033
 20
-73870.07052727585
 30
0.0
 10
9732.684970144861
 20
-73954.40976556047
 30
0.0
 10
9707.03794132323
 20
-74054.40882118525
 30
0.0
 10
9644.541805430545
 20
-74153.22108012272
 30
0.0
 10
9560.497399885576
 20
-74254.122527667
 30
0.0
 10
9455.287298336074
 20
-74326.81859914857
 30
0.0
 10
9354.197826013772
 20
-74359.76596762678
 30
0.0
 10
9278.852247884708
 20
-74363.25165795961
 30
0.0
 10
9214.609734155965
 20
-74353.4900453859
 30
0.0
 10
9162.176468803696
 20
-74316.24177846702
 30
0.0
 10
9119.015548673576
 20
-74279.28681236847
 30
0.0
 10
9087.553698918958
 20
-74240.66023331455
 30
0.0
 10
9076.595469364695
 20
-74209.04746839279
 30
0.0
 10
9077.047394537883
 20
-74188.98289057032
 30
0.0
 10
9078.29687666979
 20
-74179.15759071319
 30
0.0
 10
9079.019598270608
 20
-74174.46916993991
 30
0.0
  0
SPLINE
  5
13322
330
1F07
100
AcDbEntity
  8
器具
100
AcDbSpline
210
0.0
220
0.0
230
1.0
 70
     8
 71
     3
 72
    22
 73
    18
 74
     0
 42
0.0000000001
 43
0.0000000001
 40
0.1094595740582899
 40
0.1094595740582899
 40
0.1094595740582899
 40
0.1094595740582899
 40
0.5876943771726545
 40
1.010582330722146
 40
1.552526265509018
 40
2.156005856831948
 40
3.005237429189961
 40
3.898301544276962
 40
4.961256810744522
 40
6.14865968846143
 40
7.124798002141877
 40
7.950696392041127
 40
8.721171116981153
 40
9.19356193677855
 40
9.587554556561633
 40
9.835701829902468
 40
10.29098446868827
 40
10.29098446868827
 40
10.29098446868827
 40
10.29098446868827
 10
9079.178057240731
 20
-74214.36000110544
 30
0.0
 10
9091.448749658621
 20
-74222.8883487482
 30
0.0
 10
9114.72113709588
 20
-74238.71884035222
 30
0.0
 10
9154.437882208437
 20
-74260.19457357761
 30
0.0
 10
9202.2456926508
 20
-74274.21056003426
 30
0.0
 10
9264.723424615644
 20
-74271.76242315475
 30
0.0
 10
9338.86196489384
 20
-74273.71347217761
 30
0.0
 10
9421.029027426753
 20
-74237.58962011109
 30
0.0
 10
9500.459664426546
 20
-74179.42804688157
 30
0.0
 10
9569.440611777796
 20
-74105.3810701732
 30
0.0
 10
9623.133070240754
 20
-74028.0142553522
 30
0.0
 10
9651.336872837015
 20
-73952.67969257214
 30
0.0
 10
9670.17701806874
 20
-73889.91852124888
 30
0.0
 10
9668.155456486367
 20
-73838.67695965689
 30
0.0
 10
9666.317579555354
 20
-73803.52023033798
 30
0.0
 10
9652.218333683567
 20
-73771.71246079933
 30
0.0
 10
9637.767941511938
 20
-73755.01466086801
 30
0.0
 10
9628.41517933751
 20
-73744.20730353948
 30
0.0
  0
SPLINE
  5
13323
330
1F07
100
AcDbEntity
  8
器具
100
AcDbSpline
210
0.0
220
0.0
230
1.0
 70
     8
 71
     3
 72
    20
 73
    16
 74
     0
 42
0.0000000001
 43
0.0000000001
 40
1.055128018474129
 40
1.055128018474129
 40
1.055128018474129
 40
1.055128018474129
 40
1.147936180872297
 40
1.742082331814406
 40
2.583150305947202
 40
3.827729986241324
 40
4.965712514339462
 40
6.305443050199941
 40
8.015477217862736
 40
8.979586622270279
 40
9.665754823932225
 40
10.42573486841033
 40
10.99917623980915
 40
11.69355743258184
 40
11.83326566745497
 40
11.83326566745497
 40
11.83326566745497
 40
11.83326566745497
 10
9684.329665389517
 20
-73787.52643940249
 30
0.0
 10
9685.957519986722
 20
-73789.93661176823
 30
0.0
 10
9697.466434977496
 20
-73808.11772722457
 30
0.0
 10
9713.462030748029
 20
-73853.885286793
 30
0.0
 10
9720.084892241819
 20
-73938.22452507414
 30
0.0
 10
9694.437863427134
 20
-74038.22358070062
 30
0.0
 10
9631.941727527504
 20
-74137.03583963816
 30
0.0
 10
9547.897321989578
 20
-74237.93728718415
 30
0.0
 10
9442.687220440122
 20
-74310.63335866054
 30
0.0
 10
9341.597748110732
 20
-74343.58072714049
 30
0.0
 10
9266.252169988808
 20
-74347.06641747508
 30
0.0
 10
9202.009656253025
 20
-74337.30480490307
 30
0.0
 10
9149.576390907602
 20
-74300.05653798244
 30
0.0
 10
9116.291558523924
 20
-74271.5576123676
 30
0.0
 10
9098.592937119269
 20
-74252.27344445768
 30
0.0
 10
9095.723972380183
 20
-74248.96110232284
 30
0.0
  0
LINE
  5
13324
330
1F07
100
AcDbEntity
  8
器具
100
AcDbLine
 10
9354.925824546633
 20
-73969.3057320903
 30
0.0
 11
9539.882531991088
 21
-74135.89398959298
 31
0.0
  0
LINE
  5
13325
330
1F07
100
AcDbEntity
  8
器具
100
AcDbLine
 10
9499.484784856136
 20
-73642.28787027647
 30
0.0
 11
9503.264523740121
 21
-73952.10002793795
 31
0.0
  0
LINE
  5
13326
330
1F07
100
AcDbEntity
  8
器具
100
AcDbLine
 10
9233.64197702128
 20
-73903.50974645281
 30
0.0
 11
9261.911882418377
 21
-73892.03671319885
 31
0.0
  0
LINE
  5
13327
330
1F07
100
AcDbEntity
  8
器具
100
AcDbLine
 10
9337.920492886032
 20
-73987.22057506246
 30
0.0
 11
9522.788527176288
 21
-74153.7289657282
 31
0.0
  0
LINE
  5
13328
330
1F07
100
AcDbEntity
  8
器具
100
AcDbLine
 10
9111.295464687461
 20
-74177.86399399973
 30
0.0
 11
9213.066247736476
 21
-74272.27872387928
 31
0.0
  0
LINE
  5
13329
330
1F07
100
AcDbEntity
  8
器具
100
AcDbLine
 10
9100.729449262543
 20
-74177.65761397424
 30
0.0
 11
9201.537040768796
 21
-74271.17877236879
 31
0.0
  0
LINE
  5
1332A
330
1F07
100
AcDbEntity
  8
器具
100
AcDbLine
 10
9149.749112282107
 20
-73338.266215441
 30
0.0
 11
9149.749112282107
 21
-73441.81605183891
 31
0.0
  0
LINE
  5
1332B
330
1F07
100
AcDbEntity
  8
器具
100
AcDbLine
 10
9149.749112282107
 20
-73441.81605183891
 30
0.0
 11
9056.900479371433
 21
-73491.43366513355
 31
0.0
  0
LINE
  5
1332C
330
1F07
100
AcDbEntity
  8
器具
100
AcDbLine
 10
9056.900479371433
 20
-73387.88382873294
 30
0.0
 11
9056.900479371433
 21
-73491.43366513355
 31
0.0
  0
LINE
  5
1332D
330
1F07
100
AcDbEntity
  8
器具
100
AcDbLine
 10
9056.900479371433
 20
-73387.88382873294
 30
0.0
 11
9149.749112282107
 21
-73338.266215441
 31
0.0
  0
LINE
  5
1332E
330
1F07
100
AcDbEntity
  8
器具
100
AcDbLine
 10
9149.749112282107
 20
-73441.81605183891
 30
0.0
 11
9302.14300981529
 21
-73463.72496308918
 31
0.0
  0
LINE
  5
1332F
330
1F07
100
AcDbEntity
  8
器具
100
AcDbLine
 10
9056.900479371433
 20
-73491.43366513355
 30
0.0
 11
9197.373105942435
 21
-73511.628714662
 31
0.0
  0
LINE
  5
13330
330
1F07
100
AcDbEntity
  8
器具
100
AcDbLine
 10
9347.652443663696
 20
-73533.23362618456
 30
0.0
 11
9411.691892299682
 21
-73542.44025859678
 31
0.0
  0
LINE
  5
13331
330
1F07
100
AcDbEntity
  8
器具
100
AcDbLine
 10
9053.686991804895
 20
-73844.62938371616
 30
0.0
 11
9056.103026934145
 21
-73661.17746296349
 31
0.0
  0
LINE
  5
13332
330
1F07
100
AcDbEntity
  8
器具
100
AcDbLine
 10
9132.290204304387
 20
-73541.38645077235
 30
0.0
 11
9334.620701906176
 21
-73448.87524731786
 31
0.0
  0
LINE
  5
13333
330
1F07
100
AcDbEntity
  8
器具
100
AcDbLine
 10
9511.990234529404
 20
-73465.13879723215
 30
0.0
 11
9364.23257448393
 21
-73448.73636462073
 31
0.0
  0
LINE
  5
13334
330
1F07
100
AcDbEntity
  8
器具
100
AcDbLine
 10
9283.617584548577
 20
-73518.49588552813
 30
0.0
 11
9317.54063704391
 21
-73523.52648448896
 31
0.0
  0
LINE
  5
13335
330
1F07
100
AcDbEntity
  8
器具
100
AcDbLine
 10
9401.839721702044
 20
-73506.48330851097
 30
0.0
 11
9276.609665788406
 21
-73568.30490020473
 31
0.0
  0
LINE
  5
13336
330
1F07
100
AcDbEntity
  8
器具
100
AcDbLine
 10
9120.085457694408
 20
-73760.79054252032
 30
0.0
 11
9172.837321694641
 21
-73803.32316409412
 31
0.0
  0
LINE
  5
13337
330
1F07
100
AcDbEntity
  8
器具
100
AcDbLine
 10
9106.476822604513
 20
-73775.64158519215
 30
0.0
 11
9160.455803128726
 21
-73819.16360275303
 31
0.0
  0
LINE
  5
13338
330
1F07
100
AcDbEntity
  8
器具
100
AcDbLine
 10
9635.65532832399
 20
-73909.67401698329
 30
0.0
 11
9625.663590675912
 21
-73681.32236378795
 31
0.0
  0
CIRCLE
  5
13339
330
1F07
100
AcDbEntity
  8
器具
100
AcDbCircle
 10
9582.057346254641
 20
-73928.28808833418
 30
0.0
 40
22.8154580951995
  0
LINE
  5
1333A
330
1F07
100
AcDbEntity
  8
器具
100
AcDbLine
 10
9149.749112282107
 20
-73338.266215441
 30
0.0
 11
13751.52895055156
 21
-73999.84117151657
 31
0.0
  0
LINE
  5
1333B
330
1F07
100
AcDbEntity
  8
器具
100
AcDbLine
 10
9535.686711044787
 20
-73497.3003772348
 30
0.0
 11
13751.52895055156
 21
-74103.39100791716
 31
0.0
  0
LINE
  5
1333C
330
1F07
100
AcDbEntity
  8
器具
100
AcDbLine
 10
9548.771252433722
 20
-73562.14747511834
 30
0.0
 11
13497.17957679171
 21
-74129.79046447746
 31
0.0
  0
LINE
  5
1333D
330
1F07
100
AcDbEntity
  8
器具
100
AcDbLine
 10
13467.10397372135
 20
-74091.24205913956
 30
0.0
 11
13613.5022264922
 21
-74117.22312997007
 31
0.0
  0
LINE
  5
1333E
330
1F07
100
AcDbEntity
  8
器具
100
AcDbLine
 10
13613.5022264922
 20
-74117.22312997007
 30
0.0
 11
13613.5022264922
 21
-74278.88315732277
 31
0.0
  0
LINE
  5
1333F
330
1F07
100
AcDbEntity
  8
器具
100
AcDbLine
 10
13613.5022264922
 20
-74278.88315732277
 30
0.0
 11
13467.10397372135
 21
-74091.24205913956
 31
0.0
  0
LINE
  5
13340
330
1F07
100
AcDbEntity
  8
器具
100
AcDbLine
 10
13554.30755373249
 20
-74456.49769202296
 30
0.0
 11
13579.28985498357
 21
-74455.72074775185
 31
0.0
  0
LINE
  5
13341
330
1F07
100
AcDbEntity
  8
器具
100
AcDbLine
 10
13751.52895055156
 20
-74450.36414841624
 30
0.0
 11
13777.36170802706
 21
-74449.56075514035
 31
0.0
  0
LINE
  5
13342
330
1F07
100
AcDbEntity
  8
器具
100
AcDbLine
 10
13777.36170802706
 20
-74449.56075514035
 30
0.0
 11
13884.98312486771
 21
-74458.23192624157
 31
0.0
  0
LINE
  5
13343
330
1F07
100
AcDbEntity
  8
器具
100
AcDbLine
 10
13884.98312486771
 20
-74458.23192624157
 30
0.0
 11
13884.98312486771
 21
-74762.59047143794
 31
0.0
  0
LINE
  5
13344
330
1F07
100
AcDbEntity
  8
器具
100
AcDbLine
 10
13777.36170802706
 20
-74752.1850661154
 30
0.0
 11
13884.98312486771
 21
-74760.85623721933
 31
0.0
  0
LINE
  5
13345
330
1F07
100
AcDbEntity
  8
器具
100
AcDbLine
 10
13554.30755373249
 20
-74759.122002998
 30
0.0
 11
13579.28985498357
 21
-74758.3450587269
 31
0.0
  0
LINE
  5
13346
330
1F07
100
AcDbEntity
  8
器具
100
AcDbLine
 10
13751.52895055156
 20
-74752.98845939402
 30
0.0
 11
13777.36170802706
 21
-74752.1850661154
 31
0.0
  0
LINE
  5
13347
330
1F07
100
AcDbEntity
  8
器具
100
AcDbLine
 10
13554.30755373249
 20
-74456.49769202296
 30
0.0
 11
13554.30755373249
 21
-74759.122002998
 31
0.0
  0
LINE
  5
13348
330
1F07
100
AcDbEntity
  8
器具
100
AcDbLine
 10
13884.98312486771
 20
-74760.85623721933
 30
0.0
 11
13751.52895055156
 21
-74766.1251282861
 31
0.0
  0
LINE
  5
13349
330
1F07
100
AcDbEntity
  8
器具
100
AcDbLine
 10
13579.28985498357
 20
-76054.83940302756
 30
0.0
 11
13630.53455880495
 21
-76054.83940302756
 31
0.0
  0
LINE
  5
1334A
330
1F07
100
AcDbEntity
  8
器具
100
AcDbLine
 10
13630.53455880495
 20
-76054.83940302756
 30
0.0
 11
13751.52895055156
 21
-76054.83940302756
 31
0.0
  0
LINE
  5
1334B
330
1F07
100
AcDbEntity
  8
器具
100
AcDbLine
 10
13751.52895055156
 20
-73999.84117151657
 30
0.0
 11
13751.52895055156
 21
-76054.83940302756
 31
0.0
  0
LINE
  5
1334C
330
1F07
100
AcDbEntity
  8
器具
100
AcDbLine
 10
13630.53455880495
 20
-74085.99624714479
 30
0.0
 11
13630.53455880495
 21
-76054.83940302756
 31
0.0
  0
LINE
  5
1334D
330
1F07
100
AcDbEntity
  8
器具
100
AcDbLine
 10
13579.28985498357
 20
-74235.03258643441
 30
0.0
 11
13579.28985498357
 21
-76054.83940302756
 31
0.0
  0
TEXT
  5
133D2
330
1F07
100
AcDbEntity
  8
0
 62
     7
100
AcDbText
 10
9512.964682634171
 20
-77074.52489292751
 30
0.0
 40
299.9999947731441
  1
 
  7
WMF-ＭＳ Ｐゴシック0
100
AcDbText
  0
TEXT
  5
133D3
330
1F07
100
AcDbEntity
  8
0
 62
     7
100
AcDbText
 10
9512.964682634171
 20
-77074.52489292751
 30
0.0
 40
299.9999947731441
  1
 
  7
WMF-ＭＳ Ｐゴシック0
100
AcDbText
  0
MTEXT
  5
133D4
330
1F07
100
AcDbEntity
  8
記号
 62
     2
100
AcDbMText
 10
8355.754313874006
 20
-77273.40793941835
 30
0.0
 40
250.0
 41
6533.332686219465
 71
     4
 72
     5
  1
幅:□40　長さ:1000　高さ:500(mm)
  7
スタイル1
 73
     1
 44
1.0
1001
ACAD
1000
MTEXTBEGIN
1070
    73
1070
     1
1070
    44
1040
1.0
1070
    74
1070
     0
1000
MTEXTEND
  0
TEXT
  5
1377D
330
1F07
100
AcDbEntity
  8
0
 62
     7
100
AcDbText
 10
9512.964682634171
 20
-70555.29423728033
 30
0.0
 40
299.9999947731441
  1
LEDｱｳﾄﾄﾞｱｽﾎﾟｯﾄﾗｲﾄ
  7
WMF-ＭＳ Ｐゴシック0
100
AcDbText
  0
ENDSEC
  0
SECTION
  2
OBJECTS
  0
DICTIONARY
  5
1EF5
330
0
100
AcDbDictionary
281
     1
  3
ACAD_COLOR
350
8C47
  3
ACAD_GROUP
350
1EF6
  3
ACAD_LAYOUT
350
1F02
  3
ACAD_MATERIAL
350
8C46
  3
ACAD_MLINESTYLE
350
1EFF
  3
ACAD_PLOTSETTINGS
350
1F01
  3
ACAD_PLOTSTYLENAME
350
1EF7
  3
ACAD_TABLESTYLE
350
8C48
  3
ACDBHEADERROUNDTRIPXREC
350
15245
  3
AcDbVariableDictionary
350
4454
  0
DICTIONARY
  5
9A3A
330
1EEB
100
AcDbDictionary
280
     1
281
     1
  3
ACAD_LAYERFILTERS
360
A52F
  3
ACAD_LAYERSTATES
360
9A3B
  0
DICTIONARY
  5
980C
330
1F07
100
AcDbDictionary
280
     1
281
     1
  3
ACAD_SORTENTS
360
980D
  0
DICTIONARY
  5
8C47
102
{ACAD_REACTORS
330
1EF5
102
}
330
1EF5
100
AcDbDictionary
281
     1
  0
DICTIONARY
  5
1EF6
102
{ACAD_REACTORS
330
1EF5
102
}
330
1EF5
100
AcDbDictionary
281
     1
  0
DICTIONARY
  5
1F02
102
{ACAD_REACTORS
330
1EF5
102
}
330
1EF5
100
AcDbDictionary
281
     1
  3
Model
350
1F0A
  3
ﾚｲｱｳﾄ1
350
1F06
  0
DICTIONARY
  5
8C46
102
{ACAD_REACTORS
330
1EF5
102
}
330
1EF5
100
AcDbDictionary
281
     1
  0
DICTIONARY
  5
1EFF
102
{ACAD_REACTORS
330
1EF5
102
}
330
1EF5
100
AcDbDictionary
281
     1
  3
Standard
350
1F00
  0
DICTIONARY
  5
1F01
102
{ACAD_REACTORS
330
1EF5
102
}
330
1EF5
100
AcDbDictionary
281
     1
  0
ACDBDICTIONARYWDFLT
  5
1EF7
102
{ACAD_REACTORS
330
1EF5
102
}
330
1EF5
100
AcDbDictionary
281
     1
  3
Normal
350
1EF8
100
AcDbDictionaryWithDefault
340
1EF8
  0
DICTIONARY
  5
8C48
102
{ACAD_REACTORS
330
1EF5
102
}
330
1EF5
100
AcDbDictionary
281
     1
  3
Standard
350
8C49
  0
DICTIONARY
  5
15245
102
{ACAD_REACTORS
330
1EF5
102
}
330
1EF5
100
AcDbDictionary
281
     1
  0
DICTIONARY
  5
4454
102
{ACAD_REACTORS
330
1EF5
102
}
330
1EF5
100
AcDbDictionary
281
     1
  3
CTABLESTYLE
350
8CAE
  3
DIMASSOC
350
8CAF
  3
PROJECTNAME
350
8CB0
  3
SORTENTS
350
4455
  0
DICTIONARY
  5
A52F
102
{ACAD_REACTORS
330
9A3A
102
}
330
9A3A
100
AcDbDictionary
280
     1
281
     1
  0
DICTIONARY
  5
9A3B
102
{ACAD_REACTORS
330
9A3A
102
}
330
9A3A
100
AcDbDictionary
281
     1
  0
SORTENTSTABLE
  5
980D
102
{ACAD_REACTORS
330
980C
102
}
330
980C
100
AcDbSortentsTable
330
1F07
331
13346
  5
133D2
331
13328
  5
13330
331
1303A
  5
131AC
331
13320
  5
13328
331
12F7A
  5
12F8A
331
1333E
  5
13346
331
13336
  5
1333E
331
13318
  5
13320
331
133D4
  5
1365E
331
13347
  5
133D3
331
13329
  5
13331
331
1303B
  5
131AD
331
1377D
  5
13785
331
13321
  5
13329
331
1333F
  5
13347
331
13337
  5
1333F
331
13319
  5
13321
331
13348
  5
133D4
331
1332A
  5
13332
331
13340
  5
13348
331
13322
  5
1332A
331
13338
  5
13340
331
1331A
  5
13322
331
13330
  5
13338
331
13349
  5
13657
331
1332B
  5
13333
331
13341
  5
13349
331
13323
  5
1332B
331
13339
  5
13341
331
1331B
  5
13323
331
13331
  5
13339
331
1334A
  5
13658
331
1332C
  5
13334
331
13342
  5
1334A
331
13324
  5
1332C
331
1333A
  5
13342
331
1331C
  5
13324
331
13332
  5
1333A
331
1334B
  5
13659
331
1332D
  5
13335
331
13343
  5
1334B
331
13325
  5
1332D
331
1331D
  5
13325
331
1333B
  5
13343
331
12D5F
  5
12D67
331
13333
  5
1333B
331
1332E
  5
13336
331
1334C
  5
1365A
331
13344
  5
1334C
331
13326
  5
1332E
331
1331E
  5
13326
331
1333C
  5
13344
331
133D2
  5
1365C
331
12D60
  5
12D68
331
13334
  5
1333C
331
1332F
  5
13337
331
1334D
  5
1365B
331
13345
  5
1334D
331
13327
  5
1332F
331
1331F
  5
13327
331
1333D
  5
13345
331
133D3
  5
1365D
331
13335
  5
1333D
331
13317
  5
1331F
331
12D61
  5
12D6C
  0
LAYOUT
  5
1F0A
102
{ACAD_XDICTIONARY
360
15248
102
}
102
{ACAD_REACTORS
330
1F02
102
}
330
1F02
100
AcDbPlotSettings
  1

  2
HP DesignJet 430 (D / A1)
  4
User270
  6

 40
4.995333194732666
 41
16.93330574035644
 42
4.995330810546875
 43
16.933349609375
 44
419.9466552734374
 45
593.8519897460937
 46
0.0
 47
0.0
 48
59336.11708285688
 49
-20537.1530523113
140
115469.3951683314
141
19749.53857783539
142
1.0
143
100.0
 70
 11936
 72
     1
 73
     1
 74
     4
  7

 75
     0
147
0.01
148
-59336.11708285688
149
20537.1530523113
100
AcDbLayout
  1
Model
 70
     1
 71
     0
 10
0.0
 20
0.0
 11
12.0
 21
9.0
 12
0.0
 22
0.0
 32
0.0
 14
0.0
 24
0.0
 34
0.0
 15
0.0
 25
0.0
 35
0.0
146
0.0
 13
0.0
 23
0.0
 33
0.0
 16
1.0
 26
0.0
 36
0.0
 17
0.0
 27
1.0
 37
0.0
 76
     0
330
1F07
  0
LAYOUT
  5
1F06
102
{ACAD_XDICTIONARY
360
15246
102
}
102
{ACAD_REACTORS
330
1F02
102
}
330
1F02
100
AcDbPlotSettings
  1

  2
HP DesignJet 430 (D / A1)
  4

  6

 40
0.0
 41
0.0
 42
0.0
 43
0.0
 44
0.0
 45
0.0
 46
0.0
 47
0.0
 48
0.0
 49
0.0
140
0.0
141
0.0
142
1.0
143
1.0
 70
   688
 72
     0
 73
     0
 74
     5
  7

 75
    16
147
1.0
148
0.0
149
0.0
100
AcDbLayout
  1
ﾚｲｱｳﾄ1
 70
     0
 71
     1
 10
0.0
 20
0.0
 11
12.0
 21
9.0
 12
0.0
 22
0.0
 32
0.0
 14
1.000000000000000E+20
 24
1.000000000000000E+20
 34
1.000000000000000E+20
 15
-1.000000000000000E+20
 25
-1.000000000000000E+20
 35
-1.000000000000000E+20
146
0.0
 13
0.0
 23
0.0
 33
0.0
 16
1.0
 26
0.0
 36
0.0
 17
0.0
 27
1.0
 37
0.0
 76
     0
330
1F03
  0
MLINESTYLE
  5
1F00
102
{ACAD_REACTORS
330
1EFF
102
}
330
1EFF
100
AcDbMlineStyle
  2
STANDARD
 70
     0
  3

 62
   256
 51
90.0
 52
90.0
 71
     2
 49
0.5
 62
   256
  6
BYLAYER
 49
-0.5
 62
   256
  6
BYLAYER
  0
ACDBPLACEHOLDER
  5
1EF8
102
{ACAD_REACTORS
330
1EF7
102
}
330
1EF7
  0
TABLESTYLE
  5
8C49
102
{ACAD_REACTORS
330
8C48
102
}
330
8C48
100
AcDbTableStyle
  3
Standard
 70
     0
 71
     0
 40
0.06
 41
0.06
280
     0
281
     0
  7
STANDARD
140
0.18
170
     2
 62
     0
 63
     7
283
     0
274
    -2
284
     1
 64
     0
275
    -2
285
     1
 65
     0
276
    -2
286
     1
 66
     0
277
    -2
287
     1
 67
     0
278
    -2
288
     1
 68
     0
279
    -2
289
     1
 69
     0
  7
STANDARD
140
0.25
170
     5
 62
     0
 63
     7
283
     0
274
    -2
284
     1
 64
     0
275
    -2
285
     1
 65
     0
276
    -2
286
     1
 66
     0
277
    -2
287
     1
 67
     0
278
    -2
288
     1
 68
     0
279
    -2
289
     1
 69
     0
  7
STANDARD
140
0.18
170
     5
 62
     0
 63
     7
283
     0
274
    -2
284
     1
 64
     0
275
    -2
285
     1
 65
     0
276
    -2
286
     1
 66
     0
277
    -2
287
     1
 67
     0
278
    -2
288
     1
 68
     0
279
    -2
289
     1
 69
     0
  0
DICTIONARYVAR
  5
8CAE
102
{ACAD_REACTORS
330
4454
102
}
330
4454
100
DictionaryVariables
280
     0
  1
STANDARD
  0
DICTIONARYVAR
  5
8CAF
102
{ACAD_REACTORS
330
4454
102
}
330
4454
100
DictionaryVariables
280
     0
  1
1
  0
DICTIONARYVAR
  5
8CB0
102
{ACAD_REACTORS
330
4454
102
}
330
4454
100
DictionaryVariables
280
     0
  1

  0
DICTIONARYVAR
  5
4455
102
{ACAD_REACTORS
330
4454
102
}
330
4454
100
DictionaryVariables
280
     0
  1
96
  0
DICTIONARY
  5
15248
330
1F0A
100
AcDbDictionary
280
     1
281
     1
  3
ACAD_XREC_ROUNDTRIP
360
15249
  0
DICTIONARY
  5
15246
330
1F06
100
AcDbDictionary
280
     1
281
     1
  3
ACAD_XREC_ROUNDTRIP
360
15247
  0
XRECORD
  5
15249
102
{ACAD_REACTORS
330
15248
102
}
330
15248
100
AcDbXrecord
280
     1
102
SHADEPLOT
 70
     0
102
SHADEPLOTRESLEVEL
 70
     2
102
SHADEPLOTCUSTOMDPI
 70
   300
  0
XRECORD
  5
15247
102
{ACAD_REACTORS
330
15246
102
}
330
15246
100
AcDbXrecord
280
     1
102
SHADEPLOT
 70
     0
102
SHADEPLOTRESLEVEL
 70
     2
102
SHADEPLOTCUSTOMDPI
 70
   300
  0
ENDSEC
  0
EOF
