  0
SECTION
  2
HEADER
  9
$ACADVER
  1
AC1015
  9
$ACADMAINTVER
 70
    20
  9
$DWGCODEPAGE
  3
ANSI_932
  9
$INSBASE
 10
0.0
 20
0.0
 30
0.0
  9
$EXTMIN
 10
1756.54921261192
 20
-85085.22207818995
 30
-0.0015258207003583
  9
$EXTMAX
 10
7607.180864139445
 20
-77794.17830225921
 30
0.0000000349246037
  9
$LIMMIN
 10
0.0
 20
0.0
  9
$LIMMAX
 10
59400.0
 20
42000.0
  9
$ORTHOMODE
 70
     0
  9
$REGENMODE
 70
     1
  9
$FILLMODE
 70
     1
  9
$QTEXTMODE
 70
     0
  9
$MIRRTEXT
 70
     1
  9
$LTSCALE
 40
100.0
  9
$ATTMODE
 70
     1
  9
$TEXTSIZE
 40
300.0
  9
$TRACEWID
 40
0.05
  9
$TEXTSTYLE
  7
スタイル1
  9
$CLAYER
  8
下書き
  9
$CELTYPE
  6
ByLayer
  9
$CECOLOR
 62
   256
  9
$CELTSCALE
 40
1.0
  9
$DISPSILH
 70
     0
  9
$DIMSCALE
 40
100.0
  9
$DIMASZ
 40
2.0
  9
$DIMEXO
 40
2.0
  9
$DIMDLI
 40
0.38
  9
$DIMRND
 40
0.0
  9
$DIMDLE
 40
0.0
  9
$DIMEXE
 40
0.18
  9
$DIMTP
 40
0.0
  9
$DIMTM
 40
0.0
  9
$DIMTXT
 40
2.0
  9
$DIMCEN
 40
0.09
  9
$DIMTSZ
 40
0.0
  9
$DIMTOL
 70
     0
  9
$DIMLIM
 70
     0
  9
$DIMTIH
 70
     0
  9
$DIMTOH
 70
     1
  9
$DIMSE1
 70
     0
  9
$DIMSE2
 70
     0
  9
$DIMTAD
 70
     1
  9
$DIMZIN
 70
     0
  9
$DIMBLK
  1
Open30
  9
$DIMASO
 70
     1
  9
$DIMSHO
 70
     1
  9
$DIMPOST
  1

  9
$DIMAPOST
  1

  9
$DIMALT
 70
     0
  9
$DIMALTD
 70
     2
  9
$DIMALTF
 40
25.4
  9
$DIMLFAC
 40
1.0
  9
$DIMTOFL
 70
     0
  9
$DIMTVP
 40
0.0
  9
$DIMTIX
 70
     0
  9
$DIMSOXD
 70
     0
  9
$DIMSAH
 70
     0
  9
$DIMBLK1
  1

  9
$DIMBLK2
  1

  9
$DIMSTYLE
  2
STANDARD
  9
$DIMCLRD
 70
     0
  9
$DIMCLRE
 70
     0
  9
$DIMCLRT
 70
     0
  9
$DIMTFAC
 40
1.0
  9
$DIMGAP
 40
1.0
  9
$DIMJUST
 70
     0
  9
$DIMSD1
 70
     0
  9
$DIMSD2
 70
     0
  9
$DIMTOLJ
 70
     1
  9
$DIMTZIN
 70
     0
  9
$DIMALTZ
 70
     0
  9
$DIMALTTZ
 70
     0
  9
$DIMUPT
 70
     0
  9
$DIMDEC
 70
     1
  9
$DIMTDEC
 70
     1
  9
$DIMALTU
 70
     2
  9
$DIMALTTD
 70
     2
  9
$DIMTXSTY
  7
STANDARD
  9
$DIMAUNIT
 70
     0
  9
$DIMADEC
 70
     0
  9
$DIMALTRND
 40
0.0
  9
$DIMAZIN
 70
     0
  9
$DIMDSEP
 70
    46
  9
$DIMATFIT
 70
     3
  9
$DIMFRAC
 70
     0
  9
$DIMLDRBLK
  1
Open30
  9
$DIMLUNIT
 70
     2
  9
$DIMLWD
 70
    -2
  9
$DIMLWE
 70
    -2
  9
$DIMTMOVE
 70
     0
  9
$LUNITS
 70
     2
  9
$LUPREC
 70
     4
  9
$SKETCHINC
 40
0.1
  9
$FILLETRAD
 40
0.0
  9
$AUNITS
 70
     0
  9
$AUPREC
 70
     0
  9
$MENU
  1
acad
  9
$ELEVATION
 40
0.0
  9
$PELEVATION
 40
0.0
  9
$THICKNESS
 40
0.0
  9
$LIMCHECK
 70
     0
  9
$CHAMFERA
 40
0.0
  9
$CHAMFERB
 40
0.0
  9
$CHAMFERC
 40
0.0
  9
$CHAMFERD
 40
0.0
  9
$SKPOLY
 70
     0
  9
$TDCREATE
 40
2426945.499536991
  9
$TDUCREATE
 40
2426945.124536991
  9
$TDUPDATE
 40
2456245.608072002
  9
$TDUUPDATE
 40
2456245.233072003
  9
$TDINDWG
 40
1.7103680903
  9
$TDUSRTIMER
 40
1.7103662384
  9
$USRTIMER
 70
     1
  9
$ANGBASE
 50
0.0
  9
$ANGDIR
 70
     0
  9
$PDMODE
 70
     0
  9
$PDSIZE
 40
0.0
  9
$PLINEWID
 40
0.0
  9
$SPLFRAME
 70
     0
  9
$SPLINETYPE
 70
     6
  9
$SPLINESEGS
 70
     8
  9
$HANDSEED
  5
1524E
  9
$SURFTAB1
 70
     6
  9
$SURFTAB2
 70
     6
  9
$SURFTYPE
 70
     6
  9
$SURFU
 70
     6
  9
$SURFV
 70
     6
  9
$UCSBASE
  2

  9
$UCSNAME
  2

  9
$UCSORG
 10
0.0
 20
0.0
 30
0.0
  9
$UCSXDIR
 10
1.0
 20
0.0
 30
0.0
  9
$UCSYDIR
 10
0.0
 20
1.0
 30
0.0
  9
$UCSORTHOREF
  2

  9
$UCSORTHOVIEW
 70
     0
  9
$UCSORGTOP
 10
0.0
 20
0.0
 30
0.0
  9
$UCSORGBOTTOM
 10
0.0
 20
0.0
 30
0.0
  9
$UCSORGLEFT
 10
0.0
 20
0.0
 30
0.0
  9
$UCSORGRIGHT
 10
0.0
 20
0.0
 30
0.0
  9
$UCSORGFRONT
 10
0.0
 20
0.0
 30
0.0
  9
$UCSORGBACK
 10
0.0
 20
0.0
 30
0.0
  9
$PUCSBASE
  2

  9
$PUCSNAME
  2

  9
$PUCSORG
 10
0.0
 20
0.0
 30
0.0
  9
$PUCSXDIR
 10
1.0
 20
0.0
 30
0.0
  9
$PUCSYDIR
 10
0.0
 20
1.0
 30
0.0
  9
$PUCSORTHOREF
  2

  9
$PUCSORTHOVIEW
 70
     0
  9
$PUCSORGTOP
 10
0.0
 20
0.0
 30
0.0
  9
$PUCSORGBOTTOM
 10
0.0
 20
0.0
 30
0.0
  9
$PUCSORGLEFT
 10
0.0
 20
0.0
 30
0.0
  9
$PUCSORGRIGHT
 10
0.0
 20
0.0
 30
0.0
  9
$PUCSORGFRONT
 10
0.0
 20
0.0
 30
0.0
  9
$PUCSORGBACK
 10
0.0
 20
0.0
 30
0.0
  9
$USERI1
 70
     0
  9
$USERI2
 70
     0
  9
$USERI3
 70
     0
  9
$USERI4
 70
     0
  9
$USERI5
 70
     0
  9
$USERR1
 40
0.0
  9
$USERR2
 40
0.0
  9
$USERR3
 40
0.0
  9
$USERR4
 40
0.0
  9
$USERR5
 40
0.0
  9
$WORLDVIEW
 70
     1
  9
$SHADEDGE
 70
     3
  9
$SHADEDIF
 70
    70
  9
$TILEMODE
 70
     1
  9
$MAXACTVP
 70
    16
  9
$PINSBASE
 10
0.0
 20
0.0
 30
0.0
  9
$PLIMCHECK
 70
     0
  9
$PEXTMIN
 10
1.000000000000000E+20
 20
1.000000000000000E+20
 30
1.000000000000000E+20
  9
$PEXTMAX
 10
-1.000000000000000E+20
 20
-1.000000000000000E+20
 30
-1.000000000000000E+20
  9
$PLIMMIN
 10
0.0
 20
0.0
  9
$PLIMMAX
 10
12.0
 20
9.0
  9
$UNITMODE
 70
     0
  9
$VISRETAIN
 70
     0
  9
$PLINEGEN
 70
     1
  9
$PSLTSCALE
 70
     0
  9
$TREEDEPTH
 70
  3020
  9
$CMLSTYLE
  2
Standard
  9
$CMLJUST
 70
     0
  9
$CMLSCALE
 40
1.0
  9
$PROXYGRAPHICS
 70
     1
  9
$MEASUREMENT
 70
     0
  9
$CELWEIGHT
370
    -1
  9
$ENDCAPS
280
     0
  9
$JOINSTYLE
280
     0
  9
$LWDISPLAY
290
     0
  9
$INSUNITS
 70
     0
  9
$HYPERLINKBASE
  1

  9
$STYLESHEET
  1

  9
$XEDIT
290
     1
  9
$CEPSNTYPE
380
     0
  9
$PSTYLEMODE
290
     1
  9
$FINGERPRINTGUID
  2
{8637CE02-3222-11D7-99D2-0040267E6A47}
  9
$VERSIONGUID
  2
{B3637E01-EE4B-4207-A680-1A24912453B2}
  9
$EXTNAMES
290
     1
  9
$PSVPSCALE
 40
0.0
  9
$OLESTARTUP
290
     0
  0
ENDSEC
  0
SECTION
  2
CLASSES
  0
CLASS
  1
ACDBDICTIONARYWDFLT
  2
AcDbDictionaryWithDefault
  3
ObjectDBX Classes
 90
        0
280
     0
281
     0
  0
CLASS
  1
ACDBPLACEHOLDER
  2
AcDbPlaceHolder
  3
ObjectDBX Classes
 90
        0
280
     0
281
     0
  0
CLASS
  1
LAYOUT
  2
AcDbLayout
  3
ObjectDBX Classes
 90
        0
280
     0
281
     0
  0
CLASS
  1
DICTIONARYVAR
  2
AcDbDictionaryVar
  3
ObjectDBX Classes
 90
        0
280
     0
281
     0
  0
CLASS
  1
TABLESTYLE
  2
AcDbTableStyle
  3
ObjectDBX Classes
 90
     2047
280
     0
281
     0
  0
CLASS
  1
SORTENTSTABLE
  2
AcDbSortentsTable
  3
ObjectDBX Classes
 90
        0
280
     0
281
     0
  0
ENDSEC
  0
SECTION
  2
TABLES
  0
TABLE
  2
VPORT
  5
1EF1
330
0
100
AcDbSymbolTable
 70
     8
  0
VPORT
  5
15248
330
1EF1
100
AcDbSymbolTableRecord
100
AcDbViewportTableRecord
  2
*Active
 70
     0
 10
0.0
 20
0.0
 11
1.0
 21
1.0
 12
4681.865038375683
 22
-81439.70019022459
 13
0.0
 23
0.0
 14
1000.0
 24
1000.0
 15
1000.0
 25
1000.0
 16
0.0
 26
0.0
 36
1.0
 17
0.0
 27
0.0
 37
0.0
 40
7350.888184488315
 41
1.652054794520547
 42
50.0
 43
0.0
 44
0.0
 50
0.0
 51
0.0
 71
     0
 72
   100
 73
     1
 74
     1
 75
     0
 76
     0
 77
     0
 78
     0
281
     0
 65
     1
110
0.0
120
0.0
130
0.0
111
1.0
121
0.0
131
0.0
112
0.0
122
1.0
132
0.0
 79
     0
146
0.0
  0
ENDTAB
  0
TABLE
  2
LTYPE
  5
1EEE
330
0
100
AcDbSymbolTable
 70
     8
  0
LTYPE
  5
1EFC
330
1EEE
100
AcDbSymbolTableRecord
100
AcDbLinetypeTableRecord
  2
ByBlock
 70
     0
  3

 72
    65
 73
     0
 40
0.0
  0
LTYPE
  5
1EFD
330
1EEE
100
AcDbSymbolTableRecord
100
AcDbLinetypeTableRecord
  2
ByLayer
 70
     0
  3

 72
    65
 73
     0
 40
0.0
  0
LTYPE
  5
1EFE
330
1EEE
100
AcDbSymbolTableRecord
100
AcDbLinetypeTableRecord
  2
CONTINUOUS
 70
     0
  3
Solid line
 72
    65
 73
     0
 40
0.0
  0
LTYPE
  5
1F0C
330
1EEE
100
AcDbSymbolTableRecord
100
AcDbLinetypeTableRecord
  2
HIDDEN
 70
     0
  3
__ __ __ __ __ __ __ __ __ __ __ __ __ __ __ __
 72
    65
 73
     5
 40
8.0
 49
1.0
 74
     0
 49
-2.0
 74
     0
 49
2.0
 74
     0
 49
-2.0
 74
     0
 49
1.0
 74
     0
  0
LTYPE
  5
1F0D
330
1EEE
100
AcDbSymbolTableRecord
100
AcDbLinetypeTableRecord
  2
DOT
 70
     0
  3
. . . . . . . . . . . . . . . . . . . . . . . .
 72
    65
 73
     3
 40
1.6
 49
0.4
 74
     0
 49
-0.8
 74
     0
 49
0.4
 74
     0
  0
LTYPE
  5
1F0E
330
1EEE
100
AcDbSymbolTableRecord
100
AcDbLinetypeTableRecord
  2
CENTER
 70
     0
  3
____ _ ____ _ ____ _ ____ _ ____ _ ____ _ ____ 
 72
    65
 73
     5
 40
12.0
 49
5.0
 74
     0
 49
-0.8
 74
     0
 49
0.4
 74
     0
 49
-0.8
 74
     0
 49
5.0
 74
     0
  0
LTYPE
  5
1F0F
330
1EEE
100
AcDbSymbolTableRecord
100
AcDbLinetypeTableRecord
  2
DIVIDE
 70
     0
  3
____ . . ____ . . ____ . . ____ . . ____ . . __
 72
    65
 73
     7
 40
13.2
 49
5.0
 74
     0
 49
-0.8
 74
     0
 49
0.4
 74
     0
 49
-0.8
 74
     0
 49
0.4
 74
     0
 49
-0.8
 74
     0
 49
5.0
 74
     0
  0
LTYPE
  5
BC93
330
1EEE
100
AcDbSymbolTableRecord
100
AcDbLinetypeTableRecord
  2
DASH_CENTER
 70
     0
  3
Dash_Center
 72
    65
 73
     4
 40
36.0
 49
24.0
 74
     0
 49
-3.0
 74
     0
 49
6.0
 74
     0
 49
-3.0
 74
     0
  0
LTYPE
  5
CA49
330
1EEE
100
AcDbSymbolTableRecord
100
AcDbLinetypeTableRecord
  2
STYLE_01
 70
     0
  3

 72
    65
 73
     2
 40
0.125
 49
0.0625
 74
     0
 49
-0.0625
 74
     0
  0
LTYPE
  5
CA4A
330
1EEE
100
AcDbSymbolTableRecord
100
AcDbLinetypeTableRecord
  2
STYLE_07
 70
     0
  3

 72
    65
 73
     2
 40
0.125
 49
0.03125
 74
     0
 49
-0.09375
 74
     0
  0
ENDTAB
  0
TABLE
  2
LAYER
  5
1EEB
102
{ACAD_XDICTIONARY
360
9A3A
102
}
330
0
100
AcDbSymbolTable
 70
    13
  0
LAYER
  5
1EF9
330
1EEB
100
AcDbSymbolTableRecord
100
AcDbLayerTableRecord
  2
0
 70
     0
 62
     7
  6
CONTINUOUS
370
    -3
390
1EF8
  0
LAYER
  5
4075
330
1EEB
100
AcDbSymbolTableRecord
100
AcDbLayerTableRecord
  2
記号
 70
     0
 62
     4
  6
CONTINUOUS
370
    -3
390
1EF8
  0
LAYER
  5
42A3
330
1EEB
100
AcDbSymbolTableRecord
100
AcDbLayerTableRecord
  2
Defpoints
 70
     4
 62
     7
  6
CONTINUOUS
290
     0
370
    -3
390
1EF8
  0
LAYER
  5
58FC
330
1EEB
100
AcDbSymbolTableRecord
100
AcDbLayerTableRecord
  2
リスト
 70
     0
 62
     8
  6
CONTINUOUS
370
    13
390
1EF8
  0
LAYER
  5
8CB6
330
1EEB
100
AcDbSymbolTableRecord
100
AcDbLayerTableRecord
  2
器具
 70
     0
 62
     4
  6
CONTINUOUS
370
    -3
390
1EF8
  0
LAYER
  5
8CB7
330
1EEB
100
AcDbSymbolTableRecord
100
AcDbLayerTableRecord
  2
レイヤー_1
 70
     0
 62
   160
  6
CONTINUOUS
370
    -3
390
1EF8
  0
LAYER
  5
9466
330
1EEB
100
AcDbSymbolTableRecord
100
AcDbLayerTableRecord
  2
画層1
 70
     4
 62
   160
  6
CONTINUOUS
370
    -3
390
1EF8
1001
AcAecLayerStandard
1000

1000

  0
LAYER
  5
9F35
330
1EEB
100
AcDbSymbolTableRecord
100
AcDbLayerTableRecord
  2
下書き
 70
     0
 62
     6
  6
CONTINUOUS
370
    -3
390
1EF8
1001
AcAecLayerStandard
1000

1000

  0
LAYER
  5
A81A
330
1EEB
100
AcDbSymbolTableRecord
100
AcDbLayerTableRecord
  2
007
 70
     0
 62
     1
  6
CONTINUOUS
370
    -3
390
1EF8
  0
LAYER
  5
BC94
330
1EEB
100
AcDbSymbolTableRecord
100
AcDbLayerTableRecord
  2
図面
 70
     0
 62
     5
  6
CONTINUOUS
370
    -3
390
1EF8
  0
LAYER
  5
CA4B
330
1EEB
100
AcDbSymbolTableRecord
100
AcDbLayerTableRecord
  2
1
 70
     0
 62
     8
  6
CONTINUOUS
370
    -3
390
1EF8
1001
AcAecLayerStandard
1000

1000

  0
LAYER
  5
1246F
330
1EEB
100
AcDbSymbolTableRecord
100
AcDbLayerTableRecord
  2
寸法・文字
 70
     0
 62
     4
  6
CONTINUOUS
370
    13
390
1EF8
1001
AcAecLayerStandard
1000

1000

  0
LAYER
  5
13854
330
1EEB
100
AcDbSymbolTableRecord
100
AcDbLayerTableRecord
  2
製品
 70
     0
 62
     1
  6
CONTINUOUS
370
    -3
390
1EF8
1001
AcAecLayerStandard
1000

1000

  0
ENDTAB
  0
TABLE
  2
STYLE
  5
1EEC
330
0
100
AcDbSymbolTable
 70
    12
  0
STYLE
  5
1EFA
330
1EEC
100
AcDbSymbolTableRecord
100
AcDbTextStyleTableRecord
  2
STANDARD
 70
     0
 40
280.0
 41
1.0
 50
0.0
 71
     0
 42
280.0
  3
MS Gothic.ttf
  4

1001
ACAD
1000
MS Gothic
1071
    32817
  0
STYLE
  5
1F2D
330
1EEC
100
AcDbSymbolTableRecord
100
AcDbTextStyleTableRecord
  2
ＤＨＰ平成ゴシックW5
 70
     0
 40
1000.0
 41
1.0
 50
0.0
 71
     0
 42
1000.0
  3
txt
  4
extfont
  0
STYLE
  5
1F2E
330
1EEC
100
AcDbSymbolTableRecord
100
AcDbTextStyleTableRecord
  2
TATEDRACAD
 70
     4
 40
1000.0
 41
1.0
 50
0.0
 71
     0
 42
1000.0
  3
txt
  4
extfont
  0
STYLE
  5
1F2F
330
1EEC
100
AcDbSymbolTableRecord
100
AcDbTextStyleTableRecord
  2
ＤＨＰ平成ゴシックW51
 70
     0
 40
1000.0
 41
1.0
 50
0.0
 71
     0
 42
1000.0
  3
txt
  4
extfont
  0
STYLE
  5
1F30
330
1EEC
100
AcDbSymbolTableRecord
100
AcDbTextStyleTableRecord
  2
ＪＳＰゴシック
 70
     0
 40
1000.0
 41
1.0
 50
0.0
 71
     0
 42
1000.0
  3
txt
  4
extfont
  0
STYLE
  5
1F31
330
1EEC
100
AcDbSymbolTableRecord
100
AcDbTextStyleTableRecord
  2
ＭＳ_ゴシック
 70
     0
 40
1000.0
 41
1.0
 50
0.0
 71
     0
 42
1000.0
  3
txt
  4
extfont
  0
STYLE
  5
A258
330
1EEC
100
AcDbSymbolTableRecord
100
AcDbTextStyleTableRecord
  2
スタイル1
 70
     0
 40
300.0
 41
1.0
 50
0.0
 71
     0
 42
300.0
  3
MS Gothic.ttf
  4

1001
ACAD
1000
MS Gothic
1071
    32817
  0
STYLE
  5
A547
330
1EEC
100
AcDbSymbolTableRecord
100
AcDbTextStyleTableRecord
  2
WMF-ＭＳ Ｐゴシック0
 70
     0
 40
0.0
 41
1.0
 50
0.0
 71
     0
 42
280.0
  3
MS PGothic.ttf
  4

1001
ACAD
1000
MS PGothic
1071
    32816
  0
STYLE
  5
A58D
330
1EEC
100
AcDbSymbolTableRecord
100
AcDbTextStyleTableRecord
  2
WMF-System0
 70
     0
 40
0.0
 41
1.0
 50
0.0
 71
     0
 42
280.0
  3

  4

  0
STYLE
  5
A81B
330
1EEC
100
AcDbSymbolTableRecord
100
AcDbTextStyleTableRecord
  2
ＭＳ ゴシック
 70
     0
 40
450.0
 41
0.85
 50
0.0
 71
     0
 42
450.0
  3
MS Gothic.ttf
  4

1001
ACAD
1000
MS Gothic
1071
    32817
  0
STYLE
  5
CA4C
330
1EEC
100
AcDbSymbolTableRecord
100
AcDbTextStyleTableRecord
  2
_______
 70
     0
 40
0.0
 41
1.0
 50
0.0
 71
     0
 42
0.0
  3
MS Gothic.ttf
  4
ＭＳ ゴシック
1001
ACAD
1000
ＭＳ ゴシック
1071
        0
  0
STYLE
  5
14676
330
1EEC
100
AcDbSymbolTableRecord
100
AcDbTextStyleTableRecord
  2
ヒラギノ角ゴ Pro W3
 70
     0
 40
0.0
 41
1.0
 50
0.0
 71
     0
 42
0.0
  3
MS Gothic.ttf
  4

1001
ACAD
1000
MS Gothic
1071
    32817
  0
ENDTAB
  0
TABLE
  2
VIEW
  5
1EEF
330
0
100
AcDbSymbolTable
 70
     0
  0
ENDTAB
  0
TABLE
  2
UCS
  5
1EF0
330
0
100
AcDbSymbolTable
 70
     0
  0
ENDTAB
  0
TABLE
  2
APPID
  5
1EF2
330
0
100
AcDbSymbolTable
 70
     3
  0
APPID
  5
1EFB
330
1EF2
100
AcDbSymbolTableRecord
100
AcDbRegAppTableRecord
  2
ACAD
 70
     0
  0
APPID
  5
9467
330
1EF2
100
AcDbSymbolTableRecord
100
AcDbRegAppTableRecord
  2
AcAecLayerStandard
 70
     0
  0
APPID
  5
9D2E
330
1EF2
100
AcDbSymbolTableRecord
100
AcDbRegAppTableRecord
  2
ACAD_PSEXT
 70
     0
  0
ENDTAB
  0
TABLE
  2
DIMSTYLE
  5
1EF3
330
0
100
AcDbSymbolTable
 70
     1
100
AcDbDimStyleTable
 71
     1
340
1F32
  0
DIMSTYLE
105
1F32
330
1EF3
100
AcDbSymbolTableRecord
100
AcDbDimStyleTableRecord
  2
STANDARD
 70
     0
279
     2
340
1EFA
  0
ENDTAB
  0
TABLE
  2
BLOCK_RECORD
  5
1EEA
330
0
100
AcDbSymbolTable
 70
     3
  0
BLOCK_RECORD
  5
1F07
102
{ACAD_XDICTIONARY
360
980C
102
}
330
1EEA
100
AcDbSymbolTableRecord
100
AcDbBlockTableRecord
  2
*Model_Space
340
1F0A
  0
BLOCK_RECORD
  5
1F03
330
1EEA
100
AcDbSymbolTableRecord
100
AcDbBlockTableRecord
  2
*Paper_Space
340
1F06
  0
BLOCK_RECORD
  5
429C
330
1EEA
100
AcDbSymbolTableRecord
100
AcDbBlockTableRecord
  2
_Open30
340
0
  0
BLOCK_RECORD
  5
A543
330
1EEA
100
AcDbSymbolTableRecord
100
AcDbBlockTableRecord
  2
WMF0
340
0
  0
BLOCK_RECORD
  5
1384E
330
1EEA
100
AcDbSymbolTableRecord
100
AcDbBlockTableRecord
  2
_Open
340
0
  0
ENDTAB
  0
ENDSEC
  0
SECTION
  2
BLOCKS
  0
BLOCK
  5
1F08
330
1F07
100
AcDbEntity
  8
0
100
AcDbBlockBegin
  2
*Model_Space
 70
     0
 10
0.0
 20
0.0
 30
0.0
  3
*Model_Space
  1

  0
ENDBLK
  5
1F09
330
1F07
100
AcDbEntity
  8
0
100
AcDbBlockEnd
  0
BLOCK
  5
1F04
330
1F03
100
AcDbEntity
 67
     1
  8
0
100
AcDbBlockBegin
  2
*Paper_Space
 70
     0
 10
0.0
 20
0.0
 30
0.0
  3
*Paper_Space
  1

  0
ENDBLK
  5
1F05
330
1F03
100
AcDbEntity
 67
     1
  8
0
100
AcDbBlockEnd
  0
BLOCK
  5
42A0
330
429C
100
AcDbEntity
  8
0
100
AcDbBlockBegin
  2
_Open30
 70
     0
 10
0.0
 20
0.0
 30
0.0
  3
_Open30
  1

  0
LINE
  5
429D
330
429C
100
AcDbEntity
  8
記号
  6
DOT
 62
     0
370
    -2
100
AcDbLine
 10
-1.0
 20
0.26794919
 30
0.0
 11
0.0
 21
0.0
 31
0.0
  0
LINE
  5
429E
330
429C
100
AcDbEntity
  8
記号
  6
DOT
 62
     0
370
    -2
100
AcDbLine
 10
0.0
 20
0.0
 30
0.0
 11
-1.0
 21
-0.26794919
 31
0.0
  0
LINE
  5
429F
330
429C
100
AcDbEntity
  8
記号
  6
DOT
 62
     0
370
    -2
100
AcDbLine
 10
0.0
 20
0.0
 30
0.0
 11
-1.0
 21
0.0
 31
0.0
  0
ENDBLK
  5
42A1
330
429C
100
AcDbEntity
  8
0
100
AcDbBlockEnd
  0
BLOCK
  5
A546
330
A543
100
AcDbEntity
  8
0
 62
     7
370
     0
100
AcDbBlockBegin
  2
WMF0
 70
     0
 10
0.0
 20
0.0
 30
0.0
  3
WMF0
  1

  0
TEXT
  5
A548
330
A543
100
AcDbEntity
  8
0
 62
     7
370
     0
100
AcDbText
 10
4302.31530976598
 20
-1290.694592929794
 30
0.0
 40
894.8815844313239
  1
LEDﾀﾞｳﾝﾗｲﾄ
  7
WMF-ＭＳ Ｐゴシック0
100
AcDbText
  0
TEXT
  5
A54A
330
A543
100
AcDbEntity
  8
0
 62
     7
370
     0
100
AcDbText
 10
23920.87312229885
 20
-1290.694592929794
 30
0.0
 40
894.8815844313239
  1
LEDﾀﾞｳﾝﾗｲﾄ
  7
WMF-ＭＳ Ｐゴシック0
100
AcDbText
  0
TEXT
  5
A54B
330
A543
100
AcDbEntity
  8
0
 62
     7
370
     0
100
AcDbText
 10
43539.43093483171
 20
-1290.694592929794
 30
0.0
 40
894.8815844313239
  1
LEDﾀﾞｳﾝﾗｲﾄ
  7
WMF-ＭＳ Ｐゴシック0
100
AcDbText
  0
TEXT
  5
A54C
330
A543
100
AcDbEntity
  8
0
 62
     7
370
     0
100
AcDbText
 10
63157.98874736458
 20
-1290.694592929794
 30
0.0
 40
894.8815844313239
  1
LEDﾀﾞｳﾝﾗｲﾄ
  7
WMF-ＭＳ Ｐゴシック0
100
AcDbText
  0
TEXT
  5
A54D
330
A543
100
AcDbEntity
  8
0
 62
     7
370
     0
100
AcDbText
 10
1290.694592929794
 20
-2753.481798250227
 30
0.0
 40
894.8815844313239
  1
D1
  7
WMF-ＭＳ Ｐゴシック0
100
AcDbText
  0
TEXT
  5
A54E
330
A543
100
AcDbEntity
  8
0
 62
     7
370
     0
100
AcDbText
 10
4302.31530976598
 20
-2753.481798250227
 30
0.0
 40
894.8815844313239
  1
BML-26181WW-110
  7
WMF-ＭＳ Ｐゴシック0
100
AcDbText
  0
TEXT
  5
A54F
330
A543
100
AcDbEntity
  8
0
 62
     7
370
     0
100
AcDbText
 10
20909.25240546266
 20
-2753.481798250227
 30
0.0
 40
894.8815844313239
  1
D2
  7
WMF-ＭＳ Ｐゴシック0
100
AcDbText
  0
TEXT
  5
A550
330
A543
100
AcDbEntity
  8
0
 62
     7
370
     0
100
AcDbText
 10
23920.87312229885
 20
-2753.481798250227
 30
0.0
 40
894.8815844313239
  1
BML-26187WW-110
  7
WMF-ＭＳ Ｐゴシック0
100
AcDbText
  0
TEXT
  5
A551
330
A543
100
AcDbEntity
  8
0
 62
     7
370
     0
100
AcDbText
 10
40527.81021799553
 20
-2753.481798250227
 30
0.0
 40
894.8815844313239
  1
D3
  7
WMF-ＭＳ Ｐゴシック0
100
AcDbText
  0
TEXT
  5
A552
330
A543
100
AcDbEntity
  8
0
 62
     7
370
     0
100
AcDbText
 10
43539.43093483171
 20
-2753.481798250227
 30
0.0
 40
894.8815844313239
  1
BML-26199WW-110
  7
WMF-ＭＳ Ｐゴシック0
100
AcDbText
  0
TEXT
  5
A553
330
A543
100
AcDbEntity
  8
0
 62
     7
370
     0
100
AcDbText
 10
60146.36803052839
 20
-2753.481798250227
 30
0.0
 40
894.8815844313239
  1
D4
  7
WMF-ＭＳ Ｐゴシック0
100
AcDbText
  0
TEXT
  5
A554
330
A543
100
AcDbEntity
  8
0
 62
     7
370
     0
100
AcDbText
 10
63157.98874736458
 20
-2753.481798250227
 30
0.0
 40
894.8815844313239
  1
BML-26213WL-110
  7
WMF-ＭＳ Ｐゴシック0
100
AcDbText
  0
TEXT
  5
A555
330
A543
100
AcDbEntity
  8
0
 62
     7
370
     0
100
AcDbText
 10
9637.186293875796
 20
-4216.26900357066
 30
0.0
 40
894.8815844313239
  1
LED76W  (4500K)
  7
WMF-ＭＳ Ｐゴシック0
100
AcDbText
  0
TEXT
  5
A556
330
A543
100
AcDbEntity
  8
0
 62
     7
370
     0
100
AcDbText
 10
29255.74410640866
 20
-4216.26900357066
 30
0.0
 40
894.8815844313239
  1
LED54W  (4500K)
  7
WMF-ＭＳ Ｐゴシック0
100
AcDbText
  0
TEXT
  5
A557
330
A543
100
AcDbEntity
  8
0
 62
     7
370
     0
100
AcDbText
 10
48874.30191894153
 20
-4216.26900357066
 30
0.0
 40
894.8815844313239
  1
LED32W  (4500K)
  7
WMF-ＭＳ Ｐゴシック0
100
AcDbText
  0
TEXT
  5
A558
330
A543
100
AcDbEntity
  8
0
 62
     7
370
     0
100
AcDbText
 10
68492.8597314744
 20
-4216.26900357066
 30
0.0
 40
894.8815844313239
  1
LED17W  (2900K)
  7
WMF-ＭＳ Ｐゴシック0
100
AcDbText
  0
TEXT
  5
A559
330
A543
100
AcDbEntity
  8
0
 62
     7
370
     0
100
AcDbText
 10
4302.31530976598
 20
-20823.20609926735
 30
0.0
 40
894.8815844313239
  1
 
  7
WMF-ＭＳ Ｐゴシック0
100
AcDbText
  0
TEXT
  5
A55A
330
A543
100
AcDbEntity
  8
0
 62
     7
370
     0
100
AcDbText
 10
23920.87312229885
 20
-20823.20609926735
 30
0.0
 40
894.8815844313239
  1
 
  7
WMF-ＭＳ Ｐゴシック0
100
AcDbText
  0
TEXT
  5
A55B
330
A543
100
AcDbEntity
  8
0
 62
     7
370
     0
100
AcDbText
 10
43539.43093483171
 20
-20823.20609926735
 30
0.0
 40
894.8815844313239
  1
 
  7
WMF-ＭＳ Ｐゴシック0
100
AcDbText
  0
TEXT
  5
A55C
330
A543
100
AcDbEntity
  8
0
 62
     7
370
     0
100
AcDbText
 10
63157.98874736458
 20
-20823.20609926735
 30
0.0
 40
894.8815844313239
  1
 
  7
WMF-ＭＳ Ｐゴシック0
100
AcDbText
  0
TEXT
  5
A55D
330
A543
100
AcDbEntity
  8
0
 62
     7
370
     0
100
AcDbText
 10
4302.31530976598
 20
-24006.91942849417
 30
0.0
 40
894.8815844313239
  1
LED直管型ﾗｲﾄ
  7
WMF-ＭＳ Ｐゴシック0
100
AcDbText
  0
TEXT
  5
A55E
330
A543
100
AcDbEntity
  8
0
 62
     7
370
     0
100
AcDbText
 10
23920.87312229885
 20
-24006.91942849417
 30
0.0
 40
894.8815844313239
  1
LED軒下用ﾀﾞｳﾝﾗｲﾄ
  7
WMF-ＭＳ Ｐゴシック0
100
AcDbText
  0
TEXT
  5
A55F
330
A543
100
AcDbEntity
  8
0
 62
     7
370
     0
100
AcDbText
 10
43539.43093483171
 20
-24006.91942849417
 30
0.0
 40
894.8815844313239
  1
LEDｱｳﾄﾄﾞｱｽﾎﾟｯﾄﾗｲﾄ
  7
WMF-ＭＳ Ｐゴシック0
100
AcDbText
  0
TEXT
  5
A560
330
A543
100
AcDbEntity
  8
0
 62
     7
370
     0
100
AcDbText
 10
63157.98874736458
 20
-24006.91942849417
 30
0.0
 40
894.8815844313239
  1
LEDﾀﾞｳﾝﾗｲﾄ
  7
WMF-ＭＳ Ｐゴシック0
100
AcDbText
  0
TEXT
  5
A561
330
A543
100
AcDbEntity
  8
0
 62
     7
370
     0
100
AcDbText
 10
1376.740899125113
 20
-25469.7066338146
 30
0.0
 40
894.8815844313239
  1
F1
  7
WMF-ＭＳ Ｐゴシック0
100
AcDbText
  0
TEXT
  5
A562
330
A543
100
AcDbEntity
  8
0
 62
     7
370
     0
100
AcDbText
 10
4302.31530976598
 20
-25469.7066338146
 30
0.0
 40
894.8815844313239
  1
TBJKL-22006W
  7
WMF-ＭＳ Ｐゴシック0
100
AcDbText
  0
TEXT
  5
A563
330
A543
100
AcDbEntity
  8
0
 62
     7
370
     0
100
AcDbText
 10
20479.02087448607
 20
-25469.7066338146
 30
0.0
 40
894.8815844313239
  1
OD1
  7
WMF-ＭＳ Ｐゴシック0
100
AcDbText
  0
TEXT
  5
A564
330
A543
100
AcDbEntity
  8
0
 62
     7
370
     0
100
AcDbText
 10
23920.87312229885
 20
-25469.7066338146
 30
0.0
 40
894.8815844313239
  1
BML-26187WSW-110
  7
WMF-ＭＳ Ｐゴシック0
100
AcDbText
  0
TEXT
  5
A565
330
A543
100
AcDbEntity
  8
0
 62
     7
370
     0
100
AcDbText
 10
40097.57868701893
 20
-25469.7066338146
 30
0.0
 40
894.8815844313239
  1
OS1
  7
WMF-ＭＳ Ｐゴシック0
100
AcDbText
  0
TEXT
  5
A566
330
A543
100
AcDbEntity
  8
0
 62
     7
370
     0
100
AcDbText
 10
43539.43093483171
 20
-25469.7066338146
 30
0.0
 40
894.8815844313239
  1
BGSL-20045GW-20
  7
WMF-ＭＳ Ｐゴシック0
100
AcDbText
  0
TEXT
  5
A567
330
A543
100
AcDbEntity
  8
0
 62
     7
370
     0
100
AcDbText
 10
60576.59956150499
 20
-25469.7066338146
 30
0.0
 40
894.8815844313239
  1
0
  7
WMF-ＭＳ Ｐゴシック0
100
AcDbText
  0
TEXT
  5
A568
330
A543
100
AcDbEntity
  8
0
 62
     7
370
     0
100
AcDbText
 10
63157.98874736458
 20
-25469.7066338146
 30
0.0
 40
894.8815844313239
  1
BML-26160WW-120
  7
WMF-ＭＳ Ｐゴシック0
100
AcDbText
  0
TEXT
  5
A569
330
A543
100
AcDbEntity
  8
0
 62
     7
370
     0
100
AcDbText
 10
9637.186293875796
 20
-26932.49383913503
 30
0.0
 40
894.8815844313239
  1
LED38W  (4000K)
  7
WMF-ＭＳ Ｐゴシック0
100
AcDbText
  0
TEXT
  5
A56A
330
A543
100
AcDbEntity
  8
0
 62
     7
370
     0
100
AcDbText
 10
29255.74410640866
 20
-26932.49383913503
 30
0.0
 40
894.8815844313239
  1
LED54W  (4500K)
  7
WMF-ＭＳ Ｐゴシック0
100
AcDbText
  0
TEXT
  5
A56B
330
A543
100
AcDbEntity
  8
0
 62
     7
370
     0
100
AcDbText
 10
48874.30191894153
 20
-26932.49383913503
 30
0.0
 40
894.8815844313239
  1
LED68W  (4500K)
  7
WMF-ＭＳ Ｐゴシック0
100
AcDbText
  0
TEXT
  5
A56C
330
A543
100
AcDbEntity
  8
0
 62
     7
370
     0
100
AcDbText
 10
77613.76818817828
 20
-26932.49383913503
 30
0.0
 40
894.8815844313239
  1
0
  7
WMF-ＭＳ Ｐゴシック0
100
AcDbText
  0
TEXT
  5
A56D
330
A543
100
AcDbEntity
  8
0
 62
     7
370
     0
100
AcDbText
 10
4302.31530976598
 20
-46723.14426405853
 30
0.0
 40
894.8815844313239
  1
LEDﾀﾞｳﾝﾗｲﾄ
  7
WMF-ＭＳ Ｐゴシック0
100
AcDbText
  0
TEXT
  5
A56E
330
A543
100
AcDbEntity
  8
0
 62
     7
370
     0
100
AcDbText
 10
23920.87312229885
 20
-46723.14426405853
 30
0.0
 40
894.8815844313239
  1
LEDﾀﾞｳﾝﾗｲﾄ
  7
WMF-ＭＳ Ｐゴシック0
100
AcDbText
  0
TEXT
  5
A56F
330
A543
100
AcDbEntity
  8
0
 62
     7
370
     0
100
AcDbText
 10
43539.43093483171
 20
-46723.14426405853
 30
0.0
 40
894.8815844313239
  1
LEDﾀﾞｳﾝﾗｲﾄ
  7
WMF-ＭＳ Ｐゴシック0
100
AcDbText
  0
TEXT
  5
A570
330
A543
100
AcDbEntity
  8
0
 62
     7
370
     0
100
AcDbText
 10
63157.98874736458
 20
-46723.14426405853
 30
0.0
 40
894.8815844313239
  1
LEDﾀﾞｳﾝﾗｲﾄ
  7
WMF-ＭＳ Ｐゴシック0
100
AcDbText
  0
TEXT
  5
A571
330
A543
100
AcDbEntity
  8
0
 62
     7
370
     0
100
AcDbText
 10
1720.926123906392
 20
-48185.93146937897
 30
0.0
 40
894.8815844313239
  1
0
  7
WMF-ＭＳ Ｐゴシック0
100
AcDbText
  0
TEXT
  5
A572
330
A543
100
AcDbEntity
  8
0
 62
     7
370
     0
100
AcDbText
 10
4302.31530976598
 20
-48185.93146937897
 30
0.0
 40
894.8815844313239
  1
BML-26160WW-124
  7
WMF-ＭＳ Ｐゴシック0
100
AcDbText
  0
TEXT
  5
A573
330
A543
100
AcDbEntity
  8
0
 62
     7
370
     0
100
AcDbText
 10
21339.48393643926
 20
-48185.93146937897
 30
0.0
 40
894.8815844313239
  1
0
  7
WMF-ＭＳ Ｐゴシック0
100
AcDbText
  0
TEXT
  5
A574
330
A543
100
AcDbEntity
  8
0
 62
     7
370
     0
100
AcDbText
 10
23920.87312229885
 20
-48185.93146937897
 30
0.0
 40
894.8815844313239
  1
BML-26160WW-125
  7
WMF-ＭＳ Ｐゴシック0
100
AcDbText
  0
TEXT
  5
A575
330
A543
100
AcDbEntity
  8
0
 62
     7
370
     0
100
AcDbText
 10
40958.04174897213
 20
-48185.93146937897
 30
0.0
 40
894.8815844313239
  1
0
  7
WMF-ＭＳ Ｐゴシック0
100
AcDbText
  0
TEXT
  5
A576
330
A543
100
AcDbEntity
  8
0
 62
     7
370
     0
100
AcDbText
 10
43539.43093483171
 20
-48185.93146937897
 30
0.0
 40
894.8815844313239
  1
BML-26160WW-126
  7
WMF-ＭＳ Ｐゴシック0
100
AcDbText
  0
TEXT
  5
A577
330
A543
100
AcDbEntity
  8
0
 62
     7
370
     0
100
AcDbText
 10
60576.59956150499
 20
-48185.93146937897
 30
0.0
 40
894.8815844313239
  1
0
  7
WMF-ＭＳ Ｐゴシック0
100
AcDbText
  0
TEXT
  5
A578
330
A543
100
AcDbEntity
  8
0
 62
     7
370
     0
100
AcDbText
 10
63157.98874736458
 20
-48185.93146937897
 30
0.0
 40
894.8815844313239
  1
BML-26160WW-127
  7
WMF-ＭＳ Ｐゴシック0
100
AcDbText
  0
TEXT
  5
A579
330
A543
100
AcDbEntity
  8
0
 62
     7
370
     0
100
AcDbText
 10
18758.09475057967
 20
-49648.7186746994
 30
0.0
 40
894.8815844313239
  1
0
  7
WMF-ＭＳ Ｐゴシック0
100
AcDbText
  0
TEXT
  5
A57A
330
A543
100
AcDbEntity
  8
0
 62
     7
370
     0
100
AcDbText
 10
38376.65256311254
 20
-49648.7186746994
 30
0.0
 40
894.8815844313239
  1
0
  7
WMF-ＭＳ Ｐゴシック0
100
AcDbText
  0
TEXT
  5
A57B
330
A543
100
AcDbEntity
  8
0
 62
     7
370
     0
100
AcDbText
 10
57995.21037564541
 20
-49648.7186746994
 30
0.0
 40
894.8815844313239
  1
0
  7
WMF-ＭＳ Ｐゴシック0
100
AcDbText
  0
TEXT
  5
A57C
330
A543
100
AcDbEntity
  8
0
 62
     7
370
     0
100
AcDbText
 10
77613.76818817828
 20
-49648.7186746994
 30
0.0
 40
894.8815844313239
  1
0
  7
WMF-ＭＳ Ｐゴシック0
100
AcDbText
  0
TEXT
  5
A57D
330
A543
100
AcDbEntity
  8
0
 62
     7
370
     0
100
AcDbText
 10
4302.31530976598
 20
-69439.36909962291
 30
0.0
 40
894.8815844313239
  1
LEDﾀﾞｳﾝﾗｲﾄ
  7
WMF-ＭＳ Ｐゴシック0
100
AcDbText
  0
TEXT
  5
A57E
330
A543
100
AcDbEntity
  8
0
 62
     7
370
     0
100
AcDbText
 10
23920.87312229885
 20
-69439.36909962291
 30
0.0
 40
894.8815844313239
  1
LEDﾀﾞｳﾝﾗｲﾄ
  7
WMF-ＭＳ Ｐゴシック0
100
AcDbText
  0
TEXT
  5
A57F
330
A543
100
AcDbEntity
  8
0
 62
     7
370
     0
100
AcDbText
 10
43539.43093483171
 20
-69439.36909962291
 30
0.0
 40
894.8815844313239
  1
LEDﾀﾞｳﾝﾗｲﾄ
  7
WMF-ＭＳ Ｐゴシック0
100
AcDbText
  0
TEXT
  5
A580
330
A543
100
AcDbEntity
  8
0
 62
     7
370
     0
100
AcDbText
 10
63157.98874736458
 20
-69439.36909962291
 30
0.0
 40
894.8815844313239
  1
LEDﾀﾞｳﾝﾗｲﾄ
  7
WMF-ＭＳ Ｐゴシック0
100
AcDbText
  0
TEXT
  5
A581
330
A543
100
AcDbEntity
  8
0
 62
     7
370
     0
100
AcDbText
 10
1720.926123906392
 20
-70902.15630494334
 30
0.0
 40
894.8815844313239
  1
0
  7
WMF-ＭＳ Ｐゴシック0
100
AcDbText
  0
TEXT
  5
A582
330
A543
100
AcDbEntity
  8
0
 62
     7
370
     0
100
AcDbText
 10
18758.09475057967
 20
-70902.15630494334
 30
0.0
 40
894.8815844313239
  1
0
  7
WMF-ＭＳ Ｐゴシック0
100
AcDbText
  0
TEXT
  5
A583
330
A543
100
AcDbEntity
  8
0
 62
     7
370
     0
100
AcDbText
 10
21339.48393643926
 20
-70902.15630494334
 30
0.0
 40
894.8815844313239
  1
0
  7
WMF-ＭＳ Ｐゴシック0
100
AcDbText
  0
TEXT
  5
A584
330
A543
100
AcDbEntity
  8
0
 62
     7
370
     0
100
AcDbText
 10
38376.65256311254
 20
-70902.15630494334
 30
0.0
 40
894.8815844313239
  1
0
  7
WMF-ＭＳ Ｐゴシック0
100
AcDbText
  0
TEXT
  5
A585
330
A543
100
AcDbEntity
  8
0
 62
     7
370
     0
100
AcDbText
 10
40958.04174897213
 20
-70902.15630494334
 30
0.0
 40
894.8815844313239
  1
0
  7
WMF-ＭＳ Ｐゴシック0
100
AcDbText
  0
TEXT
  5
A586
330
A543
100
AcDbEntity
  8
0
 62
     7
370
     0
100
AcDbText
 10
57995.21037564541
 20
-70902.15630494334
 30
0.0
 40
894.8815844313239
  1
0
  7
WMF-ＭＳ Ｐゴシック0
100
AcDbText
  0
TEXT
  5
A587
330
A543
100
AcDbEntity
  8
0
 62
     7
370
     0
100
AcDbText
 10
60576.59956150499
 20
-70902.15630494334
 30
0.0
 40
894.8815844313239
  1
0
  7
WMF-ＭＳ Ｐゴシック0
100
AcDbText
  0
TEXT
  5
A588
330
A543
100
AcDbEntity
  8
0
 62
     7
370
     0
100
AcDbText
 10
77613.76818817828
 20
-70902.15630494334
 30
0.0
 40
894.8815844313239
  1
0
  7
WMF-ＭＳ Ｐゴシック0
100
AcDbText
  0
TEXT
  5
A589
330
A543
100
AcDbEntity
  8
0
 62
     7
370
     0
100
AcDbText
 10
18758.09475057967
 20
-72364.94351026378
 30
0.0
 40
894.8815844313239
  1
0
  7
WMF-ＭＳ Ｐゴシック0
100
AcDbText
  0
TEXT
  5
A58A
330
A543
100
AcDbEntity
  8
0
 62
     7
370
     0
100
AcDbText
 10
38376.65256311254
 20
-72364.94351026378
 30
0.0
 40
894.8815844313239
  1
0
  7
WMF-ＭＳ Ｐゴシック0
100
AcDbText
  0
TEXT
  5
A58B
330
A543
100
AcDbEntity
  8
0
 62
     7
370
     0
100
AcDbText
 10
57995.21037564541
 20
-72364.94351026378
 30
0.0
 40
894.8815844313239
  1
0
  7
WMF-ＭＳ Ｐゴシック0
100
AcDbText
  0
TEXT
  5
A58C
330
A543
100
AcDbEntity
  8
0
 62
     7
370
     0
100
AcDbText
 10
77613.76818817828
 20
-72364.94351026378
 30
0.0
 40
894.8815844313239
  1
0
  7
WMF-ＭＳ Ｐゴシック0
100
AcDbText
  0
POLYLINE
  5
A58E
330
A543
100
AcDbEntity
  8
0
 62
     7
370
     0
100
AcDb2dPolyline
 66
     1
 10
0.0
 20
0.0
 30
0.0
  0
VERTEX
  5
A58F
330
A58E
100
AcDbEntity
  8
0
 62
     7
370
     0
100
AcDbVertex
100
AcDb2dVertex
 10
4130.22269737534
 20
-1462.787205320433
 30
0.0
  0
VERTEX
  5
A590
330
A58E
100
AcDbEntity
  8
0
 62
     7
370
     0
100
AcDbVertex
100
AcDb2dVertex
 10
19704.60411872819
 20
-1462.787205320433
 30
0.0
  0
SEQEND
  5
A591
330
A58E
100
AcDbEntity
  8
0
 62
     7
370
     0
  0
POLYLINE
  5
A592
330
A543
100
AcDbEntity
  8
0
 62
     7
370
     0
100
AcDb2dPolyline
 66
     1
 10
0.0
 20
0.0
 30
0.0
  0
VERTEX
  5
A593
330
A592
100
AcDbEntity
  8
0
 62
     7
370
     0
100
AcDbVertex
100
AcDb2dVertex
 10
23748.78050990821
 20
-1462.787205320433
 30
0.0
  0
VERTEX
  5
A594
330
A592
100
AcDbEntity
  8
0
 62
     7
370
     0
100
AcDbVertex
100
AcDb2dVertex
 10
39323.16193126106
 20
-1462.787205320433
 30
0.0
  0
SEQEND
  5
A595
330
A592
100
AcDbEntity
  8
0
 62
     7
370
     0
  0
POLYLINE
  5
A596
330
A543
100
AcDbEntity
  8
0
 62
     7
370
     0
100
AcDb2dPolyline
 66
     1
 10
0.0
 20
0.0
 30
0.0
  0
VERTEX
  5
A597
330
A596
100
AcDbEntity
  8
0
 62
     7
370
     0
100
AcDbVertex
100
AcDb2dVertex
 10
43367.33832244107
 20
-1462.787205320433
 30
0.0
  0
VERTEX
  5
A598
330
A596
100
AcDbEntity
  8
0
 62
     7
370
     0
100
AcDbVertex
100
AcDb2dVertex
 10
58941.71974379392
 20
-1462.787205320433
 30
0.0
  0
SEQEND
  5
A599
330
A596
100
AcDbEntity
  8
0
 62
     7
370
     0
  0
POLYLINE
  5
A59A
330
A543
100
AcDbEntity
  8
0
 62
     7
370
     0
100
AcDb2dPolyline
 66
     1
 10
0.0
 20
0.0
 30
0.0
  0
VERTEX
  5
A59B
330
A59A
100
AcDbEntity
  8
0
 62
     7
370
     0
100
AcDbVertex
100
AcDb2dVertex
 10
4044.176391180021
 20
-86.04630619531958
 30
0.0
  0
VERTEX
  5
A59C
330
A59A
100
AcDbEntity
  8
0
 62
     7
370
     0
100
AcDbVertex
100
AcDb2dVertex
 10
4044.176391180021
 20
-4474.407922156618
 30
0.0
  0
SEQEND
  5
A59D
330
A59A
100
AcDbEntity
  8
0
 62
     7
370
     0
  0
POLYLINE
  5
A59E
330
A543
100
AcDbEntity
  8
0
 62
     7
370
     0
100
AcDb2dPolyline
 66
     1
 10
0.0
 20
0.0
 30
0.0
  0
VERTEX
  5
A59F
330
A59E
100
AcDbEntity
  8
0
 62
     7
370
     0
100
AcDbVertex
100
AcDb2dVertex
 10
23662.73420371289
 20
-86.04630619531958
 30
0.0
  0
VERTEX
  5
A5A0
330
A59E
100
AcDbEntity
  8
0
 62
     7
370
     0
100
AcDbVertex
100
AcDb2dVertex
 10
23662.73420371289
 20
-4474.407922156618
 30
0.0
  0
SEQEND
  5
A5A1
330
A59E
100
AcDbEntity
  8
0
 62
     7
370
     0
  0
POLYLINE
  5
A5A2
330
A543
100
AcDbEntity
  8
0
 62
     7
370
     0
100
AcDb2dPolyline
 66
     1
 10
0.0
 20
0.0
 30
0.0
  0
VERTEX
  5
A5A3
330
A5A2
100
AcDbEntity
  8
0
 62
     7
370
     0
100
AcDbVertex
100
AcDb2dVertex
 10
43281.29201624575
 20
-86.04630619531958
 30
0.0
  0
VERTEX
  5
A5A4
330
A5A2
100
AcDbEntity
  8
0
 62
     7
370
     0
100
AcDbVertex
100
AcDb2dVertex
 10
43281.29201624575
 20
-4474.407922156618
 30
0.0
  0
SEQEND
  5
A5A5
330
A5A2
100
AcDbEntity
  8
0
 62
     7
370
     0
  0
POLYLINE
  5
A5A6
330
A543
100
AcDbEntity
  8
0
 62
     7
370
     0
100
AcDb2dPolyline
 66
     1
 10
0.0
 20
0.0
 30
0.0
  0
VERTEX
  5
A5A7
330
A5A6
100
AcDbEntity
  8
0
 62
     7
370
     0
100
AcDbVertex
100
AcDb2dVertex
 10
62899.84982877862
 20
-86.04630619531958
 30
0.0
  0
VERTEX
  5
A5A8
330
A5A6
100
AcDbEntity
  8
0
 62
     7
370
     0
100
AcDbVertex
100
AcDb2dVertex
 10
62899.84982877862
 20
-4474.407922156618
 30
0.0
  0
SEQEND
  5
A5A9
330
A5A6
100
AcDbEntity
  8
0
 62
     7
370
     0
  0
POLYLINE
  5
A5AA
330
A543
100
AcDbEntity
  8
0
 62
     7
370
     0
100
AcDb2dPolyline
 66
     1
 10
0.0
 20
0.0
 30
0.0
  0
VERTEX
  5
A5AB
330
A5AA
100
AcDbEntity
  8
0
 62
     7
370
     0
100
AcDbVertex
100
AcDb2dVertex
 10
4130.22269737534
 20
-24179.0120408848
 30
0.0
  0
VERTEX
  5
A5AC
330
A5AA
100
AcDbEntity
  8
0
 62
     7
370
     0
100
AcDbVertex
100
AcDb2dVertex
 10
19704.60411872819
 20
-24179.0120408848
 30
0.0
  0
SEQEND
  5
A5AD
330
A5AA
100
AcDbEntity
  8
0
 62
     7
370
     0
  0
POLYLINE
  5
A5AE
330
A543
100
AcDbEntity
  8
0
 62
     7
370
     0
100
AcDb2dPolyline
 66
     1
 10
0.0
 20
0.0
 30
0.0
  0
VERTEX
  5
A5AF
330
A5AE
100
AcDbEntity
  8
0
 62
     7
370
     0
100
AcDbVertex
100
AcDb2dVertex
 10
23748.78050990821
 20
-24179.0120408848
 30
0.0
  0
VERTEX
  5
A5B0
330
A5AE
100
AcDbEntity
  8
0
 62
     7
370
     0
100
AcDbVertex
100
AcDb2dVertex
 10
39323.16193126106
 20
-24179.0120408848
 30
0.0
  0
SEQEND
  5
A5B1
330
A5AE
100
AcDbEntity
  8
0
 62
     7
370
     0
  0
POLYLINE
  5
A5B2
330
A543
100
AcDbEntity
  8
0
 62
     7
370
     0
100
AcDb2dPolyline
 66
     1
 10
0.0
 20
0.0
 30
0.0
  0
VERTEX
  5
A5B3
330
A5B2
100
AcDbEntity
  8
0
 62
     7
370
     0
100
AcDbVertex
100
AcDb2dVertex
 10
43367.33832244107
 20
-24179.0120408848
 30
0.0
  0
VERTEX
  5
A5B4
330
A5B2
100
AcDbEntity
  8
0
 62
     7
370
     0
100
AcDbVertex
100
AcDb2dVertex
 10
58941.71974379392
 20
-24179.0120408848
 30
0.0
  0
SEQEND
  5
A5B5
330
A5B2
100
AcDbEntity
  8
0
 62
     7
370
     0
  0
POLYLINE
  5
A5B6
330
A543
100
AcDbEntity
  8
0
 62
     7
370
     0
100
AcDb2dPolyline
 66
     1
 10
0.0
 20
0.0
 30
0.0
  0
VERTEX
  5
A5B7
330
A5B6
100
AcDbEntity
  8
0
 62
     7
370
     0
100
AcDbVertex
100
AcDb2dVertex
 10
4044.176391180021
 20
-22802.27114175969
 30
0.0
  0
VERTEX
  5
A5B8
330
A5B6
100
AcDbEntity
  8
0
 62
     7
370
     0
100
AcDbVertex
100
AcDb2dVertex
 10
4044.176391180021
 20
-27190.63275772099
 30
0.0
  0
SEQEND
  5
A5B9
330
A5B6
100
AcDbEntity
  8
0
 62
     7
370
     0
  0
POLYLINE
  5
A5BA
330
A543
100
AcDbEntity
  8
0
 62
     7
370
     0
100
AcDb2dPolyline
 66
     1
 10
0.0
 20
0.0
 30
0.0
  0
VERTEX
  5
A5BB
330
A5BA
100
AcDbEntity
  8
0
 62
     7
370
     0
100
AcDbVertex
100
AcDb2dVertex
 10
23662.73420371289
 20
-22802.27114175969
 30
0.0
  0
VERTEX
  5
A5BC
330
A5BA
100
AcDbEntity
  8
0
 62
     7
370
     0
100
AcDbVertex
100
AcDb2dVertex
 10
23662.73420371289
 20
-27190.63275772099
 30
0.0
  0
SEQEND
  5
A5BD
330
A5BA
100
AcDbEntity
  8
0
 62
     7
370
     0
  0
POLYLINE
  5
A5BE
330
A543
100
AcDbEntity
  8
0
 62
     7
370
     0
100
AcDb2dPolyline
 66
     1
 10
0.0
 20
0.0
 30
0.0
  0
VERTEX
  5
A5BF
330
A5BE
100
AcDbEntity
  8
0
 62
     7
370
     0
100
AcDbVertex
100
AcDb2dVertex
 10
43281.29201624575
 20
-22802.27114175969
 30
0.0
  0
VERTEX
  5
A5C0
330
A5BE
100
AcDbEntity
  8
0
 62
     7
370
     0
100
AcDbVertex
100
AcDb2dVertex
 10
43281.29201624575
 20
-27190.63275772099
 30
0.0
  0
SEQEND
  5
A5C1
330
A5BE
100
AcDbEntity
  8
0
 62
     7
370
     0
  0
POLYLINE
  5
A5C2
330
A543
100
AcDbEntity
  8
0
 62
     7
370
     0
100
AcDb2dPolyline
 66
     1
 10
0.0
 20
0.0
 30
0.0
  0
VERTEX
  5
A5C3
330
A5C2
100
AcDbEntity
  8
0
 62
     7
370
     0
100
AcDbVertex
100
AcDb2dVertex
 10
62899.84982877862
 20
-22802.27114175969
 30
0.0
  0
VERTEX
  5
A5C4
330
A5C2
100
AcDbEntity
  8
0
 62
     7
370
     0
100
AcDbVertex
100
AcDb2dVertex
 10
62899.84982877862
 20
-27190.63275772099
 30
0.0
  0
SEQEND
  5
A5C5
330
A5C2
100
AcDbEntity
  8
0
 62
     7
370
     0
  0
POLYLINE
  5
A5C6
330
A543
100
AcDbEntity
  8
0
 62
     7
370
     0
100
AcDb2dPolyline
 66
     1
 10
0.0
 20
0.0
 30
0.0
  0
VERTEX
  5
A5C7
330
A5C6
100
AcDbEntity
  8
0
 62
     7
370
     0
100
AcDbVertex
100
AcDb2dVertex
 10
4130.22269737534
 20
-46895.23687644918
 30
0.0
  0
VERTEX
  5
A5C8
330
A5C6
100
AcDbEntity
  8
0
 62
     7
370
     0
100
AcDbVertex
100
AcDb2dVertex
 10
19704.60411872819
 20
-46895.23687644918
 30
0.0
  0
SEQEND
  5
A5C9
330
A5C6
100
AcDbEntity
  8
0
 62
     7
370
     0
  0
POLYLINE
  5
A5CA
330
A543
100
AcDbEntity
  8
0
 62
     7
370
     0
100
AcDb2dPolyline
 66
     1
 10
0.0
 20
0.0
 30
0.0
  0
VERTEX
  5
A5CB
330
A5CA
100
AcDbEntity
  8
0
 62
     7
370
     0
100
AcDbVertex
100
AcDb2dVertex
 10
23748.78050990821
 20
-46895.23687644918
 30
0.0
  0
VERTEX
  5
A5CC
330
A5CA
100
AcDbEntity
  8
0
 62
     7
370
     0
100
AcDbVertex
100
AcDb2dVertex
 10
39323.16193126106
 20
-46895.23687644918
 30
0.0
  0
SEQEND
  5
A5CD
330
A5CA
100
AcDbEntity
  8
0
 62
     7
370
     0
  0
POLYLINE
  5
A5CE
330
A543
100
AcDbEntity
  8
0
 62
     7
370
     0
100
AcDb2dPolyline
 66
     1
 10
0.0
 20
0.0
 30
0.0
  0
VERTEX
  5
A5CF
330
A5CE
100
AcDbEntity
  8
0
 62
     7
370
     0
100
AcDbVertex
100
AcDb2dVertex
 10
43367.33832244107
 20
-46895.23687644918
 30
0.0
  0
VERTEX
  5
A5D0
330
A5CE
100
AcDbEntity
  8
0
 62
     7
370
     0
100
AcDbVertex
100
AcDb2dVertex
 10
58941.71974379392
 20
-46895.23687644918
 30
0.0
  0
SEQEND
  5
A5D1
330
A5CE
100
AcDbEntity
  8
0
 62
     7
370
     0
  0
POLYLINE
  5
A5D2
330
A543
100
AcDbEntity
  8
0
 62
     7
370
     0
100
AcDb2dPolyline
 66
     1
 10
0.0
 20
0.0
 30
0.0
  0
VERTEX
  5
A5D3
330
A5D2
100
AcDbEntity
  8
0
 62
     7
370
     0
100
AcDbVertex
100
AcDb2dVertex
 10
4044.176391180021
 20
-45518.49597732406
 30
0.0
  0
VERTEX
  5
A5D4
330
A5D2
100
AcDbEntity
  8
0
 62
     7
370
     0
100
AcDbVertex
100
AcDb2dVertex
 10
4044.176391180021
 20
-49906.85759328536
 30
0.0
  0
SEQEND
  5
A5D5
330
A5D2
100
AcDbEntity
  8
0
 62
     7
370
     0
  0
POLYLINE
  5
A5D6
330
A543
100
AcDbEntity
  8
0
 62
     7
370
     0
100
AcDb2dPolyline
 66
     1
 10
0.0
 20
0.0
 30
0.0
  0
VERTEX
  5
A5D7
330
A5D6
100
AcDbEntity
  8
0
 62
     7
370
     0
100
AcDbVertex
100
AcDb2dVertex
 10
23662.73420371289
 20
-45518.49597732406
 30
0.0
  0
VERTEX
  5
A5D8
330
A5D6
100
AcDbEntity
  8
0
 62
     7
370
     0
100
AcDbVertex
100
AcDb2dVertex
 10
23662.73420371289
 20
-49906.85759328536
 30
0.0
  0
SEQEND
  5
A5D9
330
A5D6
100
AcDbEntity
  8
0
 62
     7
370
     0
  0
POLYLINE
  5
A5DA
330
A543
100
AcDbEntity
  8
0
 62
     7
370
     0
100
AcDb2dPolyline
 66
     1
 10
0.0
 20
0.0
 30
0.0
  0
VERTEX
  5
A5DB
330
A5DA
100
AcDbEntity
  8
0
 62
     7
370
     0
100
AcDbVertex
100
AcDb2dVertex
 10
43281.29201624575
 20
-45518.49597732406
 30
0.0
  0
VERTEX
  5
A5DC
330
A5DA
100
AcDbEntity
  8
0
 62
     7
370
     0
100
AcDbVertex
100
AcDb2dVertex
 10
43281.29201624575
 20
-49906.85759328536
 30
0.0
  0
SEQEND
  5
A5DD
330
A5DA
100
AcDbEntity
  8
0
 62
     7
370
     0
  0
POLYLINE
  5
A5DE
330
A543
100
AcDbEntity
  8
0
 62
     7
370
     0
100
AcDb2dPolyline
 66
     1
 10
0.0
 20
0.0
 30
0.0
  0
VERTEX
  5
A5DF
330
A5DE
100
AcDbEntity
  8
0
 62
     7
370
     0
100
AcDbVertex
100
AcDb2dVertex
 10
62899.84982877862
 20
-45518.49597732406
 30
0.0
  0
VERTEX
  5
A5E0
330
A5DE
100
AcDbEntity
  8
0
 62
     7
370
     0
100
AcDbVertex
100
AcDb2dVertex
 10
62899.84982877862
 20
-49906.85759328536
 30
0.0
  0
SEQEND
  5
A5E1
330
A5DE
100
AcDbEntity
  8
0
 62
     7
370
     0
  0
POLYLINE
  5
A5E2
330
A543
100
AcDbEntity
  8
0
 62
     7
370
     0
100
AcDb2dPolyline
 66
     1
 10
0.0
 20
0.0
 30
0.0
  0
VERTEX
  5
A5E3
330
A5E2
100
AcDbEntity
  8
0
 62
     7
370
     0
100
AcDbVertex
100
AcDb2dVertex
 10
4130.22269737534
 20
-69611.46171201355
 30
0.0
  0
VERTEX
  5
A5E4
330
A5E2
100
AcDbEntity
  8
0
 62
     7
370
     0
100
AcDbVertex
100
AcDb2dVertex
 10
19704.60411872819
 20
-69611.46171201355
 30
0.0
  0
SEQEND
  5
A5E5
330
A5E2
100
AcDbEntity
  8
0
 62
     7
370
     0
  0
POLYLINE
  5
A5E6
330
A543
100
AcDbEntity
  8
0
 62
     7
370
     0
100
AcDb2dPolyline
 66
     1
 10
0.0
 20
0.0
 30
0.0
  0
VERTEX
  5
A5E7
330
A5E6
100
AcDbEntity
  8
0
 62
     7
370
     0
100
AcDbVertex
100
AcDb2dVertex
 10
23748.78050990821
 20
-69611.46171201355
 30
0.0
  0
VERTEX
  5
A5E8
330
A5E6
100
AcDbEntity
  8
0
 62
     7
370
     0
100
AcDbVertex
100
AcDb2dVertex
 10
39323.16193126106
 20
-69611.46171201355
 30
0.0
  0
SEQEND
  5
A5E9
330
A5E6
100
AcDbEntity
  8
0
 62
     7
370
     0
  0
POLYLINE
  5
A5EA
330
A543
100
AcDbEntity
  8
0
 62
     7
370
     0
100
AcDb2dPolyline
 66
     1
 10
0.0
 20
0.0
 30
0.0
  0
VERTEX
  5
A5EB
330
A5EA
100
AcDbEntity
  8
0
 62
     7
370
     0
100
AcDbVertex
100
AcDb2dVertex
 10
43367.33832244107
 20
-69611.46171201355
 30
0.0
  0
VERTEX
  5
A5EC
330
A5EA
100
AcDbEntity
  8
0
 62
     7
370
     0
100
AcDbVertex
100
AcDb2dVertex
 10
58941.71974379392
 20
-69611.46171201355
 30
0.0
  0
SEQEND
  5
A5ED
330
A5EA
100
AcDbEntity
  8
0
 62
     7
370
     0
  0
POLYLINE
  5
A5EE
330
A543
100
AcDbEntity
  8
0
 62
     7
370
     0
100
AcDb2dPolyline
 66
     1
 10
0.0
 20
0.0
 30
0.0
  0
VERTEX
  5
A5EF
330
A5EE
100
AcDbEntity
  8
0
 62
     7
370
     0
100
AcDbVertex
100
AcDb2dVertex
 10
0.0
 20
0.0
 30
0.0
  0
VERTEX
  5
A5F0
330
A5EE
100
AcDbEntity
  8
0
 62
     7
370
     0
100
AcDbVertex
100
AcDb2dVertex
 10
0.0
 20
-90950.94564845281
 30
0.0
  0
SEQEND
  5
A5F1
330
A5EE
100
AcDbEntity
  8
0
 62
     7
370
     0
  0
POLYLINE
  5
A5F2
330
A543
100
AcDbEntity
  8
0
 62
     7
370
     0
100
AcDb2dPolyline
 66
     1
 10
0.0
 20
0.0
 30
0.0
  0
VERTEX
  5
A5F3
330
A5F2
100
AcDbEntity
  8
0
 62
     7
370
     0
100
AcDbVertex
100
AcDb2dVertex
 10
4044.176391180021
 20
-68234.72081288843
 30
0.0
  0
VERTEX
  5
A5F4
330
A5F2
100
AcDbEntity
  8
0
 62
     7
370
     0
100
AcDbVertex
100
AcDb2dVertex
 10
4044.176391180021
 20
-72623.08242884974
 30
0.0
  0
SEQEND
  5
A5F5
330
A5F2
100
AcDbEntity
  8
0
 62
     7
370
     0
  0
POLYLINE
  5
A5F6
330
A543
100
AcDbEntity
  8
0
 62
     7
370
     0
100
AcDb2dPolyline
 66
     1
 10
0.0
 20
0.0
 30
0.0
  0
VERTEX
  5
A5F7
330
A5F6
100
AcDbEntity
  8
0
 62
     7
370
     0
100
AcDbVertex
100
AcDb2dVertex
 10
19618.55781253287
 20
-86.04630619531958
 30
0.0
  0
VERTEX
  5
A5F8
330
A5F6
100
AcDbEntity
  8
0
 62
     7
370
     0
100
AcDbVertex
100
AcDb2dVertex
 10
19618.55781253287
 20
-90950.94564845281
 30
0.0
  0
SEQEND
  5
A5F9
330
A5F6
100
AcDbEntity
  8
0
 62
     7
370
     0
  0
POLYLINE
  5
A5FA
330
A543
100
AcDbEntity
  8
0
 62
     7
370
     0
100
AcDb2dPolyline
 66
     1
 10
0.0
 20
0.0
 30
0.0
  0
VERTEX
  5
A5FB
330
A5FA
100
AcDbEntity
  8
0
 62
     7
370
     0
100
AcDbVertex
100
AcDb2dVertex
 10
23662.73420371289
 20
-68234.72081288843
 30
0.0
  0
VERTEX
  5
A5FC
330
A5FA
100
AcDbEntity
  8
0
 62
     7
370
     0
100
AcDbVertex
100
AcDb2dVertex
 10
23662.73420371289
 20
-72623.08242884974
 30
0.0
  0
SEQEND
  5
A5FD
330
A5FA
100
AcDbEntity
  8
0
 62
     7
370
     0
  0
POLYLINE
  5
A5FE
330
A543
100
AcDbEntity
  8
0
 62
     7
370
     0
100
AcDb2dPolyline
 66
     1
 10
0.0
 20
0.0
 30
0.0
  0
VERTEX
  5
A5FF
330
A5FE
100
AcDbEntity
  8
0
 62
     7
370
     0
100
AcDbVertex
100
AcDb2dVertex
 10
39237.11562506574
 20
-86.04630619531958
 30
0.0
  0
VERTEX
  5
A600
330
A5FE
100
AcDbEntity
  8
0
 62
     7
370
     0
100
AcDbVertex
100
AcDb2dVertex
 10
39237.11562506574
 20
-90950.94564845281
 30
0.0
  0
SEQEND
  5
A601
330
A5FE
100
AcDbEntity
  8
0
 62
     7
370
     0
  0
POLYLINE
  5
A602
330
A543
100
AcDbEntity
  8
0
 62
     7
370
     0
100
AcDb2dPolyline
 66
     1
 10
0.0
 20
0.0
 30
0.0
  0
VERTEX
  5
A603
330
A602
100
AcDbEntity
  8
0
 62
     7
370
     0
100
AcDbVertex
100
AcDb2dVertex
 10
43281.29201624575
 20
-68234.72081288843
 30
0.0
  0
VERTEX
  5
A604
330
A602
100
AcDbEntity
  8
0
 62
     7
370
     0
100
AcDbVertex
100
AcDb2dVertex
 10
43281.29201624575
 20
-72623.08242884974
 30
0.0
  0
SEQEND
  5
A605
330
A602
100
AcDbEntity
  8
0
 62
     7
370
     0
  0
POLYLINE
  5
A606
330
A543
100
AcDbEntity
  8
0
 62
     7
370
     0
100
AcDb2dPolyline
 66
     1
 10
0.0
 20
0.0
 30
0.0
  0
VERTEX
  5
A607
330
A606
100
AcDbEntity
  8
0
 62
     7
370
     0
100
AcDbVertex
100
AcDb2dVertex
 10
58855.6734375986
 20
-86.04630619531958
 30
0.0
  0
VERTEX
  5
A608
330
A606
100
AcDbEntity
  8
0
 62
     7
370
     0
100
AcDbVertex
100
AcDb2dVertex
 10
58855.6734375986
 20
-90950.94564845281
 30
0.0
  0
SEQEND
  5
A609
330
A606
100
AcDbEntity
  8
0
 62
     7
370
     0
  0
POLYLINE
  5
A60A
330
A543
100
AcDbEntity
  8
0
 62
     7
370
     0
100
AcDb2dPolyline
 66
     1
 10
0.0
 20
0.0
 30
0.0
  0
VERTEX
  5
A60B
330
A60A
100
AcDbEntity
  8
0
 62
     7
370
     0
100
AcDbVertex
100
AcDb2dVertex
 10
62899.84982877862
 20
-68234.72081288843
 30
0.0
  0
VERTEX
  5
A60C
330
A60A
100
AcDbEntity
  8
0
 62
     7
370
     0
100
AcDbVertex
100
AcDb2dVertex
 10
62899.84982877862
 20
-72623.08242884974
 30
0.0
  0
SEQEND
  5
A60D
330
A60A
100
AcDbEntity
  8
0
 62
     7
370
     0
  0
POLYLINE
  5
A60E
330
A543
100
AcDbEntity
  8
0
 62
     7
370
     0
100
AcDb2dPolyline
 66
     1
 10
0.0
 20
0.0
 30
0.0
  0
VERTEX
  5
A60F
330
A60E
100
AcDbEntity
  8
0
 62
     7
370
     0
100
AcDbVertex
100
AcDb2dVertex
 10
78474.23125013147
 20
-86.04630619531958
 30
0.0
  0
VERTEX
  5
A610
330
A60E
100
AcDbEntity
  8
0
 62
     7
370
     0
100
AcDbVertex
100
AcDb2dVertex
 10
78474.23125013147
 20
-90950.94564845281
 30
0.0
  0
SEQEND
  5
A611
330
A60E
100
AcDbEntity
  8
0
 62
     7
370
     0
  0
POLYLINE
  5
A612
330
A543
100
AcDbEntity
  8
0
 62
     7
370
     0
100
AcDb2dPolyline
 66
     1
 10
0.0
 20
0.0
 30
0.0
  0
VERTEX
  5
A613
330
A612
100
AcDbEntity
  8
0
 62
     7
370
     0
100
AcDbVertex
100
AcDb2dVertex
 10
86.04630619531958
 20
0.0
 30
0.0
  0
VERTEX
  5
A614
330
A612
100
AcDbEntity
  8
0
 62
     7
370
     0
100
AcDbVertex
100
AcDb2dVertex
 10
78560.2775563268
 20
0.0
 30
0.0
  0
SEQEND
  5
A615
330
A612
100
AcDbEntity
  8
0
 62
     7
370
     0
  0
POLYLINE
  5
A616
330
A543
100
AcDbEntity
  8
0
 62
     7
370
     0
100
AcDb2dPolyline
 66
     1
 10
0.0
 20
0.0
 30
0.0
  0
VERTEX
  5
A617
330
A616
100
AcDbEntity
  8
0
 62
     7
370
     0
100
AcDbVertex
100
AcDb2dVertex
 10
62985.89613497393
 20
-1462.787205320433
 30
0.0
  0
VERTEX
  5
A618
330
A616
100
AcDbEntity
  8
0
 62
     7
370
     0
100
AcDbVertex
100
AcDb2dVertex
 10
78560.2775563268
 20
-1462.787205320433
 30
0.0
  0
SEQEND
  5
A619
330
A616
100
AcDbEntity
  8
0
 62
     7
370
     0
  0
POLYLINE
  5
A61A
330
A543
100
AcDbEntity
  8
0
 62
     7
370
     0
100
AcDb2dPolyline
 66
     1
 10
0.0
 20
0.0
 30
0.0
  0
VERTEX
  5
A61B
330
A61A
100
AcDbEntity
  8
0
 62
     7
370
     0
100
AcDbVertex
100
AcDb2dVertex
 10
86.04630619531958
 20
-4388.361615961299
 30
0.0
  0
VERTEX
  5
A61C
330
A61A
100
AcDbEntity
  8
0
 62
     7
370
     0
100
AcDbVertex
100
AcDb2dVertex
 10
78560.2775563268
 20
-4388.361615961299
 30
0.0
  0
SEQEND
  5
A61D
330
A61A
100
AcDbEntity
  8
0
 62
     7
370
     0
  0
POLYLINE
  5
A61E
330
A543
100
AcDbEntity
  8
0
 62
     7
370
     0
100
AcDb2dPolyline
 66
     1
 10
0.0
 20
0.0
 30
0.0
  0
VERTEX
  5
A61F
330
A61E
100
AcDbEntity
  8
0
 62
     7
370
     0
100
AcDbVertex
100
AcDb2dVertex
 10
86.04630619531958
 20
-22716.22483556437
 30
0.0
  0
VERTEX
  5
A620
330
A61E
100
AcDbEntity
  8
0
 62
     7
370
     0
100
AcDbVertex
100
AcDb2dVertex
 10
78560.2775563268
 20
-22716.22483556437
 30
0.0
  0
SEQEND
  5
A621
330
A61E
100
AcDbEntity
  8
0
 62
     7
370
     0
  0
POLYLINE
  5
A622
330
A543
100
AcDbEntity
  8
0
 62
     7
370
     0
100
AcDb2dPolyline
 66
     1
 10
0.0
 20
0.0
 30
0.0
  0
VERTEX
  5
A623
330
A622
100
AcDbEntity
  8
0
 62
     7
370
     0
100
AcDbVertex
100
AcDb2dVertex
 10
62985.89613497393
 20
-24179.0120408848
 30
0.0
  0
VERTEX
  5
A624
330
A622
100
AcDbEntity
  8
0
 62
     7
370
     0
100
AcDbVertex
100
AcDb2dVertex
 10
78560.2775563268
 20
-24179.0120408848
 30
0.0
  0
SEQEND
  5
A625
330
A622
100
AcDbEntity
  8
0
 62
     7
370
     0
  0
POLYLINE
  5
A626
330
A543
100
AcDbEntity
  8
0
 62
     7
370
     0
100
AcDb2dPolyline
 66
     1
 10
0.0
 20
0.0
 30
0.0
  0
VERTEX
  5
A627
330
A626
100
AcDbEntity
  8
0
 62
     7
370
     0
100
AcDbVertex
100
AcDb2dVertex
 10
86.04630619531958
 20
-27104.58645152567
 30
0.0
  0
VERTEX
  5
A628
330
A626
100
AcDbEntity
  8
0
 62
     7
370
     0
100
AcDbVertex
100
AcDb2dVertex
 10
78560.2775563268
 20
-27104.58645152567
 30
0.0
  0
SEQEND
  5
A629
330
A626
100
AcDbEntity
  8
0
 62
     7
370
     0
  0
POLYLINE
  5
A62A
330
A543
100
AcDbEntity
  8
0
 62
     7
370
     0
100
AcDb2dPolyline
 66
     1
 10
0.0
 20
0.0
 30
0.0
  0
VERTEX
  5
A62B
330
A62A
100
AcDbEntity
  8
0
 62
     7
370
     0
100
AcDbVertex
100
AcDb2dVertex
 10
86.04630619531958
 20
-45432.44967112874
 30
0.0
  0
VERTEX
  5
A62C
330
A62A
100
AcDbEntity
  8
0
 62
     7
370
     0
100
AcDbVertex
100
AcDb2dVertex
 10
78560.2775563268
 20
-45432.44967112874
 30
0.0
  0
SEQEND
  5
A62D
330
A62A
100
AcDbEntity
  8
0
 62
     7
370
     0
  0
POLYLINE
  5
A62E
330
A543
100
AcDbEntity
  8
0
 62
     7
370
     0
100
AcDb2dPolyline
 66
     1
 10
0.0
 20
0.0
 30
0.0
  0
VERTEX
  5
A62F
330
A62E
100
AcDbEntity
  8
0
 62
     7
370
     0
100
AcDbVertex
100
AcDb2dVertex
 10
62985.89613497393
 20
-46895.23687644918
 30
0.0
  0
VERTEX
  5
A630
330
A62E
100
AcDbEntity
  8
0
 62
     7
370
     0
100
AcDbVertex
100
AcDb2dVertex
 10
78560.2775563268
 20
-46895.23687644918
 30
0.0
  0
SEQEND
  5
A631
330
A62E
100
AcDbEntity
  8
0
 62
     7
370
     0
  0
POLYLINE
  5
A632
330
A543
100
AcDbEntity
  8
0
 62
     7
370
     0
100
AcDb2dPolyline
 66
     1
 10
0.0
 20
0.0
 30
0.0
  0
VERTEX
  5
A633
330
A632
100
AcDbEntity
  8
0
 62
     7
370
     0
100
AcDbVertex
100
AcDb2dVertex
 10
86.04630619531958
 20
-49820.81128709004
 30
0.0
  0
VERTEX
  5
A634
330
A632
100
AcDbEntity
  8
0
 62
     7
370
     0
100
AcDbVertex
100
AcDb2dVertex
 10
78560.2775563268
 20
-49820.81128709004
 30
0.0
  0
SEQEND
  5
A635
330
A632
100
AcDbEntity
  8
0
 62
     7
370
     0
  0
POLYLINE
  5
A636
330
A543
100
AcDbEntity
  8
0
 62
     7
370
     0
100
AcDb2dPolyline
 66
     1
 10
0.0
 20
0.0
 30
0.0
  0
VERTEX
  5
A637
330
A636
100
AcDbEntity
  8
0
 62
     7
370
     0
100
AcDbVertex
100
AcDb2dVertex
 10
86.04630619531958
 20
-68148.67450669312
 30
0.0
  0
VERTEX
  5
A638
330
A636
100
AcDbEntity
  8
0
 62
     7
370
     0
100
AcDbVertex
100
AcDb2dVertex
 10
78560.2775563268
 20
-68148.67450669312
 30
0.0
  0
SEQEND
  5
A639
330
A636
100
AcDbEntity
  8
0
 62
     7
370
     0
  0
POLYLINE
  5
A63A
330
A543
100
AcDbEntity
  8
0
 62
     7
370
     0
100
AcDb2dPolyline
 66
     1
 10
0.0
 20
0.0
 30
0.0
  0
VERTEX
  5
A63B
330
A63A
100
AcDbEntity
  8
0
 62
     7
370
     0
100
AcDbVertex
100
AcDb2dVertex
 10
62985.89613497393
 20
-69611.46171201355
 30
0.0
  0
VERTEX
  5
A63C
330
A63A
100
AcDbEntity
  8
0
 62
     7
370
     0
100
AcDbVertex
100
AcDb2dVertex
 10
78560.2775563268
 20
-69611.46171201355
 30
0.0
  0
SEQEND
  5
A63D
330
A63A
100
AcDbEntity
  8
0
 62
     7
370
     0
  0
POLYLINE
  5
A63E
330
A543
100
AcDbEntity
  8
0
 62
     7
370
     0
100
AcDb2dPolyline
 66
     1
 10
0.0
 20
0.0
 30
0.0
  0
VERTEX
  5
A63F
330
A63E
100
AcDbEntity
  8
0
 62
     7
370
     0
100
AcDbVertex
100
AcDb2dVertex
 10
86.04630619531958
 20
-72537.03612265442
 30
0.0
  0
VERTEX
  5
A640
330
A63E
100
AcDbEntity
  8
0
 62
     7
370
     0
100
AcDbVertex
100
AcDb2dVertex
 10
78560.2775563268
 20
-72537.03612265442
 30
0.0
  0
SEQEND
  5
A641
330
A63E
100
AcDbEntity
  8
0
 62
     7
370
     0
  0
POLYLINE
  5
A642
330
A543
100
AcDbEntity
  8
0
 62
     7
370
     0
100
AcDb2dPolyline
 66
     1
 10
0.0
 20
0.0
 30
0.0
  0
VERTEX
  5
A643
330
A642
100
AcDbEntity
  8
0
 62
     7
370
     0
100
AcDbVertex
100
AcDb2dVertex
 10
86.04630619531958
 20
-90864.89934225749
 30
0.0
  0
VERTEX
  5
A644
330
A642
100
AcDbEntity
  8
0
 62
     7
370
     0
100
AcDbVertex
100
AcDb2dVertex
 10
78560.2775563268
 20
-90864.89934225749
 30
0.0
  0
SEQEND
  5
A645
330
A642
100
AcDbEntity
  8
0
 62
     7
370
     0
  0
ENDBLK
  5
A646
330
A543
100
AcDbEntity
  8
0
 62
     7
370
     0
100
AcDbBlockEnd
  0
BLOCK
  5
1384F
330
1384E
100
AcDbEntity
  8
0
 62
     7
100
AcDbBlockBegin
  2
_Open
 70
     0
 10
0.0
 20
0.0
 30
0.0
  3
_Open
  1

  0
LINE
  5
13850
330
1384E
100
AcDbEntity
  8
0
  6
ByBlock
 62
     0
370
    -2
100
AcDbLine
 10
-1.0
 20
0.1666666666666666
 30
0.0
 11
0.0
 21
0.0
 31
0.0
  0
LINE
  5
13851
330
1384E
100
AcDbEntity
  8
0
  6
ByBlock
 62
     0
370
    -2
100
AcDbLine
 10
-1.0
 20
-0.1666666666666666
 30
0.0
 11
0.0
 21
0.0
 31
0.0
  0
LINE
  5
13852
330
1384E
100
AcDbEntity
  8
0
  6
ByBlock
 62
     0
370
    -2
100
AcDbLine
 10
0.0
 20
0.0
 30
0.0
 11
-1.0
 21
0.0
 31
0.0
  0
ENDBLK
  5
13853
330
1384E
100
AcDbEntity
  8
0
 62
     7
100
AcDbBlockEnd
  0
ENDSEC
  0
SECTION
  2
ENTITIES
  0
TEXT
  5
12F8B
330
1F07
100
AcDbEntity
  8
0
 62
     7
100
AcDbText
 10
2936.041720299844
 20
-84718.75552897397
 30
0.0
 40
299.9999947731441
  1
 
  7
WMF-ＭＳ Ｐゴシック0
100
AcDbText
  0
MTEXT
  5
13657
330
1F07
100
AcDbEntity
  8
記号
 62
     2
100
AcDbMText
 10
6610.22541301771
 20
-79844.07944215227
 30
0.0
 40
300.0001909587983
 41
2900.001845935049
 71
     5
 72
     5
  1
Re:ray
  7
スタイル1
 73
     1
 44
1.0
1001
ACAD
1000
MTEXTBEGIN
1070
    73
1070
     1
1070
    44
1040
1.0
1070
    74
1070
     0
1000
MTEXTEND
  0
TEXT
  5
13658
330
1F07
100
AcDbEntity
  8
0
 62
     7
100
AcDbText
 10
2936.041720299844
 20
-78170.67871998322
 30
0.0
 40
299.9999947731441
  1
LEDｱｳﾄﾄﾞｱｽﾎﾟｯﾄﾗｲﾄ
  7
WMF-ＭＳ Ｐゴシック0
100
AcDbText
  0
TEXT
  5
13659
330
1F07
100
AcDbEntity
  8
0
 62
     7
100
AcDbText
 10
2936.041720299844
 20
-78661.06332682394
 30
0.0
 40
299.9999947731441
  1
BGSL-20054GW-40
  7
WMF-ＭＳ Ｐゴシック0
100
AcDbText
  0
TEXT
  5
1365A
330
1F07
100
AcDbEntity
  8
0
 62
     7
100
AcDbText
 10
4414.853686555063
 20
-79151.44793366464
 30
0.0
 40
299.9999947731441
  1
LED50W  (4500K)
  7
WMF-ＭＳ Ｐゴシック0
100
AcDbText
  0
SPLINE
  5
1365B
330
1F07
100
AcDbEntity
  8
器具
100
AcDbSpline
210
0.0
220
0.0
230
1.0
 70
     8
 71
     3
 72
    15
 73
    11
 74
     9
 42
0.0000000001
 43
0.0000000001
 44
0.0000000001
 40
0.0
 40
0.0
 40
0.0
 40
0.0
 40
48.50842630931611
 40
105.0016066508755
 40
204.0803402442786
 40
275.1817860850898
 40
339.2480258811329
 40
454.5683038597815
 40
496.18797283971
 40
522.6494947828747
 40
522.6494947828747
 40
522.6494947828747
 40
522.6494947828747
 10
4572.721772716053
 20
-82295.885066086
 30
0.0
 10
4575.505738921485
 20
-82311.81010228119
 30
0.0
 10
4581.531927496811
 20
-82346.28152330421
 30
0.0
 10
4613.099503743851
 20
-82409.4199542193
 30
0.0
 10
4682.106709755264
 20
-82446.10562817552
 30
0.0
 10
4734.4087122977
 20
-82507.24355177329
 30
0.0
 10
4755.006895019579
 20
-82589.47485122821
 30
0.0
 10
4782.612205208358
 20
-82656.73174333993
 30
0.0
 10
4832.815886460012
 20
-82702.88010868421
 30
0.0
 10
4855.984381702632
 20
-82697.73845035983
 30
0.0
 10
4864.989418731806
 20
-82695.740011397
 30
0.0
 11
4572.721772716053
 21
-82295.885066086
 31
0.0
 11
4583.253938908223
 21
-82343.23631631559
 31
0.0
 11
4609.584377128874
 21
-82393.21818751118
 31
0.0
 11
4685.942547947645
 21
-82456.35316355208
 31
0.0
 11
4730.704265644704
 21
-82511.59630094907
 31
0.0
 11
4751.768598033115
 21
-82572.1006560207
 31
0.0
 11
4804.429429010906
 21
-82674.69501938341
 31
0.0
 11
4838.658980511558
 21
-82698.3706323652
 31
0.0
 11
4864.989418731806
 21
-82695.740011397
 31
0.0
  0
SPLINE
  5
1365C
330
1F07
100
AcDbEntity
  8
器具
100
AcDbSpline
210
0.0
220
0.0
230
1.0
 70
     8
 71
     3
 72
    11
 73
     7
 74
     5
 42
0.0000000001
 43
0.0000000001
 44
0.0000000001
 40
0.0
 40
0.0
 40
0.0
 40
0.0
 40
56.92521076737859
 40
109.8752529644207
 40
158.2451255523992
 40
224.0107468252754
 40
224.0107468252754
 40
224.0107468252754
 40
224.0107468252754
 10
5294.538256065724
 20
-82490.84186396896
 30
0.0
 10
5305.657058835127
 20
-82475.36614282099
 30
0.0
 10
5327.118222535371
 20
-82445.49539218136
 30
0.0
 10
5348.584105667606
 20
-82397.51646944169
 30
0.0
 10
5375.033489400639
 20
-82346.92706653641
 30
0.0
 10
5370.738322698768
 20
-82308.05276508851
 30
0.0
 10
5368.263419431926
 20
-82285.65313724457
 30
0.0
 11
5294.538256065724
 21
-82490.84186396896
 31
0.0
 11
5326.134754650294
 21
-82443.49061374148
 31
0.0
 11
5349.832139958941
 21
-82396.13936351299
 31
0.0
 11
5368.263419431926
 21
-82351.41875851745
 31
0.0
 11
5368.263419431926
 21
-82285.65313724457
 31
0.0
  0
SPLINE
  5
1365D
330
1F07
100
AcDbEntity
  8
器具
100
AcDbSpline
210
0.0
220
0.0
230
1.0
 70
     8
 71
     3
 72
    10
 73
     6
 74
     0
 42
0.0000000001
 43
0.0000000001
 40
0.3130521134878434
 40
0.3130521134878434
 40
0.3130521134878434
 40
0.3130521134878434
 40
0.8600356954146823
 40
1.58343926116478
 40
2.75973310524874
 40
2.75973310524874
 40
2.75973310524874
 40
2.75973310524874
 10
5109.249350800343
 20
-82339.84817002538
 30
0.0
 10
5108.513536367006
 20
-82349.93943362947
 30
0.0
 10
5105.785678743978
 20
-82373.23541458199
 30
0.0
 10
5088.011080535641
 20
-82416.36545723842
 30
0.0
 10
5059.450778865335
 20
-82437.9915723925
 30
0.0
 10
5041.766221915361
 20
-82451.38247664712
 30
0.0
  0
SPLINE
  5
1365E
330
1F07
100
AcDbEntity
  8
器具
100
AcDbSpline
210
0.0
220
0.0
230
1.0
 70
     8
 71
     3
 72
    21
 73
    17
 74
    15
 42
0.0000000001
 43
0.0000000001
 44
0.0000000001
 40
0.0
 40
0.0
 40
0.0
 40
0.0
 40
37.17213995657535
 40
63.12650585003807
 40
85.51414900447902
 40
116.3906988056587
 40
136.946723031585
 40
157.0233323290557
 40
177.1628174356995
 40
204.3743497693579
 40
223.6154727938963
 40
247.1418133474901
 40
285.0166742911276
 40
313.3385328665376
 40
351.4569659287584
 40
375.246163470131
 40
375.246163470131
 40
375.246163470131
 40
375.246163470131
 10
4572.721772716053
 20
-81806.58886225744
 30
0.0
 10
4571.789562869942
 20
-81794.0718297512
 30
0.0
 10
4570.206464604072
 20
-81772.81514324748
 30
0.0
 10
4556.977759323534
 20
-81747.17792068294
 30
0.0
 10
4543.456922590769
 20
-81724.42768400156
 30
0.0
 10
4526.980900828055
 20
-81706.27392331786
 30
0.0
 10
4510.168297398538
 20
-81688.51965938321
 30
0.0
 10
4489.925449612971
 20
-81683.35542868303
 30
0.0
 10
4467.749207244926
 20
-81680.2799834377
 30
0.0
 10
4445.523262410239
 20
-81680.61761996314
 30
0.0
 10
4421.986121912201
 20
-81682.63468969875
 30
0.0
 10
4398.088733610988
 20
-81696.54923387229
 30
0.0
 10
4377.182015204076
 20
-81717.56962750405
 30
0.0
 10
4352.090035792909
 20
-81742.95399128402
 30
0.0
 10
4346.868718549814
 20
-81773.75430534585
 30
0.0
 10
4340.175754848398
 20
-81793.18931026816
 30
0.0
 10
4337.603854840632
 20
-81800.65758464417
 30
0.0
 11
4572.721772716053
 21
-81806.58886225744
 31
0.0
 11
4567.087953305406
 21
-81769.84613416331
 31
0.0
 11
4556.203303996637
 21
-81746.28443816414
 31
0.0
 11
4544.411646053776
 21
-81727.25384781678
 31
0.0
 11
4524.456501122659
 21
-81703.69215181665
 31
0.0
 11
4509.036626740416
 21
-81690.09885913192
 31
0.0
 11
4489.98853591912
 21
-81683.75532092781
 31
0.0
 11
4470.033390996316
 21
-81681.03667209603
 31
0.0
 11
4442.821858662656
 21
-81681.03667209603
 31
0.0
 11
4423.7737678456
 21
-81683.75532092781
 31
0.0
 11
4402.911568809137
 21
-81694.62994051686
 31
0.0
 11
4374.792936902387
 21
-81720.0040933341
 31
0.0
 11
4356.65190019532
 21
-81741.75335677816
 31
0.0
 11
4344.86024224765
 21
-81778.00210492156
 31
0.0
 11
4337.603854840632
 21
-81800.65758464417
 31
0.0
  0
SPLINE
  5
1365F
330
1F07
100
AcDbEntity
  8
器具
100
AcDbSpline
210
0.0
220
0.0
230
1.0
 70
     8
 71
     3
 72
    19
 73
    15
 74
    13
 42
0.0000000001
 43
0.0000000001
 44
0.0000000001
 40
0.0
 40
0.0
 40
0.0
 40
0.0
 40
28.65632436682101
 40
76.7728670839519
 40
132.1540776906998
 40
171.9972900539677
 40
220.5678834541483
 40
252.236970476514
 40
287.6432410060969
 40
330.1985639147612
 40
368.0044879383618
 40
414.5697201652339
 40
450.9580429605872
 40
488.643754818886
 40
488.643754818886
 40
488.643754818886
 40
488.643754818886
 10
4355.121897092892
 20
-82225.40592640971
 30
0.0
 10
4355.239033988171
 20
-82235.01126940119
 30
0.0
 10
4355.552854252651
 20
-82260.7448460924
 30
0.0
 10
4370.814244148472
 20
-82302.55497105947
 30
0.0
 10
4381.587467626504
 20
-82349.52624944178
 30
0.0
 10
4407.483012362595
 20
-82390.30418194785
 30
0.0
 10
4430.923003787097
 20
-82423.02115846198
 30
0.0
 10
4460.565510664497
 20
-82447.95797268926
 30
0.0
 10
4487.59995136508
 20
-82472.29789224192
 30
0.0
 10
4510.382916592893
 20
-82505.3654714525
 30
0.0
 10
4513.373751824221
 20
-82548.42662581493
 30
0.0
 10
4520.780540568571
 20
-82587.52024479679
 30
0.0
 10
4532.459157241007
 20
-82627.29174242787
 30
0.0
 10
4551.172569371535
 20
-82644.14393115055
 30
0.0
 10
4560.693155913555
 20
-82652.71760654643
 30
0.0
 11
4355.121897092892
 21
-82225.40592640971
 31
0.0
 11
4356.664811998828
 21
-82254.02068378784
 31
0.0
 11
4369.073281286247
 21
-82300.50973167003
 31
0.0
 11
4386.13490951811
 21
-82353.19729500661
 31
0.0
 11
4406.182664798048
 21
-82387.62938875154
 31
0.0
 11
4436.019202900759
 21
-82425.95540520632
 31
0.0
 11
4459.462171143655
 21
-82447.24761769804
 31
0.0
 11
4485.036314186676
 21
-82471.73367904791
 31
0.0
 11
4507.413695030972
 21
-82507.9304791055
 31
0.0
 11
4513.80721942809
 21
-82545.19186309835
 31
0.0
 11
4522.331918621424
 21
-82590.97013694091
 31
0.0
 11
4535.119012870534
 21
-82625.03772060227
 31
0.0
 11
4560.693155913555
 21
-82652.71760654643
 31
0.0
  0
ELLIPSE
  5
13660
330
1F07
100
AcDbEntity
  8
器具
100
AcDbEllipse
 10
5054.341612621364
 20
-82612.44766167198
 30
0.0
 11
-102.1729325693474
 21
-18.73012368937361
 31
0.0
210
0.0
220
0.0
230
1.0
 40
0.3954365912986051
 41
0.4666888995868687
 42
3.873321145786576
  0
SPLINE
  5
13661
330
1F07
100
AcDbEntity
  8
器具
100
AcDbSpline
210
0.0
220
0.0
230
1.0
 70
     8
 71
     3
 72
    14
 73
    10
 74
     8
 42
0.0000000001
 43
0.0000000001
 44
0.0000000001
 40
0.0
 40
0.0
 40
0.0
 40
0.0
 40
58.46297882093441
 40
119.2531427572775
 40
204.6842759331248
 40
284.3736571537437
 40
350.8804670941876
 40
402.5290531819175
 40
437.3480493247484
 40
437.3480493247484
 40
437.3480493247484
 40
437.3480493247484
 10
5156.984552979506
 20
-82774.75317093159
 30
0.0
 10
5141.245529829681
 20
-82786.33014379478
 30
0.0
 10
5109.140973879926
 20
-82809.94492404364
 30
0.0
 10
5043.867253271677
 20
-82834.07304857364
 30
0.0
 10
4968.218272046126
 20
-82834.68752756391
 30
0.0
 10
4890.048797581695
 20
-82838.34869756656
 30
0.0
 10
4827.406117808927
 20
-82819.44793101835
 30
0.0
 10
4774.767000921779
 20
-82808.36708480423
 30
0.0
 10
4756.974701057031
 20
-82784.71494704696
 30
0.0
 10
4749.810050393956
 20
-82775.19064126559
 30
0.0
 11
5156.984552979506
 21
-82774.75317093159
 31
0.0
 11
5108.343429734708
 21
-82807.18711953644
 31
0.0
 11
5051.321819404886
 21
-82828.2579521446
 31
0.0
 11
4966.179894993569
 21
-82835.28157110117
 31
0.0
 11
4886.505800589941
 21
-82833.72075071213
 31
0.0
 11
4821.67295906951
 21
-82818.89312686873
 31
0.0
 11
4773.243607572301
 21
-82800.94391077383
 31
0.0
 11
4749.810050393956
 21
-82775.19064126559
 31
0.0
  0
SPLINE
  5
13662
330
1F07
100
AcDbEntity
  8
器具
100
AcDbSpline
 70
     0
 71
     3
 72
     8
 73
     4
 74
     0
 42
0.0000000001
 43
0.0000000001
 40
0.0
 40
0.0
 40
0.0
 40
0.0
 40
0.2364919705947375
 40
0.2364919705947375
 40
0.2364919705947375
 40
0.2364919705947375
 10
4749.810050393956
 20
-82775.19064126559
 30
0.0
 10
4747.117121268391
 20
-82771.75283862817
 30
0.0
 10
4744.424192143313
 20
-82768.31503599272
 30
0.0
 10
4741.731263022473
 20
-82764.87723335627
 30
0.0
  0
SPLINE
  5
13663
330
1F07
100
AcDbEntity
  8
器具
100
AcDbSpline
210
0.0
220
0.0
230
1.0
 70
     8
 71
     3
 72
    10
 73
     6
 74
     0
 42
0.0000000001
 43
0.0000000001
 40
0.1173440344217935
 40
0.1173440344217935
 40
0.1173440344217935
 40
0.1173440344217935
 40
2.112344147919035
 40
3.776864906071691
 40
5.182479075873573
 40
5.182479075873573
 40
5.182479075873573
 40
5.182479075873573
 10
5088.544604694169
 20
-82336.15820176076
 30
0.0
 10
5055.547684989484
 20
-82352.39590218247
 30
0.0
 10
4994.991291139904
 20
-82382.16483113836
 30
0.0
 10
4909.867289265105
 20
-82422.60765760811
 30
0.0
 10
4853.953147867997
 20
-82432.72893726755
 30
0.0
 10
4828.192464760552
 20
-82436.82532290373
 30
0.0
  0
SPLINE
  5
13664
330
1F07
100
AcDbEntity
  8
器具
100
AcDbSpline
210
0.0
220
0.0
230
1.0
 70
     8
 71
     3
 72
    12
 73
     8
 74
     0
 42
0.0000000001
 43
0.0000000001
 40
0.0
 40
0.0
 40
0.0
 40
0.0
 40
1.514413948847701
 40
2.661488699554009
 40
4.035060966216514
 40
5.579194620125961
 40
6.006458861153994
 40
6.006458861153994
 40
6.006458861153994
 40
6.006458861153994
 10
4159.260495426144
 20
-81993.26526631505
 30
0.0
 10
4171.666342036846
 20
-82018.35707917521
 30
0.0
 10
4193.468848935444
 20
-82062.4543858752
 30
0.0
 10
4235.100988951697
 20
-82124.51528066793
 30
0.0
 10
4283.395135424497
 20
-82181.91051339498
 30
0.0
 10
4323.543084038269
 20
-82229.25123567957
 30
0.0
 10
4351.186887589945
 20
-82252.89819867457
 30
0.0
 10
4357.275188453775
 20
-82257.9196084488
 30
0.0
  0
SPLINE
  5
13665
330
1F07
100
AcDbEntity
  8
器具
100
AcDbSpline
210
0.0
220
0.0
230
1.0
 70
     8
 71
     3
 72
    16
 73
    12
 74
     0
 42
0.0000000001
 43
0.0000000001
 40
0.4491976626629266
 40
0.4491976626629266
 40
0.4491976626629266
 40
0.4491976626629266
 40
1.64844483254703
 40
3.422777163729845
 40
4.175566251412356
 40
4.736801213540386
 40
5.30508405851055
 40
5.813524762738438
 40
6.15536248057692
 40
6.891817359182198
 40
7.439384515920401
 40
7.439384515920401
 40
7.439384515920401
 40
7.439384515920401
 10
4271.729014553886
 20
-82167.99058136306
 30
0.0
 10
4268.692185262953
 20
-82189.98381881574
 30
0.0
 10
4261.707946645874
 20
-82244.47941105728
 30
0.0
 10
4259.178087314474
 20
-82312.34361456918
 30
0.0
 10
4257.932105808206
 20
-82371.31470475256
 30
0.0
 10
4277.912651859631
 20
-82401.17114626878
 30
0.0
 10
4302.020899803028
 20
-82420.96830966556
 30
0.0
 10
4328.923795979539
 20
-82424.8353844665
 30
0.0
 10
4357.995143107393
 20
-82422.00320476936
 30
0.0
 10
4388.045309361805
 20
-82418.38126940557
 30
0.0
 10
4410.425229667267
 20
-82410.67716238081
 30
0.0
 10
4419.852251768286
 20
-82406.97329129812
 30
0.0
  0
SPLINE
  5
13666
330
1F07
100
AcDbEntity
  8
器具
100
AcDbSpline
210
0.0
220
0.0
230
1.0
 70
     8
 71
     3
 72
    20
 73
    16
 74
     0
 42
0.0000000001
 43
0.0000000001
 40
0.2710092293797941
 40
0.2710092293797941
 40
0.2710092293797941
 40
0.2710092293797941
 40
1.091687521501822
 40
2.410546380097729
 40
3.968862913595355
 40
4.582668819879113
 40
5.795062067720582
 40
6.635707280455729
 40
7.279336651339573
 40
8.117985264336946
 40
8.793988400897404
 40
9.833250026302325
 40
10.79501158635508
 40
11.914717308802
 40
12.40433390773178
 40
12.40433390773178
 40
12.40433390773178
 40
12.40433390773178
 10
4209.055328772927
 20
-82084.95579614206
 30
0.0
 10
4205.865480767817
 20
-82099.77113792291
 30
0.0
 10
4197.609137632873
 20
-82138.40703453858
 30
0.0
 10
4184.422986497484
 20
-82205.39692157023
 30
0.0
 10
4174.808317529979
 20
-82269.24334052757
 30
0.0
 10
4172.218980066886
 20
-82331.82109670817
 30
0.0
 10
4176.565996859328
 20
-82380.70966290823
 30
0.0
 10
4189.609716095066
 20
-82430.38348296522
 30
0.0
 10
4220.464703815698
 20
-82461.57451500081
 30
0.0
 10
4254.098832330607
 20
-82483.66612594644
 30
0.0
 10
4299.031336439461
 20
-82498.27371011985
 30
0.0
 10
4348.107065269782
 20
-82509.79628430622
 30
0.0
 10
4405.281097274914
 20
-82498.69689429699
 30
0.0
 10
4452.615206973325
 20
-82491.49494473707
 30
0.0
 10
4479.506923454183
 20
-82478.76722807493
 30
0.0
 10
4487.625604015669
 20
-82474.70633480066
 30
0.0
  0
SPLINE
  5
13667
330
1F07
100
AcDbEntity
  8
器具
100
AcDbSpline
210
0.0
220
0.0
230
1.0
 70
     8
 71
     3
 72
    28
 73
    24
 74
     0
 42
0.0000000001
 43
0.0000000001
 40
0.4075862509243488
 40
0.4075862509243488
 40
0.4075862509243488
 40
0.4075862509243488
 40
0.9156752479764577
 40
1.781870633829415
 40
3.181722221570254
 40
4.276652733235149
 40
5.731007959550963
 40
7.016033341233458
 40
7.730735438103905
 40
8.171439125833975
 40
8.617444255243864
 40
8.694723707548389
 40
8.880950030890156
 40
9.044989560774938
 40
9.340992096097741
 40
9.845156107601471
 40
10.31714957927045
 40
10.64921617623214
 40
11.26478149520006
 40
12.57908953218058
 40
13.43769242677189
 40
14.66651635921647
 40
14.89235445605747
 40
14.89235445605747
 40
14.89235445605747
 40
14.89235445605747
 10
4602.033260247902
 20
-82382.9652937256
 30
0.0
 10
4611.220813886077
 20
-82380.9906710829
 30
0.0
 10
4636.20030934977
 20
-82376.65964252576
 30
0.0
 10
4688.20519569295
 20
-82380.30527063189
 30
0.0
 10
4746.091407022126
 20
-82403.95146523596
 30
0.0
 10
4814.696705911552
 20
-82428.36111134964
 30
0.0
 10
4877.456443046314
 20
-82462.65277114639
 30
0.0
 10
4927.917631045414
 20
-82500.50009086454
 30
0.0
 10
4969.523764479777
 20
-82521.96079889413
 30
0.0
 10
4988.124385793788
 20
-82542.01447543294
 30
0.0
 10
5007.822121882906
 20
-82555.58749893904
 30
0.0
 10
5001.802712720015
 20
-82568.58045368588
 30
0.0
 10
4992.910672621824
 20
-82569.45109026728
 30
0.0
 10
4982.20451166966
 20
-82574.34758145894
 30
0.0
 10
4963.855640771718
 20
-82574.53704842118
 30
0.0
 10
4941.320338551363
 20
-82578.66891914588
 30
0.0
 10
4915.280029523245
 20
-82577.53274800593
 30
0.0
 10
4896.348025223975
 20
-82558.17165237392
 30
0.0
 10
4862.617208203592
 20
-82534.12757332528
 30
0.0
 10
4822.243378017901
 20
-82501.32016235282
 30
0.0
 10
4764.786876071489
 20
-82475.25423838137
 30
0.0
 10
4722.961079060005
 20
-82464.27754666308
 30
0.0
 10
4696.23013913515
 20
-82462.04514038877
 30
0.0
 10
4692.07237468136
 20
-82461.78287110716
 30
0.0
  0
SPLINE
  5
13668
330
1F07
100
AcDbEntity
  8
器具
100
AcDbSpline
210
0.0
220
0.0
230
1.0
 70
     8
 71
     3
 72
    13
 73
     9
 74
     7
 42
0.0000000001
 43
0.0000000001
 44
0.0000000001
 40
0.0
 40
0.0
 40
0.0
 40
0.0
 40
75.32710631993911
 40
182.4944445291594
 40
275.6854990533096
 40
374.765386471061
 40
482.9621180081288
 40
596.3780472680914
 40
596.3780472680914
 40
596.3780472680914
 40
596.3780472680914
 10
4086.247754386964
 20
-81341.56670559288
 30
0.0
 10
4077.986382473258
 20
-81365.26939390279
 30
0.0
 10
4057.971615517563
 20
-81422.69372822667
 30
0.0
 10
4040.87867088512
 20
-81514.09062178595
 30
0.0
 10
4048.480311086354
 20
-81614.05507044454
 30
0.0
 10
4057.940382050348
 20
-81713.62940382872
 30
0.0
 10
4079.599989083703
 20
-81818.99348352212
 30
0.0
 10
4108.896208099045
 20
-81886.98986876829
 30
0.0
 10
4123.889295098128
 20
-81921.7887525111
 30
0.0
 11
4086.247754386964
 21
-81341.56670559288
 31
0.0
 11
4062.945861222163
 21
-81413.19906365453
 31
0.0
 11
4045.021324521782
 21
-81518.85676267795
 31
0.0
 11
4048.606259138906
 21
-81611.97883786485
 31
0.0
 11
4059.360972068144
 21
-81710.47330593552
 31
0.0
 11
4082.662865233106
 21
-81816.13102922272
 31
0.0
 11
4123.889295098128
 21
-81921.7887525111
 31
0.0
  0
SPLINE
  5
13669
330
1F07
100
AcDbEntity
  8
器具
100
AcDbSpline
210
0.0
220
0.0
230
1.0
 70
     8
 71
     3
 72
    14
 73
    10
 74
     0
 42
0.0000000001
 43
0.0000000001
 40
0.0
 40
0.0
 40
0.0
 40
0.0
 40
1.006716486919094
 40
2.306100504152091
 40
3.063759549860235
 40
4.397584805614224
 40
6.077660908780345
 40
7.846920095732811
 40
8.972438229128503
 40
8.972438229128503
 40
8.972438229128503
 40
8.972438229128503
 10
4103.459550506446
 20
-81294.47995143305
 30
0.0
 10
4112.362403479404
 20
-81278.16398973791
 30
0.0
 10
4132.756301842514
 20
-81240.78877240892
 30
0.0
 10
4163.749956521125
 20
-81193.22513454203
 30
0.0
 10
4205.28188474544
 20
-81146.12780990762
 30
0.0
 10
4260.939487673808
 20
-81103.36375289227
 30
0.0
 10
4338.540232134051
 20
-81061.18245286101
 30
0.0
 10
4413.361491097101
 20
-81021.43201865722
 30
0.0
 10
4463.588957880275
 20
-81003.26687306127
 30
0.0
 10
4483.326345323933
 20
-80996.70916787067
 30
0.0
  0
ELLIPSE
  5
1366A
330
1F07
100
AcDbEntity
  8
器具
100
AcDbEllipse
 10
5053.392390566042
 20
-81530.11607955832
 30
0.0
 11
-372.9002144160978
 21
738.6365329544243
 31
0.0
210
0.0
220
0.0
230
1.0
 40
0.5735224030942715
 41
5.319317111259603
 42
11.4887048457796
  0
ELLIPSE
  5
1366B
330
1F07
100
AcDbEntity
  8
器具
100
AcDbEllipse
 10
5020.966263221926
 20
-81556.03315174152
 30
0.0
 11
-372.9002144160978
 21
738.6365329544243
 31
0.0
210
0.0
220
0.0
230
1.0
 40
0.5735224030942715
 41
0.0766055272856706
 42
3.304453193691046
  0
SPLINE
  5
1366C
330
1F07
100
AcDbEntity
  8
器具
100
AcDbSpline
210
0.0
220
0.0
230
1.0
 70
     8
 71
     3
 72
    18
 73
    14
 74
     0
 42
0.0000000001
 43
0.0000000001
 40
0.0
 40
0.0
 40
0.0
 40
0.0
 40
0.8441027040932249
 40
2.337984691468718
 40
3.924698872351697
 40
4.708956312747695
 40
6.445766627369883
 40
8.479747979302988
 40
10.9239299574944
 40
13.60973124781731
 40
15.68581598215707
 40
17.45344704050482
 40
17.88706524406039
 40
17.88706524406039
 40
17.88706524406039
 40
17.88706524406039
 10
5370.244943443093
 20
-82305.21972690755
 30
0.0
 10
5357.100271624549
 20
-82313.71137100882
 30
0.0
 10
5320.692330575759
 20
-82337.23141639853
 30
0.0
 10
5247.029314228588
 20
-82351.68343372372
 30
0.0
 10
5176.21651120967
 20
-82342.22548413693
 30
0.0
 10
5100.08418655469
 20
-82342.25456176867
 30
0.0
 10
5018.504192611398
 20
-82316.20993620895
 30
0.0
 10
4916.609021545003
 20
-82263.06617442302
 30
0.0
 10
4811.253710397984
 20
-82181.83768432501
 30
0.0
 10
4718.248421660905
 20
-82086.18201719909
 30
0.0
 10
4644.280660568853
 20
-81990.73550422898
 30
0.0
 10
4600.917927672155
 20
-81924.68682291988
 30
0.0
 10
4577.38887078889
 20
-81891.54592127072
 30
0.0
 10
4572.721772716053
 20
-81885.04011837698
 30
0.0
  0
SPLINE
  5
1366D
330
1F07
100
AcDbEntity
  8
器具
100
AcDbSpline
210
0.0
220
0.0
230
1.0
 70
     8
 71
     3
 72
    18
 73
    14
 74
     0
 42
0.0000000001
 43
0.0000000001
 40
0.4450744438050633
 40
0.4450744438050633
 40
0.4450744438050633
 40
0.4450744438050633
 40
1.486674181599183
 40
2.520971650088712
 40
4.306265635583994
 40
5.880425757372467
 40
7.117249954469757
 40
7.91357718206802
 40
9.382237567625724
 40
10.71875824589242
 40
12.2591334636585
 40
13.47647338102663
 40
14.55147522052894
 40
14.55147522052894
 40
14.55147522052894
 40
14.55147522052894
 10
4486.626697562239
 20
-81683.12510162033
 30
0.0
 10
4480.1726114603
 20
-81665.00533171834
 30
0.0
 10
4467.435178104275
 20
-81628.85050591041
 30
0.0
 10
4445.297297952649
 20
-81561.0781555449
 30
0.0
 10
4422.623918745979
 20
-81483.08360698985
 30
0.0
 10
4410.687253376956
 20
-81398.53028197702
 30
0.0
 10
4413.244187984477
 20
-81331.85710445951
 30
0.0
 10
4406.626797975543
 20
-81267.25422599536
 30
0.0
 10
4418.487140536494
 20
-81201.16301433114
 30
0.0
 10
4429.513267656147
 20
-81121.90598081992
 30
0.0
 10
4451.178103706472
 20
-81048.56085935674
 30
0.0
 10
4488.062293502233
 20
-80987.68727672098
 30
0.0
 10
4513.333465818421
 20
-80953.74729028122
 30
0.0
 10
4525.184472173838
 20
-80937.83101263714
 30
0.0
  0
ELLIPSE
  5
1366E
330
1F07
100
AcDbEntity
  8
器具
100
AcDbEllipse
 10
5078.92254709926
 20
-81529.04626684671
 30
0.0
 11
-238.0174131006088
 21
566.423861374924
 31
0.0
210
0.0
220
0.0
230
0.9999999999999998
 40
0.5594443247472768
 41
1.306874982748366
 42
7.446672144473232
  0
ELLIPSE
  5
13678
330
1F07
100
AcDbEntity
  8
器具
100
AcDbEllipse
 10
5023.57376531728
 20
-81538.23210051633
 30
0.0
 11
-266.8405793143528
 21
534.6018374405398
 31
0.0
210
0.0
220
0.0
230
0.9999999999999998
 40
0.5279972155053611
 41
2.370063518027635
 42
6.155952765395395
  0
ELLIPSE
  5
13679
330
1F07
100
AcDbEntity
  8
器具
100
AcDbEllipse
 10
5047.749751124251
 20
-81881.50508664492
 30
0.0
 11
-21.66382191376928
 21
44.68423405680725
 31
0.0
210
0.0
220
0.0
230
1.0
 40
0.6873691487810834
 41
0.0
 42
6.283185307179586
  0
ELLIPSE
  5
1367A
330
1F07
100
AcDbEntity
  8
器具
100
AcDbEllipse
 10
4915.712297303417
 20
-81732.74845579109
 30
0.0
 11
-21.66382191376928
 21
44.68423405680725
 31
0.0
210
0.0
220
0.0
230
1.0
 40
0.6873691487810834
 41
0.0
 42
6.283185307179586
  0
ELLIPSE
  5
1367B
330
1F07
100
AcDbEntity
  8
器具
100
AcDbEllipse
 10
5098.317278889076
 20
-81738.36193049703
 30
0.0
 11
-21.66382191376928
 21
44.68423405680725
 31
0.0
210
0.0
220
0.0
230
1.0
 40
0.6873691487810834
 41
0.0
 42
6.283185307179586
  0
ELLIPSE
  5
1367C
330
1F07
100
AcDbEntity
  8
器具
100
AcDbEllipse
 10
5278.112943277403
 20
-81752.39555660622
 30
0.0
 11
-21.66382191376928
 21
44.68423405680725
 31
0.0
210
0.0
220
0.0
230
1.0
 40
0.6873691487810834
 41
0.0
 42
6.283185307179586
  0
ELLIPSE
  5
1367D
330
1F07
100
AcDbEntity
  8
器具
100
AcDbEllipse
 10
5216.30819216898
 20
-81892.73198753101
 30
0.0
 11
-21.66382191376928
 21
44.68423405680725
 31
0.0
210
0.0
220
0.0
230
1.0
 40
0.6873691487810834
 41
0.0
 42
6.283185307179586
  0
ELLIPSE
  5
1367E
330
1F07
100
AcDbEntity
  8
器具
100
AcDbEllipse
 10
5168.5499361392
 20
-82035.87514367798
 30
0.0
 11
-21.66382191376928
 21
44.68423405680725
 31
0.0
210
0.0
220
0.0
230
1.0
 40
0.6873691487810834
 41
0.0
 42
6.283185307179586
  0
ELLIPSE
  5
1367F
330
1F07
100
AcDbEntity
  8
器具
100
AcDbEllipse
 10
5137.647583314381
 20
-81598.02549957218
 30
0.0
 11
-21.66382191376928
 21
44.68423405680725
 31
0.0
210
0.0
220
0.0
230
1.0
 40
0.6873691487810834
 41
0.0
 42
6.283185307179586
  0
ELLIPSE
  5
13680
330
1F07
100
AcDbEntity
  8
器具
100
AcDbEllipse
 10
5311.824613299315
 20
-81620.47932560829
 30
0.0
 11
-21.66382191376928
 21
44.68423405680725
 31
0.0
210
0.0
220
0.0
230
1.0
 40
0.6873691487810834
 41
0.0
 42
6.283185307179586
  0
ELLIPSE
  5
13681
330
1F07
100
AcDbEntity
  8
器具
100
AcDbEllipse
 10
5278.112943277403
 20
-81482.94961990453
 30
0.0
 11
-21.66382191376928
 21
44.68423405680725
 31
0.0
210
0.0
220
0.0
230
1.0
 40
0.6873691487810834
 41
0.0
 42
6.283185307179586
  0
ELLIPSE
  5
13682
330
1F07
100
AcDbEntity
  8
器具
100
AcDbEllipse
 10
5109.554502228196
 20
-81466.10926857535
 30
0.0
 11
-21.66382191376928
 21
44.68423405680725
 31
0.0
210
0.0
220
0.0
230
1.0
 40
0.6873691487810834
 41
0.0
 42
6.283185307179586
  0
ELLIPSE
  5
13683
330
1F07
100
AcDbEntity
  8
器具
100
AcDbEllipse
 10
5148.884806657654
 20
-81336.99973853666
 30
0.0
 11
-21.66382191376928
 21
44.68423405680725
 31
0.0
210
0.0
220
0.0
230
1.0
 40
0.6873691487810834
 41
0.0
 42
6.283185307179586
  0
ELLIPSE
  5
13684
330
1F07
100
AcDbEntity
  8
器具
100
AcDbEllipse
 10
4977.517048411268
 20
-81322.96611242944
 30
0.0
 11
-21.66382191376928
 21
44.68423405680725
 31
0.0
210
0.0
220
0.0
230
1.0
 40
0.6873691487810834
 41
0.0
 42
6.283185307179586
  0
ELLIPSE
  5
13685
330
1F07
100
AcDbEntity
  8
器具
100
AcDbEllipse
 10
4921.330886243457
 20
-81454.88234342529
 30
0.0
 11
-21.66382191376928
 21
44.68423405680725
 31
0.0
210
0.0
220
0.0
230
1.0
 40
0.6873691487810834
 41
0.0
 42
6.283185307179586
  0
ELLIPSE
  5
13686
330
1F07
100
AcDbEntity
  8
器具
100
AcDbEllipse
 10
4974.707731209775
 20
-81586.7985744232
 30
0.0
 11
-21.66382191376928
 21
44.68423405680725
 31
0.0
210
0.0
220
0.0
230
1.0
 40
0.6873691487810834
 41
0.0
 42
6.283185307179586
  0
ELLIPSE
  5
13687
330
1F07
100
AcDbEntity
  8
器具
100
AcDbEllipse
 10
4794.912066821289
 20
-81575.57167353607
 30
0.0
 11
-21.66382191376928
 21
44.68423405680725
 31
0.0
210
0.0
220
0.0
230
1.0
 40
0.6873691487810834
 41
0.0
 42
6.283185307179586
  0
ELLIPSE
  5
13688
330
1F07
100
AcDbEntity
  8
器具
100
AcDbEllipse
 10
4749.963173460019
 20
-81432.42851738916
 30
0.0
 11
-21.66382191376928
 21
44.68423405680725
 31
0.0
210
0.0
220
0.0
230
1.0
 40
0.6873691487810834
 41
0.0
 42
6.283185307179586
  0
ELLIPSE
  5
13689
330
1F07
100
AcDbEntity
  8
器具
100
AcDbEllipse
 10
4800.530701224761
 20
-81306.12573683634
 30
0.0
 11
-21.66382191376928
 21
44.68423405680725
 31
0.0
210
0.0
220
0.0
230
1.0
 40
0.6873691487810834
 41
0.0
 42
6.283185307179586
  0
ELLIPSE
  5
1368A
330
1F07
100
AcDbEntity
  8
器具
100
AcDbEllipse
 10
4851.098228993418
 20
-81185.43640672564
 30
0.0
 11
-21.66382191376928
 21
44.68423405680725
 31
0.0
210
0.0
220
0.0
230
1.0
 40
0.6873691487810834
 41
0.0
 42
6.283185307179586
  0
ELLIPSE
  5
1368B
330
1F07
100
AcDbEntity
  8
器具
100
AcDbEllipse
 10
4907.284391161393
 20
-81053.52017572771
 30
0.0
 11
-21.66382191376928
 21
44.68423405680725
 31
0.0
210
0.0
220
0.0
230
1.0
 40
0.6873691487810834
 41
0.0
 42
6.283185307179586
  0
ELLIPSE
  5
1368C
330
1F07
100
AcDbEntity
  8
器具
100
AcDbEllipse
 10
5036.512527780979
 20
-81202.27678231866
 30
0.0
 11
-21.66382191376928
 21
44.68423405680725
 31
0.0
210
0.0
220
0.0
230
1.0
 40
0.6873691487810834
 41
0.0
 42
6.283185307179586
  0
LINE
  5
1368D
330
1F07
100
AcDbEntity
  8
器具
100
AcDbLine
 10
4572.721772713203
 20
-81806.58886225646
 30
0.0
 11
4572.721772713203
 21
-82295.88506608596
 31
0.0
  0
LINE
  5
1368E
330
1F07
100
AcDbEntity
  8
器具
100
AcDbLine
 10
4337.603854840306
 20
-81800.65758464332
 30
0.0
 11
4355.121897090611
 21
-82225.40592640918
 31
0.0
  0
LINE
  5
1368F
330
1F07
100
AcDbEntity
  8
器具
100
AcDbLine
 10
4864.989418730582
 20
-82695.74001139607
 30
0.0
 11
5294.538256064581
 21
-82490.84186396814
 31
0.0
  0
LINE
  5
13690
330
1F07
100
AcDbEntity
  8
器具
100
AcDbLine
 10
5041.76622191381
 20
-82451.38247664639
 30
0.0
 11
4929.742606277217
 21
-82499.76490276466
 31
0.0
  0
LINE
  5
13691
330
1F07
100
AcDbEntity
  8
器具
100
AcDbLine
 10
4858.696232181857
 20
-82530.44946803383
 30
0.0
 11
4753.002340552315
 21
-82576.09811875846
 31
0.0
  0
LINE
  5
13692
330
1F07
100
AcDbEntity
  8
器具
100
AcDbLine
 10
4560.693155913555
 20
-82652.71760654606
 30
0.0
 11
4831.654397898552
 21
-82696.40607692117
 31
0.0
  0
LINE
  5
13693
330
1F07
100
AcDbEntity
  8
器具
100
AcDbLine
 10
5156.984552977874
 20
-82596.81705047507
 30
0.0
 11
5156.984552977874
 21
-82774.75317093157
 31
0.0
  0
LINE
  5
13694
330
1F07
100
AcDbEntity
  8
器具
100
AcDbLine
 10
4741.731263019703
 20
-82681.90730881103
 30
0.0
 11
4741.731263019703
 21
-82764.8772333557
 31
0.0
  0
LINE
  5
13695
330
1F07
100
AcDbEntity
  8
器具
100
AcDbLine
 10
4734.800534899648
 20
-82399.07603258107
 30
0.0
 11
4938.915897098743
 21
-82310.94634713036
 31
0.0
  0
LINE
  5
13696
330
1F07
100
AcDbEntity
  8
器具
100
AcDbLine
 10
4938.915897098743
 20
-82310.94634713036
 30
0.0
 11
4912.075397224654
 21
-82293.06912074632
 31
0.0
  0
LINE
  5
13697
330
1F07
100
AcDbEntity
  8
器具
100
AcDbLine
 10
4912.075397224654
 20
-82293.06912074632
 30
0.0
 11
4697.054584784269
 21
-82386.15927416159
 31
0.0
  0
LINE
  5
1369A
330
1F07
100
AcDbEntity
  8
器具
100
AcDbLine
 10
4368.911546791449
 20
-82843.77127217727
 30
0.0
 11
4361.141903760528
 21
-82923.40106060294
 31
0.0
  0
LINE
  5
1369B
330
1F07
100
AcDbEntity
  8
器具
100
AcDbLine
 10
4317.861869353452
 20
-82881.23915759948
 30
0.0
 11
4338.634109016042
 21
-82819.55187648041
 31
0.0
  0
LINE
  5
1369C
330
1F07
100
AcDbEntity
  8
器具
100
AcDbLine
 10
4695.015529594757
 20
-82744.15450910375
 30
0.0
 11
4703.820619423431
 21
-82713.4647871229
 31
0.0
  0
LINE
  5
1369D
330
1F07
100
AcDbEntity
  8
器具
100
AcDbLine
 10
5586.83704804195
 20
-82861.49768852292
 30
0.0
 11
5594.803719454304
 21
-82942.07195395472
 31
0.0
  0
LINE
  5
1369E
330
1F07
100
AcDbEntity
  8
器具
100
AcDbLine
 10
5543.530601335759
 20
-82939.83484170812
 30
0.0
 11
5545.709924781136
 21
-82868.30596000665
 31
0.0
  0
LINE
  5
1369F
330
1F07
100
AcDbEntity
  8
器具
100
AcDbLine
 10
5176.274315865676
 20
-82706.22602295279
 30
0.0
 11
5186.450833441352
 21
-82730.66815637584
 31
0.0
  0
LINE
  5
136A0
330
1F07
100
AcDbEntity
  8
器具
100
AcDbLine
 10
5541.335269377789
 20
-83083.65115746143
 30
0.0
 11
5484.684923946707
 21
-83145.9771078201
 31
0.0
  0
LINE
  5
136A1
330
1F07
100
AcDbEntity
  8
器具
100
AcDbLine
 10
5498.567014336994
 20
-83034.44527608732
 30
0.0
 11
5543.530601335759
 21
-82939.83484170812
 31
0.0
  0
LINE
  5
136A2
330
1F07
100
AcDbEntity
  8
器具
100
AcDbLine
 10
5613.510277131641
 20
-83373.29638647895
 30
0.0
 11
5596.427020605944
 21
-83345.96123211287
 31
0.0
  0
LINE
  5
136A3
330
1F07
100
AcDbEntity
  8
器具
100
AcDbLine
 10
5583.309260225762
 20
-83001.6816487601
 30
0.0
 11
5541.335269377789
 21
-83083.65115746143
 31
0.0
  0
LINE
  5
136A4
330
1F07
100
AcDbEntity
  8
器具
100
AcDbLine
 10
5594.803719454304
 20
-82942.07195395472
 30
0.0
 11
5583.309260225762
 21
-83001.6816487601
 31
0.0
  0
LINE
  5
136A5
330
1F07
100
AcDbEntity
  8
器具
100
AcDbLine
 10
5594.180682784772
 20
-83008.70358765923
 30
0.0
 11
5596.88050835242
 21
-83342.02551857945
 31
0.0
  0
LINE
  5
136A6
330
1F07
100
AcDbEntity
  8
器具
100
AcDbLine
 10
4493.961986369114
 20
-83201.43248679745
 30
0.0
 11
4421.624181114777
 21
-83147.88709410642
 31
0.0
  0
LINE
  5
136A7
330
1F07
100
AcDbEntity
  8
器具
100
AcDbLine
 10
4421.525780952687
 20
-83053.35656361512
 30
0.0
 11
4488.96291191976
 21
-83114.12093698336
 31
0.0
  0
LINE
  5
136A8
330
1F07
100
AcDbEntity
  8
器具
100
AcDbLine
 10
4700.975371579081
 20
-82777.13201713545
 30
0.0
 11
4695.015529594757
 21
-82744.15450910375
 31
0.0
  0
LINE
  5
136A9
330
1F07
100
AcDbEntity
  8
器具
100
AcDbLine
 10
4635.904617986107
 20
-82957.78589348268
 30
0.0
 11
4630.067242330824
 21
-82952.86067602082
 31
0.0
  0
LINE
  5
136AA
330
1F07
100
AcDbEntity
  8
器具
100
AcDbLine
 10
4630.067242330824
 20
-82952.86067602082
 30
0.0
 11
4631.089196156279
 21
-82942.28288738382
 31
0.0
  0
LINE
  5
136AB
330
1F07
100
AcDbEntity
  8
器具
100
AcDbLine
 10
4631.089196156279
 20
-82942.28288738382
 30
0.0
 11
4639.413259092299
 21
-82933.53908359103
 31
0.0
  0
LINE
  5
136AC
330
1F07
100
AcDbEntity
  8
器具
100
AcDbLine
 10
4639.413259092299
 20
-82933.53908359103
 30
0.0
 11
4647.562440797221
 21
-82929.44805243539
 31
0.0
  0
LINE
  5
136AD
330
1F07
100
AcDbEntity
  8
器具
100
AcDbLine
 10
4675.825836837209
 20
-82924.08540383245
 30
0.0
 11
4690.879522562726
 21
-82924.68365214206
 31
0.0
  0
LINE
  5
136AE
330
1F07
100
AcDbEntity
  8
器具
100
AcDbLine
 10
4690.879522562726
 20
-82924.68365214206
 30
0.0
 11
4709.546371331881
 21
-82928.97695752378
 31
0.0
  0
LINE
  5
136AF
330
1F07
100
AcDbEntity
  8
器具
100
AcDbLine
 10
4709.546371331881
 20
-82928.97695752378
 30
0.0
 11
4722.535092634323
 21
-82936.49445974114
 31
0.0
  0
LINE
  5
136B0
330
1F07
100
AcDbEntity
  8
器具
100
AcDbLine
 10
4722.535092634323
 20
-82936.49445974114
 30
0.0
 11
4727.602278631204
 21
-82946.51068464471
 31
0.0
  0
LINE
  5
136B1
330
1F07
100
AcDbEntity
  8
器具
100
AcDbLine
 10
4727.602278631204
 20
-82946.51068464471
 30
0.0
 11
4721.901243040885
 21
-82957.26702750695
 31
0.0
  0
LINE
  5
136B2
330
1F07
100
AcDbEntity
  8
器具
100
AcDbLine
 10
4657.27125541193
 20
-82926.46242821572
 30
0.0
 11
4675.825836837209
 21
-82924.08540383245
 31
0.0
  0
LINE
  5
136B3
330
1F07
100
AcDbEntity
  8
器具
100
AcDbLine
 10
5186.450833441352
 20
-82730.66815637584
 30
0.0
 11
5187.4986621834
 21
-82756.47907007467
 31
0.0
  0
LINE
  5
136B4
330
1F07
100
AcDbEntity
  8
器具
100
AcDbLine
 10
5223.796638855326
 20
-82922.05136295319
 30
0.0
 11
5236.082571150164
 21
-82923.18490822236
 31
0.0
  0
LINE
  5
136B5
330
1F07
100
AcDbEntity
  8
器具
100
AcDbLine
 10
5236.082571150164
 20
-82923.18490822236
 30
0.0
 11
5249.047910326626
 21
-82926.30650471066
 31
0.0
  0
LINE
  5
136B6
330
1F07
100
AcDbEntity
  8
器具
100
AcDbLine
 10
5249.047910326626
 20
-82926.30650471066
 30
0.0
 11
5262.104140414635
 21
-82932.97998984177
 31
0.0
  0
LINE
  5
136B7
330
1F07
100
AcDbEntity
  8
器具
100
AcDbLine
 10
5262.104140414635
 20
-82932.97998984177
 30
0.0
 11
5268.160246143316
 21
-82940.56853640563
 31
0.0
  0
LINE
  5
136B8
330
1F07
100
AcDbEntity
  8
器具
100
AcDbLine
 10
5268.160246143316
 20
-82940.56853640563
 30
0.0
 11
5266.701804164401
 21
-82951.32183179275
 31
0.0
  0
LINE
  5
136B9
330
1F07
100
AcDbEntity
  8
器具
100
AcDbLine
 10
5266.701804164401
 20
-82951.32183179275
 30
0.0
 11
5257.604495005426
 21
-82959.15631510883
 31
0.0
  0
LINE
  5
136BA
330
1F07
100
AcDbEntity
  8
器具
100
AcDbLine
 10
5257.604495005426
 20
-82959.15631510883
 30
0.0
 11
5239.566617716826
 21
-82965.53635611273
 31
0.0
  0
LINE
  5
136BB
330
1F07
100
AcDbEntity
  8
器具
100
AcDbLine
 10
5239.566617716826
 20
-82965.53635611273
 30
0.0
 11
5219.655006313987
 21
-82967.50568324247
 31
0.0
  0
LINE
  5
136BC
330
1F07
100
AcDbEntity
  8
器具
100
AcDbLine
 10
5219.655006313987
 20
-82967.50568324247
 30
0.0
 11
5203.567424241814
 21
-82966.22541743731
 31
0.0
  0
LINE
  5
136BD
330
1F07
100
AcDbEntity
  8
器具
100
AcDbLine
 10
5203.567424241814
 20
-82966.22541743731
 30
0.0
 11
5186.182955471775
 21
-82961.24075718047
 31
0.0
  0
LINE
  5
136BE
330
1F07
100
AcDbEntity
  8
器具
100
AcDbLine
 10
5186.182955471775
 20
-82961.24075718047
 30
0.0
 11
5174.995776403836
 21
-82953.58578368098
 31
0.0
  0
LINE
  5
136BF
330
1F07
100
AcDbEntity
  8
器具
100
AcDbLine
 10
5174.995776403836
 20
-82953.58578368098
 30
0.0
 11
5171.344151655421
 21
-82945.02361468875
 31
0.0
  0
LINE
  5
136C0
330
1F07
100
AcDbEntity
  8
器具
100
AcDbLine
 10
5171.344151655421
 20
-82945.02361468875
 30
0.0
 11
5176.751313972834
 21
-82934.53064502266
 31
0.0
  0
LINE
  5
136C1
330
1F07
100
AcDbEntity
  8
器具
100
AcDbLine
 10
5176.751313972834
 20
-82934.53064502266
 30
0.0
 11
5189.087397932865
 21
-82927.33679907565
 31
0.0
  0
LINE
  5
136C2
330
1F07
100
AcDbEntity
  8
器具
100
AcDbLine
 10
5189.087397932865
 20
-82927.33679907565
 30
0.0
 11
5202.327115729091
 21
-82923.64851259781
 31
0.0
  0
LINE
  5
136C3
330
1F07
100
AcDbEntity
  8
器具
100
AcDbLine
 10
5202.327115729091
 20
-82923.64851259781
 30
0.0
 11
5212.191711465944
 21
-82922.34022301023
 31
0.0
  0
LINE
  5
136C4
330
1F07
100
AcDbEntity
  8
器具
100
AcDbLine
 10
5212.191711465944
 20
-82922.34022301023
 30
0.0
 11
5219.391564215277
 21
-82922.00858882516
 31
0.0
  0
LINE
  5
136C5
330
1F07
100
AcDbEntity
  8
器具
100
AcDbLine
 10
5187.4986621834
 20
-82756.47907007467
 30
0.0
 11
5174.233262255311
 21
-82789.79925504316
 31
0.0
  0
LINE
  5
136C6
330
1F07
100
AcDbEntity
  8
器具
100
AcDbLine
 10
4584.04191821817
 20
-83247.24703421695
 30
0.0
 11
4493.961986369114
 21
-83201.43248679745
 31
0.0
  0
LINE
  5
136C7
330
1F07
100
AcDbEntity
  8
器具
100
AcDbLine
 10
4488.96291191976
 20
-83114.12093698336
 30
0.0
 11
4574.111254534486
 21
-83163.78294907993
 31
0.0
  0
LINE
  5
136C8
330
1F07
100
AcDbEntity
  8
器具
100
AcDbLine
 10
4650.562508279505
 20
-83075.74720288924
 30
0.0
 11
4639.786828671558
 21
-83070.71250810816
 31
0.0
  0
LINE
  5
136C9
330
1F07
100
AcDbEntity
  8
器具
100
AcDbLine
 10
4639.786828671558
 20
-83070.71250810816
 30
0.0
 11
4630.646363394253
 21
-83057.55195813198
 31
0.0
  0
LINE
  5
136CA
330
1F07
100
AcDbEntity
  8
器具
100
AcDbLine
 10
4630.646363394253
 20
-83057.55195813198
 30
0.0
 11
4630.111297135882
 21
-82960.82473450637
 31
0.0
  0
LINE
  5
136CB
330
1F07
100
AcDbEntity
  8
器具
100
AcDbLine
 10
4701.795687577233
 20
-82966.75048524997
 30
0.0
 11
4683.118201850844
 21
-82969.42434423916
 31
0.0
  0
LINE
  5
136CC
330
1F07
100
AcDbEntity
  8
器具
100
AcDbLine
 10
4683.118201850844
 20
-82969.42434423916
 30
0.0
 11
4666.942880664346
 21
-82968.89846566708
 31
0.0
  0
LINE
  5
136CD
330
1F07
100
AcDbEntity
  8
器具
100
AcDbLine
 10
4791.728500824062
 20
-82851.68792910372
 30
0.0
 11
4737.171436535649
 21
-82821.27504627904
 31
0.0
  0
LINE
  5
136CE
330
1F07
100
AcDbEntity
  8
器具
100
AcDbLine
 10
4728.213540430647
 20
-83057.01224550071
 30
0.0
 11
4723.99831024371
 21
-83066.34053787588
 31
0.0
  0
LINE
  5
136CF
330
1F07
100
AcDbEntity
  8
器具
100
AcDbLine
 10
4723.99831024371
 20
-83066.34053787588
 30
0.0
 11
4705.297698672908
 21
-83076.45927599667
 31
0.0
  0
LINE
  5
136D0
330
1F07
100
AcDbEntity
  8
器具
100
AcDbLine
 10
4705.297698672908
 20
-83076.45927599667
 30
0.0
 11
4689.981965358554
 21
-83079.44877956801
 31
0.0
  0
LINE
  5
136D1
330
1F07
100
AcDbEntity
  8
器具
100
AcDbLine
 10
4689.981965358554
 20
-83079.44877956801
 30
0.0
 11
4663.59839452519
 21
-83078.87022886969
 31
0.0
  0
LINE
  5
136D2
330
1F07
100
AcDbEntity
  8
器具
100
AcDbLine
 10
4679.179515989661
 20
-83203.54623478502
 30
0.0
 11
4805.460343869519
 21
-83230.92812918163
 31
0.0
  0
LINE
  5
136D3
330
1F07
100
AcDbEntity
  8
器具
100
AcDbLine
 10
4666.942880664346
 20
-82968.89846566708
 30
0.0
 11
4649.373547810432
 21
-82965.04729627612
 31
0.0
  0
LINE
  5
136D4
330
1F07
100
AcDbEntity
  8
器具
100
AcDbLine
 10
4663.59839452519
 20
-83078.87022886969
 30
0.0
 11
4650.562508279505
 21
-83075.74720288924
 31
0.0
  0
LINE
  5
136D5
330
1F07
100
AcDbEntity
  8
器具
100
AcDbLine
 10
4711.697847929515
 20
-83288.4739786656
 30
0.0
 11
4584.04191821817
 21
-83247.24703421695
 31
0.0
  0
LINE
  5
136D6
330
1F07
100
AcDbEntity
  8
器具
100
AcDbLine
 10
4574.111254534486
 20
-83163.78294907993
 30
0.0
 11
4679.179515989661
 21
-83203.54623478502
 31
0.0
  0
LINE
  5
136D7
330
1F07
100
AcDbEntity
  8
器具
100
AcDbLine
 10
5115.668428301718
 20
-82839.17042547743
 30
0.0
 11
5067.961350225785
 21
-82858.99488004371
 31
0.0
  0
LINE
  5
136D8
330
1F07
100
AcDbEntity
  8
器具
100
AcDbLine
 10
5142.746341732505
 20
-82822.11604885619
 30
0.0
 11
5115.668428301718
 21
-82839.17042547743
 31
0.0
  0
LINE
  5
136D9
330
1F07
100
AcDbEntity
  8
器具
100
AcDbLine
 10
5067.961350225785
 20
-82858.99488004371
 30
0.0
 11
5024.51428220655
 21
-82870.01046834362
 31
0.0
  0
LINE
  5
136DA
330
1F07
100
AcDbEntity
  8
器具
100
AcDbLine
 10
5177.25538075259
 20
-83291.30802891526
 30
0.0
 11
5042.199089348456
 21
-83311.95062614131
 31
0.0
  0
LINE
  5
136DB
330
1F07
100
AcDbEntity
  8
器具
100
AcDbLine
 10
5050.052103828125
 20
-83236.36712845161
 30
0.0
 11
5169.582597107893
 21
-83217.16710820673
 31
0.0
  0
LINE
  5
136DC
330
1F07
100
AcDbEntity
  8
器具
100
AcDbLine
 10
5269.52259049036
 20
-83054.98546291323
 30
0.0
 11
5261.831317762809
 21
-83067.33912710202
 31
0.0
  0
LINE
  5
136DD
330
1F07
100
AcDbEntity
  8
器具
100
AcDbLine
 10
5261.831317762809
 20
-83067.33912710202
 30
0.0
 11
5243.962571779382
 21
-83075.16237389322
 31
0.0
  0
LINE
  5
136DE
330
1F07
100
AcDbEntity
  8
器具
100
AcDbLine
 10
5243.962571779382
 20
-83075.16237389322
 30
0.0
 11
5232.641123561968
 21
-83077.26723489542
 31
0.0
  0
LINE
  5
136DF
330
1F07
100
AcDbEntity
  8
器具
100
AcDbLine
 10
5232.641123561968
 20
-83077.26723489542
 30
0.0
 11
5215.136174610094
 21
-83077.87997126261
 31
0.0
  0
LINE
  5
136E0
330
1F07
100
AcDbEntity
  8
器具
100
AcDbLine
 10
5215.136174610094
 20
-83077.87997126261
 30
0.0
 11
5196.765522967663
 21
-83075.17336343023
 31
0.0
  0
LINE
  5
136E1
330
1F07
100
AcDbEntity
  8
器具
100
AcDbLine
 10
5196.765522967663
 20
-83075.17336343023
 30
0.0
 11
5182.535828866914
 21
-83069.56904160868
 31
0.0
  0
LINE
  5
136E2
330
1F07
100
AcDbEntity
  8
器具
100
AcDbLine
 10
5182.535828866914
 20
-83069.56904160868
 30
0.0
 11
5174.503972583683
 21
-83062.71300562936
 31
0.0
  0
LINE
  5
136E3
330
1F07
100
AcDbEntity
  8
器具
100
AcDbLine
 10
5174.503972583683
 20
-83062.71300562936
 30
0.0
 11
5171.955413454783
 21
-83055.52517554454
 31
0.0
  0
LINE
  5
136E4
330
1F07
100
AcDbEntity
  8
器具
100
AcDbLine
 10
5484.684923946707
 20
-83145.9771078201
 30
0.0
 11
5426.607075610571
 21
-83190.36897410816
 31
0.0
  0
LINE
  5
136E5
330
1F07
100
AcDbEntity
  8
器具
100
AcDbLine
 10
5426.607075610571
 20
-83190.36897410816
 30
0.0
 11
5354.777390038583
 21
-83230.82917546685
 31
0.0
  0
LINE
  5
136E6
330
1F07
100
AcDbEntity
  8
器具
100
AcDbLine
 10
5354.777390038583
 20
-83230.82917546685
 30
0.0
 11
5257.687909460336
 21
-83269.42837760574
 31
0.0
  0
LINE
  5
136E7
330
1F07
100
AcDbEntity
  8
器具
100
AcDbLine
 10
5257.687909460336
 20
-83269.42837760574
 30
0.0
 11
5177.25538075259
 21
-83291.30802891526
 31
0.0
  0
LINE
  5
136E8
330
1F07
100
AcDbEntity
  8
器具
100
AcDbLine
 10
5169.582597107893
 20
-83217.16710820673
 30
0.0
 11
5273.685593874578
 21
-83186.44468048679
 31
0.0
  0
LINE
  5
136E9
330
1F07
100
AcDbEntity
  8
器具
100
AcDbLine
 10
5273.685593874578
 20
-83186.44468048679
 30
0.0
 11
5354.69819083641
 21
-83150.48103014191
 31
0.0
  0
LINE
  5
136EA
330
1F07
100
AcDbEntity
  8
器具
100
AcDbLine
 10
5354.69819083641
 20
-83150.48103014191
 30
0.0
 11
5449.496601189789
 21
-83086.48485082128
 31
0.0
  0
LINE
  5
136EB
330
1F07
100
AcDbEntity
  8
器具
100
AcDbLine
 10
4966.212762699544
 20
-82877.19459493386
 30
0.0
 11
4897.645900222124
 21
-82876.03449672735
 31
0.0
  0
LINE
  5
136EC
330
1F07
100
AcDbEntity
  8
器具
100
AcDbLine
 10
5042.199089348456
 20
-83311.95062614131
 30
0.0
 11
4932.290201726218
 21
-83315.71388233781
 31
0.0
  0
LINE
  5
136ED
330
1F07
100
AcDbEntity
  8
器具
100
AcDbLine
 10
4932.290201726218
 20
-83315.71388233781
 30
0.0
 11
4819.257760635961
 21
-83307.83167625218
 31
0.0
  0
LINE
  5
136EE
330
1F07
100
AcDbEntity
  8
器具
100
AcDbLine
 10
4948.816312810953
 20
-83241.21531233467
 30
0.0
 11
5050.052103828125
 21
-83236.36712845161
 31
0.0
  0
LINE
  5
136EF
330
1F07
100
AcDbEntity
  8
器具
100
AcDbLine
 10
5449.496601189789
 20
-83086.48485082128
 30
0.0
 11
5498.567014336994
 21
-83034.44527608732
 31
0.0
  0
LINE
  5
136F0
330
1F07
100
AcDbEntity
  8
器具
100
AcDbLine
 10
5024.51428220655
 20
-82870.01046834362
 30
0.0
 11
4966.212762699544
 21
-82877.19459493386
 31
0.0
  0
LINE
  5
136F1
330
1F07
100
AcDbEntity
  8
器具
100
AcDbLine
 10
4897.645900222124
 20
-82876.03449672735
 30
0.0
 11
4847.904299772659
 21
-82868.53873561566
 31
0.0
  0
LINE
  5
136F2
330
1F07
100
AcDbEntity
  8
器具
100
AcDbLine
 10
4847.904299772659
 20
-82868.53873561566
 30
0.0
 11
4791.728500824062
 21
-82851.68792910372
 31
0.0
  0
LINE
  5
136F3
330
1F07
100
AcDbEntity
  8
器具
100
AcDbLine
 10
4819.257760635961
 20
-83307.83167625218
 30
0.0
 11
4711.697847929515
 21
-83288.4739786656
 31
0.0
  0
LINE
  5
136F4
330
1F07
100
AcDbEntity
  8
器具
100
AcDbLine
 10
4805.460343869519
 20
-83230.92812918163
 30
0.0
 11
4948.816312810953
 21
-83241.21531233467
 31
0.0
  0
LINE
  5
136F5
330
1F07
100
AcDbEntity
  8
器具
100
AcDbLine
 10
5174.233262255311
 20
-82789.79925504316
 30
0.0
 11
5142.746341732505
 21
-82822.11604885619
 31
0.0
  0
LINE
  5
136F6
330
1F07
100
AcDbEntity
  8
器具
100
AcDbLine
 10
5171.955413454783
 20
-83055.52517554454
 30
0.0
 11
5171.365748224187
 21
-82948.92775944173
 31
0.0
  0
LINE
  5
136F7
330
1F07
100
AcDbEntity
  8
器具
100
AcDbLine
 10
5268.952950250149
 20
-82952.00808765637
 30
0.0
 11
5269.52259049036
 21
-83054.98546291323
 31
0.0
  0
LINE
  5
136F8
330
1F07
100
AcDbEntity
  8
器具
100
AcDbLine
 10
4649.373547810432
 20
-82965.04729627612
 30
0.0
 11
4635.904617986107
 21
-82957.78589348268
 31
0.0
  0
LINE
  5
136F9
330
1F07
100
AcDbEntity
  8
器具
100
AcDbLine
 10
4721.901243040885
 20
-82957.26702750695
 30
0.0
 11
4701.795687577233
 21
-82966.75048524997
 31
0.0
  0
LINE
  5
136FA
330
1F07
100
AcDbEntity
  8
器具
100
AcDbLine
 10
4737.171436535649
 20
-82821.27504627904
 30
0.0
 11
4700.975371579081
 21
-82777.13201713545
 31
0.0
  0
LINE
  5
136FB
330
1F07
100
AcDbEntity
  8
器具
100
AcDbLine
 10
4728.213540430647
 20
-83057.01224550071
 30
0.0
 11
4727.602278631204
 21
-82946.51068464471
 31
0.0
  0
LINE
  5
136FC
330
1F07
100
AcDbEntity
  8
器具
100
AcDbLine
 10
4313.195609169965
 20
-82968.68973163345
 30
0.0
 11
4317.861869353452
 21
-82881.23915759948
 31
0.0
  0
LINE
  5
136FD
330
1F07
100
AcDbEntity
  8
器具
100
AcDbLine
 10
4361.141903760528
 20
-82923.40106060294
 30
0.0
 11
4382.210676014318
 21
-82994.7423430397
 31
0.0
  0
LINE
  5
136FE
330
1F07
100
AcDbEntity
  8
器具
100
AcDbLine
 10
4421.624181114777
 20
-83147.88709410642
 30
0.0
 11
4363.511039682466
 21
-83082.82257950567
 31
0.0
  0
LINE
  5
136FF
330
1F07
100
AcDbEntity
  8
器具
100
AcDbLine
 10
4305.80886284227
 20
-83331.98177299326
 30
0.0
 11
4292.099067837233
 21
-83370.78099921829
 31
0.0
  0
LINE
  5
13700
330
1F07
100
AcDbEntity
  8
器具
100
AcDbLine
 10
4363.511039682466
 20
-83082.82257950567
 30
0.0
 11
4332.292092018422
 21
-83025.94022050826
 31
0.0
  0
LINE
  5
13701
330
1F07
100
AcDbEntity
  8
器具
100
AcDbLine
 10
4382.210676014318
 20
-82994.7423430397
 30
0.0
 11
4421.525780952687
 21
-83053.35656361512
 31
0.0
  0
LINE
  5
13702
330
1F07
100
AcDbEntity
  8
器具
100
AcDbLine
 10
4332.292092018422
 20
-83025.94022050826
 30
0.0
 11
4313.195609169965
 21
-82968.68973163345
 31
0.0
  0
LINE
  5
13703
330
1F07
100
AcDbEntity
  8
器具
100
AcDbLine
 10
4314.478044823172
 20
-83349.12049018752
 30
0.0
 11
4312.400894167356
 21
-82965.45000903417
 31
0.0
  0
LINE
  5
13704
330
1F07
100
AcDbEntity
  8
器具
100
AcDbLine
 10
5465.163727032079
 20
-82689.49612322959
 30
0.0
 11
5519.273660073382
 21
-82740.31544740809
 31
0.0
  0
LINE
  5
13705
330
1F07
100
AcDbEntity
  8
器具
100
AcDbLine
 10
5523.085531770881
 20
-82800.55481103957
 30
0.0
 11
5485.357690264436
 21
-82746.00759452418
 31
0.0
  0
LINE
  5
13706
330
1F07
100
AcDbEntity
  8
器具
100
AcDbLine
 10
5559.523443271464
 20
-82795.93750383176
 30
0.0
 11
5586.83704804195
 21
-82861.49768852292
 31
0.0
  0
LINE
  5
13707
330
1F07
100
AcDbEntity
  8
器具
100
AcDbLine
 10
5545.709924781136
 20
-82868.30596000665
 30
0.0
 11
5523.085531770881
 21
-82800.55481103957
 31
0.0
  0
LINE
  5
13708
330
1F07
100
AcDbEntity
  8
器具
100
AcDbLine
 10
5519.273660073382
 20
-82740.31544740809
 30
0.0
 11
5559.523443271464
 21
-82795.93750383176
 31
0.0
  0
LINE
  5
13709
330
1F07
100
AcDbEntity
  8
器具
100
AcDbLine
 10
4445.01968699129
 20
-82726.51443126733
 30
0.0
 11
4392.626410048804
 21
-82791.04410323288
 31
0.0
  0
LINE
  5
1370A
330
1F07
100
AcDbEntity
  8
器具
100
AcDbLine
 10
4421.192299198732
 20
-82711.74152912196
 30
0.0
 11
4465.7978419667
 21
-82676.02870274172
 31
0.0
  0
LINE
  5
1370B
330
1F07
100
AcDbEntity
  8
器具
100
AcDbLine
 10
4510.381740808381
 20
-82675.30926839686
 30
0.0
 11
4445.01968699129
 21
-82726.51443126733
 31
0.0
  0
LINE
  5
1370C
330
1F07
100
AcDbEntity
  8
器具
100
AcDbLine
 10
4703.820619423431
 20
-82713.4647871229
 30
0.0
 11
4725.79486623545
 21
-82684.90620055755
 31
0.0
  0
LINE
  5
1370D
330
1F07
100
AcDbEntity
  8
器具
100
AcDbLine
 10
4725.79486623545
 20
-82684.90620055755
 30
0.0
 11
4731.618975833593
 21
-82680.27685289879
 31
0.0
  0
LINE
  5
1370E
330
1F07
100
AcDbEntity
  8
器具
100
AcDbLine
 10
4741.731263019785
 20
-82672.23900741852
 30
0.0
 11
4748.815219570964
 21
-82666.6082586969
 31
0.0
  0
LINE
  5
1370F
330
1F07
100
AcDbEntity
  8
器具
100
AcDbLine
 10
4605.825458854704
 20
-82723.09248220325
 30
0.0
 11
4604.983319919998
 21
-82659.85873678278
 31
0.0
  0
LINE
  5
13710
330
1F07
100
AcDbEntity
  8
器具
100
AcDbLine
 10
4697.657048819343
 20
-82674.80099726958
 30
0.0
 11
4697.874157147365
 21
-82714.04900705034
 31
0.0
  0
LINE
  5
13711
330
1F07
100
AcDbEntity
  8
器具
100
AcDbLine
 10
4465.7978419667
 20
-82676.02870274172
 30
0.0
 11
4519.36375788839
 21
-82642.38643725697
 31
0.0
  0
LINE
  5
13712
330
1F07
100
AcDbEntity
  8
器具
100
AcDbLine
 10
5179.134113868514
 20
-82600.99517072736
 30
0.0
 11
5212.789000664105
 21
-82598.52657964025
 31
0.0
  0
LINE
  5
13713
330
1F07
100
AcDbEntity
  8
器具
100
AcDbLine
 10
5212.789000664105
 20
-82598.52657964025
 30
0.0
 11
5234.993582867319
 21
-82604.17383512432
 31
0.0
  0
LINE
  5
13714
330
1F07
100
AcDbEntity
  8
器具
100
AcDbLine
 10
5234.993582867319
 20
-82604.17383512432
 30
0.0
 11
5248.617445473012
 21
-82619.36537421934
 31
0.0
  0
LINE
  5
13715
330
1F07
100
AcDbEntity
  8
器具
100
AcDbLine
 10
5248.617445473012
 20
-82619.36537421934
 30
0.0
 11
5228.934642757732
 21
-82637.18498561178
 31
0.0
  0
LINE
  5
13716
330
1F07
100
AcDbEntity
  8
器具
100
AcDbLine
 10
5228.934642757732
 20
-82637.18498561178
 30
0.0
 11
5194.739481950795
 21
-82640.98027661885
 31
0.0
  0
LINE
  5
13717
330
1F07
100
AcDbEntity
  8
器具
100
AcDbLine
 10
5194.739481950795
 20
-82640.98027661885
 30
0.0
 11
5168.356581977604
 21
-82634.49774844803
 31
0.0
  0
LINE
  5
13718
330
1F07
100
AcDbEntity
  8
器具
100
AcDbLine
 10
5185.677397842589
 20
-82577.99911145141
 30
0.0
 11
5207.296621353691
 21
-82583.79343186586
 31
0.0
  0
LINE
  5
13719
330
1F07
100
AcDbEntity
  8
器具
100
AcDbLine
 10
5190.962277977833
 20
-82557.52857469822
 30
0.0
 11
5207.869831928308
 21
-82560.55877980534
 31
0.0
  0
LINE
  5
1371A
330
1F07
100
AcDbEntity
  8
器具
100
AcDbLine
 10
5338.846474954102
 20
-82614.55293813581
 30
0.0
 11
5400.726286346442
 21
-82645.96091539191
 31
0.0
  0
LINE
  5
1371B
330
1F07
100
AcDbEntity
  8
器具
100
AcDbLine
 10
5485.357690264436
 20
-82746.00759452418
 30
0.0
 11
5417.71941244345
 21
-82685.59258737063
 31
0.0
  0
LINE
  5
1371C
330
1F07
100
AcDbEntity
  8
器具
100
AcDbLine
 10
5159.511370413133
 20
-82685.30596002815
 30
0.0
 11
5176.274315865676
 21
-82706.22602295279
 31
0.0
  0
LINE
  5
1371D
330
1F07
100
AcDbEntity
  8
器具
100
AcDbLine
 10
5248.617445473012
 20
-82619.36537421934
 30
0.0
 11
5249.143947185727
 21
-82714.54433215282
 31
0.0
  0
LINE
  5
1371E
330
1F07
100
AcDbEntity
  8
器具
100
AcDbLine
 10
5400.726286346442
 20
-82645.96091539191
 30
0.0
 11
5465.163727032079
 21
-82689.49612322959
 31
0.0
  0
LINE
  5
1371F
330
1F07
100
AcDbEntity
  8
器具
100
AcDbLine
 10
5417.71941244345
 20
-82685.59258737063
 30
0.0
 11
5355.327494317269
 21
-82647.54310170633
 31
0.0
  0
LINE
  5
13720
330
1F07
100
AcDbEntity
  8
器具
100
AcDbLine
 10
4368.199832109513
 20
-82770.19320677194
 30
0.0
 11
4421.192299198732
 21
-82711.74152912196
 31
0.0
  0
LINE
  5
13721
330
1F07
100
AcDbEntity
  8
器具
100
AcDbLine
 10
4338.634109016042
 20
-82819.55187648041
 30
0.0
 11
4368.199832109513
 21
-82770.19320677194
 31
0.0
  0
LINE
  5
13722
330
1F07
100
AcDbEntity
  8
器具
100
AcDbLine
 10
4392.626410048804
 20
-82791.04410323288
 30
0.0
 11
4368.911546791449
 21
-82843.77127217727
 31
0.0
  0
LINE
  5
13723
330
1F07
100
AcDbEntity
  8
器具
100
AcDbLine
 10
4836.664560540474
 20
-82865.16720063811
 30
0.0
 11
4784.638961475226
 21
-83226.4133591768
 31
0.0
  0
LINE
  5
13724
330
1F07
100
AcDbEntity
  8
器具
100
AcDbLine
 10
5075.321595416276
 20
-82855.93636436288
 30
0.0
 11
5142.825837849314
 21
-83221.46500998385
 31
0.0
  0
LINE
  5
13725
330
1F07
100
AcDbEntity
  8
器具
100
AcDbLine
 10
4719.07340405716
 20
-82799.20353170702
 30
0.0
 11
4382.210676014318
 21
-82994.7423430397
 31
0.0
  0
LINE
  5
13726
330
1F07
100
AcDbEntity
  8
器具
100
AcDbLine
 10
4703.820619423431
 20
-82713.4647871229
 30
0.0
 11
4434.099670672299
 21
-82739.96396357492
 31
0.0
  0
LINE
  5
13727
330
1F07
100
AcDbEntity
  8
器具
100
AcDbLine
 10
5176.274315865676
 20
-82706.22602295279
 30
0.0
 11
5479.583144743671
 21
-82740.84972799954
 31
0.0
  0
LINE
  5
13728
330
1F07
100
AcDbEntity
  8
器具
100
AcDbLine
 10
5174.233262255311
 20
-82789.79925504316
 30
0.0
 11
5514.602081023588
 21
-83000.70498253473
 31
0.0
  0
LINE
  5
13729
330
1F07
100
AcDbEntity
  8
器具
100
AcDbLine
 10
5506.385124168766
 20
-82995.61343722363
 30
0.0
 11
5276.878487104642
 21
-82976.81567963577
 31
0.0
  0
LINE
  5
1372A
330
1F07
100
AcDbEntity
  8
器具
100
AcDbLine
 10
4382.210676014318
 20
-82994.7423430397
 30
0.0
 11
4606.225790430559
 21
-82963.91069957435
 31
0.0
  0
LINE
  5
1372B
330
1F07
100
AcDbEntity
  8
器具
100
AcDbLine
 10
5577.577304459119
 20
-83499.30794279597
 30
0.0
 11
5512.061221575283
 21
-83598.58470490292
 31
0.0
  0
LINE
  5
1372C
330
1F07
100
AcDbEntity
  8
器具
100
AcDbLine
 10
5558.063793621352
 20
-83652.61509903355
 30
0.0
 11
5509.492427221499
 21
-83705.13657718822
 31
0.0
  0
LINE
  5
1372D
330
1F07
100
AcDbEntity
  8
器具
100
AcDbLine
 10
5466.04969433617
 20
-83689.37716063246
 30
0.0
 11
5520.608460674423
 21
-83643.37093620742
 31
0.0
  0
LINE
  5
1372E
330
1F07
100
AcDbEntity
  8
器具
100
AcDbLine
 10
5564.670638917131
 20
-83592.39774394758
 30
0.0
 11
5600.935511054577
 21
-83527.59515580268
 31
0.0
  0
LINE
  5
1372F
330
1F07
100
AcDbEntity
  8
器具
100
AcDbLine
 10
5601.159425034071
 20
-83578.70801147718
 30
0.0
 11
5558.063793621352
 21
-83652.61509903355
 31
0.0
  0
LINE
  5
13730
330
1F07
100
AcDbEntity
  8
器具
100
AcDbLine
 10
5600.935511054577
 20
-83527.59515580268
 30
0.0
 11
5620.106000246538
 21
-83465.62833990647
 31
0.0
  0
LINE
  5
13731
330
1F07
100
AcDbEntity
  8
器具
100
AcDbLine
 10
5620.106000246538
 20
-83465.62833990647
 30
0.0
 11
5619.843677230132
 21
-83414.95401617091
 31
0.0
  0
LINE
  5
13732
330
1F07
100
AcDbEntity
  8
器具
100
AcDbLine
 10
5620.620801867417
 20
-83478.14767764003
 30
0.0
 11
5601.159425034071
 21
-83578.70801147718
 31
0.0
  0
LINE
  5
13733
330
1F07
100
AcDbEntity
  8
器具
100
AcDbLine
 10
5596.459832885023
 20
-83417.62383167637
 30
0.0
 11
5577.577304459119
 21
-83499.30794279597
 31
0.0
  0
LINE
  5
13734
330
1F07
100
AcDbEntity
  8
器具
100
AcDbLine
 10
5520.608460674423
 20
-83643.37093620742
 30
0.0
 11
5564.670638917131
 21
-83592.39774394758
 31
0.0
  0
LINE
  5
13735
330
1F07
100
AcDbEntity
  8
器具
100
AcDbLine
 10
4509.416110687609
 20
-83687.47289620943
 30
0.0
 11
4442.313371238823
 21
-83640.15707391926
 31
0.0
  0
LINE
  5
13736
330
1F07
100
AcDbEntity
  8
器具
100
AcDbLine
 10
4379.725178474211
 20
-83643.96790063741
 30
0.0
 11
4445.197278106003
 21
-83698.2912274991
 31
0.0
  0
LINE
  5
13737
330
1F07
100
AcDbEntity
  8
器具
100
AcDbLine
 10
4464.873476810054
 20
-83762.21741491178
 30
0.0
 11
4379.868596025533
 21
-83694.80051244838
 31
0.0
  0
LINE
  5
13738
330
1F07
100
AcDbEntity
  8
器具
100
AcDbLine
 10
4453.850695645797
 20
-83703.68534057179
 30
0.0
 11
4497.117783346073
 21
-83730.65590593574
 31
0.0
  0
LINE
  5
13739
330
1F07
100
AcDbEntity
  8
器具
100
AcDbLine
 10
4541.582271732146
 20
-83804.15778233695
 30
0.0
 11
4477.658275963587
 21
-83769.20747614923
 31
0.0
  0
LINE
  5
1373A
330
1F07
100
AcDbEntity
  8
器具
100
AcDbLine
 10
4574.372723230894
 20
-83720.19394909022
 30
0.0
 11
4509.416110687609
 21
-83687.47289620943
 31
0.0
  0
LINE
  5
1373B
330
1F07
100
AcDbEntity
  8
器具
100
AcDbLine
 10
4497.117783346073
 20
-83730.65590593574
 30
0.0
 11
4578.930157409002
 21
-83769.50221956242
 31
0.0
  0
LINE
  5
1373C
330
1F07
100
AcDbEntity
  8
器具
100
AcDbLine
 10
4773.812313388602
 20
-83778.62507780866
 30
0.0
 11
4697.134573734657
 21
-83762.21145707294
 31
0.0
  0
LINE
  5
1373D
330
1F07
100
AcDbEntity
  8
器具
100
AcDbLine
 10
4688.047773529484
 20
-83805.0053918554
 30
0.0
 11
4798.089299620118
 21
-83826.5565465803
 31
0.0
  0
LINE
  5
1373E
330
1F07
100
AcDbEntity
  8
器具
100
AcDbLine
 10
4790.849588700442
 20
-83876.45223382017
 30
0.0
 11
4666.13767311821
 21
-83850.00741912882
 31
0.0
  0
LINE
  5
1373F
330
1F07
100
AcDbEntity
  8
器具
100
AcDbLine
 10
4697.134573734657
 20
-83762.21145707294
 30
0.0
 11
4574.372723230894
 21
-83720.19394909022
 31
0.0
  0
LINE
  5
13740
330
1F07
100
AcDbEntity
  8
器具
100
AcDbLine
 10
4578.930157409002
 20
-83769.50221956242
 30
0.0
 11
4688.047773529484
 21
-83805.0053918554
 31
0.0
  0
LINE
  5
13741
330
1F07
100
AcDbEntity
  8
器具
100
AcDbLine
 10
4666.13767311821
 20
-83850.00741912882
 30
0.0
 11
4541.582271732146
 21
-83804.15778233695
 31
0.0
  0
LINE
  5
13742
330
1F07
100
AcDbEntity
  8
器具
100
AcDbLine
 10
5235.873786077672
 20
-83754.34421288051
 30
0.0
 11
5097.50203058375
 21
-83783.67730507378
 31
0.0
  0
LINE
  5
13743
330
1F07
100
AcDbEntity
  8
器具
100
AcDbLine
 10
5086.725176017184
 20
-83828.07478795326
 30
0.0
 11
5195.651814446494
 21
-83808.19889676887
 31
0.0
  0
LINE
  5
13744
330
1F07
100
AcDbEntity
  8
器具
100
AcDbLine
 10
5196.00318271888
 20
-83859.1528695955
 30
0.0
 11
5086.705842317187
 21
-83879.08389108689
 31
0.0
  0
LINE
  5
13745
330
1F07
100
AcDbEntity
  8
器具
100
AcDbLine
 10
5420.90942837299
 20
-83672.77161495923
 30
0.0
 11
5335.321058718569
 21
-83718.24377257
 31
0.0
  0
LINE
  5
13746
330
1F07
100
AcDbEntity
  8
器具
100
AcDbLine
 10
5335.321058718569
 20
-83718.24377257
 30
0.0
 11
5235.873786077672
 21
-83754.34421288051
 31
0.0
  0
LINE
  5
13747
330
1F07
100
AcDbEntity
  8
器具
100
AcDbLine
 10
5195.651814446494
 20
-83808.19889676887
 30
0.0
 11
5286.164957491973
 21
-83781.58875526244
 31
0.0
  0
LINE
  5
13748
330
1F07
100
AcDbEntity
  8
器具
100
AcDbLine
 10
5286.164957491973
 20
-83781.58875526244
 30
0.0
 11
5355.439637816267
 21
-83753.59178477012
 31
0.0
  0
LINE
  5
13749
330
1F07
100
AcDbEntity
  8
器具
100
AcDbLine
 10
5355.439637816267
 20
-83753.59178477012
 30
0.0
 11
5419.96413973522
 21
-83719.75392921143
 31
0.0
  0
LINE
  5
1374A
330
1F07
100
AcDbEntity
  8
器具
100
AcDbLine
 10
5419.96413973522
 20
-83719.75392921143
 30
0.0
 11
5466.04969433617
 21
-83689.37716063246
 31
0.0
  0
LINE
  5
1374B
330
1F07
100
AcDbEntity
  8
器具
100
AcDbLine
 10
5446.722740876595
 20
-83754.03324238089
 30
0.0
 11
5336.277732732949
 21
-83813.19143205837
 31
0.0
  0
LINE
  5
1374C
330
1F07
100
AcDbEntity
  8
器具
100
AcDbLine
 10
5336.277732732949
 20
-83813.19143205837
 30
0.0
 11
5196.00318271888
 21
-83859.1528695955
 31
0.0
  0
LINE
  5
1374D
330
1F07
100
AcDbEntity
  8
器具
100
AcDbLine
 10
5097.50203058375
 20
-83783.67730507378
 30
0.0
 11
4998.824371708581
 21
-83792.58105322202
 31
0.0
  0
LINE
  5
1374E
330
1F07
100
AcDbEntity
  8
器具
100
AcDbLine
 10
4998.824371708581
 20
-83792.58105322202
 30
0.0
 11
4883.50252661981
 21
-83791.43747884977
 31
0.0
  0
LINE
  5
1374F
330
1F07
100
AcDbEntity
  8
器具
100
AcDbLine
 10
4908.786574498785
 20
-83836.15466330672
 30
0.0
 11
5007.685917021404
 21
-83835.23892622671
 31
0.0
  0
LINE
  5
13750
330
1F07
100
AcDbEntity
  8
器具
100
AcDbLine
 10
5007.685917021404
 20
-83835.23892622671
 30
0.0
 11
5086.725176017184
 21
-83828.07478795326
 31
0.0
  0
LINE
  5
13751
330
1F07
100
AcDbEntity
  8
器具
100
AcDbLine
 10
5086.705842317187
 20
-83879.08389108689
 30
0.0
 11
4999.055757072079
 21
-83886.65530612177
 31
0.0
  0
LINE
  5
13752
330
1F07
100
AcDbEntity
  8
器具
100
AcDbLine
 10
5512.061221575283
 20
-83598.58470490292
 30
0.0
 11
5420.90942837299
 21
-83672.77161495923
 31
0.0
  0
LINE
  5
13753
330
1F07
100
AcDbEntity
  8
器具
100
AcDbLine
 10
5509.492427221499
 20
-83705.13657718822
 30
0.0
 11
5446.722740876595
 21
-83754.03324238089
 31
0.0
  0
LINE
  5
13754
330
1F07
100
AcDbEntity
  8
器具
100
AcDbLine
 10
4883.50252661981
 20
-83791.43747884977
 30
0.0
 11
4773.812313388602
 21
-83778.62507780866
 31
0.0
  0
LINE
  5
13755
330
1F07
100
AcDbEntity
  8
器具
100
AcDbLine
 10
4798.089299620118
 20
-83826.5565465803
 30
0.0
 11
4908.786574498785
 21
-83836.15466330672
 31
0.0
  0
LINE
  5
13756
330
1F07
100
AcDbEntity
  8
器具
100
AcDbLine
 10
4999.055757072079
 20
-83886.65530612177
 30
0.0
 11
4790.849588700442
 21
-83876.45223382017
 31
0.0
  0
LINE
  5
13757
330
1F07
100
AcDbEntity
  8
器具
100
AcDbLine
 10
4428.892823349359
 20
-83630.69390946135
 30
0.0
 11
4376.100426745519
 21
-83575.57216027643
 31
0.0
  0
LINE
  5
13758
330
1F07
100
AcDbEntity
  8
器具
100
AcDbLine
 10
4319.376689318753
 20
-83456.35794431409
 30
0.0
 11
4314.478044823172
 21
-83409.04404714834
 31
0.0
  0
LINE
  5
13759
330
1F07
100
AcDbEntity
  8
器具
100
AcDbLine
 10
4283.777526984562
 20
-83422.44089477707
 30
0.0
 11
4283.899010241846
 21
-83476.81455205847
 31
0.0
  0
LINE
  5
1375A
330
1F07
100
AcDbEntity
  8
器具
100
AcDbLine
 10
4283.899010241846
 20
-83476.81455205847
 30
0.0
 11
4308.165417956876
 21
-83544.32778789622
 31
0.0
  0
LINE
  5
1375B
330
1F07
100
AcDbEntity
  8
器具
100
AcDbLine
 10
4302.840414829169
 20
-83582.40679144806
 30
0.0
 11
4287.757970096893
 21
-83530.97164031645
 31
0.0
  0
LINE
  5
1375C
330
1F07
100
AcDbEntity
  8
器具
100
AcDbLine
 10
4287.757970096893
 20
-83530.97164031645
 30
0.0
 11
4283.899010241846
 21
-83476.81455205847
 31
0.0
  0
LINE
  5
1375D
330
1F07
100
AcDbEntity
  8
器具
100
AcDbLine
 10
4376.100426745519
 20
-83575.57216027643
 30
0.0
 11
4360.440117624729
 21
-83553.7786099438
 31
0.0
  0
LINE
  5
1375E
330
1F07
100
AcDbEntity
  8
器具
100
AcDbLine
 10
4360.440117624729
 20
-83553.7786099438
 30
0.0
 11
4331.158374752045
 21
-83496.97139843019
 31
0.0
  0
LINE
  5
1375F
330
1F07
100
AcDbEntity
  8
器具
100
AcDbLine
 10
4338.500121680321
 20
-83595.85062155954
 30
0.0
 11
4379.725178474211
 21
-83643.96790063741
 31
0.0
  0
LINE
  5
13760
330
1F07
100
AcDbEntity
  8
器具
100
AcDbLine
 10
4379.868596025533
 20
-83694.80051244838
 30
0.0
 11
4334.184794139524
 21
-83640.27209681086
 31
0.0
  0
LINE
  5
13761
330
1F07
100
AcDbEntity
  8
器具
100
AcDbLine
 10
4331.158374752045
 20
-83496.97139843019
 30
0.0
 11
4319.376689318753
 21
-83456.35794431409
 31
0.0
  0
LINE
  5
13762
330
1F07
100
AcDbEntity
  8
器具
100
AcDbLine
 10
4308.165417956876
 20
-83544.32778789622
 30
0.0
 11
4338.500121680321
 21
-83595.85062155954
 31
0.0
  0
LINE
  5
13763
330
1F07
100
AcDbEntity
  8
器具
100
AcDbLine
 10
4334.184794139524
 20
-83640.27209681086
 30
0.0
 11
4302.840414829169
 21
-83582.40679144806
 31
0.0
  0
LINE
  5
13764
330
1F07
100
AcDbEntity
  8
器具
100
AcDbLine
 10
5619.843677230132
 20
-83414.95401617091
 30
0.0
 11
5613.510277131641
 21
-83373.29638647895
 31
0.0
  0
LINE
  5
13765
330
1F07
100
AcDbEntity
  8
器具
100
AcDbLine
 10
4292.099067837233
 20
-83370.78099921829
 30
0.0
 11
4283.777526984562
 21
-83422.44089477707
 31
0.0
  0
LINE
  5
13766
330
1F07
100
AcDbEntity
  8
器具
100
AcDbLine
 10
5534.515929310897
 20
-83091.15370395462
 30
0.0
 11
5534.515929310897
 21
-83545.34903390725
 31
0.0
  0
LINE
  5
13767
330
1F07
100
AcDbEntity
  8
器具
100
AcDbLine
 10
5476.742942101521
 20
-83166.87949092832
 30
0.0
 11
5476.742942101521
 21
-83621.07482088061
 31
0.0
  0
LINE
  5
13768
330
1F07
100
AcDbEntity
  8
器具
100
AcDbLine
 10
5405.970271315705
 20
-83213.34928496899
 30
0.0
 11
5405.970271315705
 21
-83667.54461492137
 31
0.0
  0
LINE
  5
13769
330
1F07
100
AcDbEntity
  8
器具
100
AcDbLine
 10
5314.977917732332
 20
-83253.75775297036
 30
0.0
 11
5314.977917732332
 21
-83707.95308292274
 31
0.0
  0
LINE
  5
1376A
330
1F07
100
AcDbEntity
  8
器具
100
AcDbLine
 10
4707.392491896683
 20
-83295.97205500293
 30
0.0
 11
4707.392491896683
 21
-83750.16738495563
 31
0.0
  0
LINE
  5
1376B
330
1F07
100
AcDbEntity
  8
器具
100
AcDbLine
 10
4614.73974121717
 20
-83262.30726591239
 30
0.0
 11
4614.73974121717
 21
-83716.50259586473
 31
0.0
  0
LINE
  5
1376C
330
1F07
100
AcDbEntity
  8
器具
100
AcDbLine
 10
4529.105598174117
 20
-83231.44782938003
 30
0.0
 11
4529.105598174117
 21
-83685.64315933266
 31
0.0
  0
LINE
  5
1376D
330
1F07
100
AcDbEntity
  8
器具
100
AcDbLine
 10
4463.125068911386
 20
-83187.9643063349
 30
0.0
 11
4463.125068911386
 21
-83642.15963628756
 31
0.0
  0
LINE
  5
1376E
330
1F07
100
AcDbEntity
  8
器具
100
AcDbLine
 10
4408.375176094403
 20
-83138.86951978323
 30
0.0
 11
4408.375176094403
 21
-83593.06484973574
 31
0.0
  0
CIRCLE
  5
1376F
330
1F07
100
AcDbEntity
  8
器具
100
AcDbCircle
 10
4443.117011551094
 20
-81831.75866814339
 30
0.0
 40
37.24638237972344
  0
LINE
  5
13770
330
1F07
100
AcDbEntity
  8
器具
100
AcDbLine
 10
4342.012041177135
 20
-81907.53995255166
 30
0.0
 11
4159.26049542313
 21
-81993.26526631448
 31
0.0
  0
LINE
  5
13771
330
1F07
100
AcDbEntity
  8
器具
100
AcDbLine
 10
4123.889295096335
 20
-81921.78875251038
 30
0.0
 11
4338.991051127401
 21
-81834.29201215135
 31
0.0
  0
LINE
  5
13772
330
1F07
100
AcDbEntity
  8
器具
100
AcDbLine
 10
4086.247754385171
 20
-81341.56670559198
 30
0.0
 11
4387.380080078147
 21
-81208.80314575567
 31
0.0
  0
LINE
  5
13773
330
1F07
100
AcDbEntity
  8
器具
100
AcDbLine
 10
4387.380080078147
 20
-81208.80314575567
 30
0.0
 11
4389.123127920611
 21
-81180.96804640414
 31
0.0
  0
LINE
  5
13774
330
1F07
100
AcDbEntity
  8
器具
100
AcDbLine
 10
4389.123127920611
 20
-81180.96804640414
 30
0.0
 11
4393.667764066451
 21
-81160.86023085358
 31
0.0
  0
LINE
  5
13775
330
1F07
100
AcDbEntity
  8
器具
100
AcDbLine
 10
4393.667764066451
 20
-81160.86023085358
 30
0.0
 11
4103.459550507343
 21
-81294.4799514326
 31
0.0
  0
MTEXT
  5
1377A
330
1F07
100
AcDbEntity
  8
記号
 62
     2
100
AcDbMText
 10
1778.83135153968
 20
-84917.6385754648
 30
0.0
 40
250.0
 41
6533.332686219465
 71
     4
 72
     5
  1
幅:186　高さ:296(mm)
  7
スタイル1
 73
     1
 44
1.0
1001
ACAD
1000
MTEXTBEGIN
1070
    73
1070
     1
1070
    44
1040
1.0
1070
    74
1070
     0
1000
MTEXTEND
  0
LINE
  5
15231
330
1F07
100
AcDbEntity
  8
器具
100
AcDbLine
 10
4693.675805447472
 20
-81426.92678355285
 30
0.0
 11
4710.921013999289
 21
-81509.83118235668
 31
0.0
  0
LINE
  5
15232
330
1F07
100
AcDbEntity
  8
器具
100
AcDbLine
 10
5188.676812903483
 20
-80933.16612937023
 30
0.0
 11
5250.018672593736
 21
-80992.07052033873
 31
0.0
  0
ENDSEC
  0
SECTION
  2
OBJECTS
  0
DICTIONARY
  5
1EF5
330
0
100
AcDbDictionary
281
     1
  3
ACAD_COLOR
350
8C47
  3
ACAD_GROUP
350
1EF6
  3
ACAD_LAYOUT
350
1F02
  3
ACAD_MATERIAL
350
8C46
  3
ACAD_MLINESTYLE
350
1EFF
  3
ACAD_PLOTSETTINGS
350
1F01
  3
ACAD_PLOTSTYLENAME
350
1EF7
  3
ACAD_TABLESTYLE
350
8C48
  3
ACDBHEADERROUNDTRIPXREC
350
15249
  3
AcDbVariableDictionary
350
4454
  0
DICTIONARY
  5
9A3A
330
1EEB
100
AcDbDictionary
280
     1
281
     1
  3
ACAD_LAYERFILTERS
360
A52F
  3
ACAD_LAYERSTATES
360
9A3B
  0
DICTIONARY
  5
980C
330
1F07
100
AcDbDictionary
280
     1
281
     1
  3
ACAD_SORTENTS
360
980D
  0
DICTIONARY
  5
8C47
102
{ACAD_REACTORS
330
1EF5
102
}
330
1EF5
100
AcDbDictionary
281
     1
  0
DICTIONARY
  5
1EF6
102
{ACAD_REACTORS
330
1EF5
102
}
330
1EF5
100
AcDbDictionary
281
     1
  0
DICTIONARY
  5
1F02
102
{ACAD_REACTORS
330
1EF5
102
}
330
1EF5
100
AcDbDictionary
281
     1
  3
Model
350
1F0A
  3
ﾚｲｱｳﾄ1
350
1F06
  0
DICTIONARY
  5
8C46
102
{ACAD_REACTORS
330
1EF5
102
}
330
1EF5
100
AcDbDictionary
281
     1
  0
DICTIONARY
  5
1EFF
102
{ACAD_REACTORS
330
1EF5
102
}
330
1EF5
100
AcDbDictionary
281
     1
  3
Standard
350
1F00
  0
DICTIONARY
  5
1F01
102
{ACAD_REACTORS
330
1EF5
102
}
330
1EF5
100
AcDbDictionary
281
     1
  0
ACDBDICTIONARYWDFLT
  5
1EF7
102
{ACAD_REACTORS
330
1EF5
102
}
330
1EF5
100
AcDbDictionary
281
     1
  3
Normal
350
1EF8
100
AcDbDictionaryWithDefault
340
1EF8
  0
DICTIONARY
  5
8C48
102
{ACAD_REACTORS
330
1EF5
102
}
330
1EF5
100
AcDbDictionary
281
     1
  3
Standard
350
8C49
  0
DICTIONARY
  5
15249
102
{ACAD_REACTORS
330
1EF5
102
}
330
1EF5
100
AcDbDictionary
281
     1
  0
DICTIONARY
  5
4454
102
{ACAD_REACTORS
330
1EF5
102
}
330
1EF5
100
AcDbDictionary
281
     1
  3
CTABLESTYLE
350
8CAE
  3
DIMASSOC
350
8CAF
  3
PROJECTNAME
350
8CB0
  3
SORTENTS
350
4455
  0
DICTIONARY
  5
A52F
102
{ACAD_REACTORS
330
9A3A
102
}
330
9A3A
100
AcDbDictionary
280
     1
281
     1
  0
DICTIONARY
  5
9A3B
102
{ACAD_REACTORS
330
9A3A
102
}
330
9A3A
100
AcDbDictionary
281
     1
  0
SORTENTSTABLE
  5
980D
102
{ACAD_REACTORS
330
980C
102
}
330
980C
100
AcDbSortentsTable
330
1F07
331
13774
  5
1377D
331
136FE
  5
13706
331
13688
  5
13690
331
1373D
  5
13745
331
13706
  5
1370E
331
136C7
  5
136CF
331
13690
  5
13698
331
13745
  5
1374D
331
136CF
  5
136D7
331
13659
  5
13661
331
1370E
  5
13716
331
1374D
  5
13755
331
13716
  5
1371E
331
136D7
  5
136DF
331
13661
  5
13669
331
136A0
  5
136A8
331
13755
  5
1375D
331
136DF
  5
136E7
331
1371E
  5
13726
331
136A8
  5
136B0
331
13669
  5
13671
331
1375D
  5
13765
331
136E7
  5
136EF
331
136B0
  5
136B8
331
13726
  5
1372E
331
13765
  5
1376D
331
1372E
  5
13736
331
136EF
  5
136F7
331
136B8
  5
136C0
331
13679
  5
13681
331
1376D
  5
13775
331
136F7
  5
136FF
331
13681
  5
13689
331
13736
  5
1373E
331
13775
  5
1377E
331
136FF
  5
13707
331
136C0
  5
136C8
331
13689
  5
13691
331
1373E
  5
13746
331
13707
  5
1370F
331
136C8
  5
136D0
331
13691
  5
13699
331
13746
  5
1374E
331
136D0
  5
136D8
331
1365A
  5
13662
331
1370F
  5
13717
331
1374E
  5
13756
331
13717
  5
1371F
331
136D8
  5
136E0
331
13662
  5
1366A
331
136A1
  5
136A9
331
13756
  5
1375E
331
1371F
  5
13727
331
136E0
  5
136E8
331
1366A
  5
13672
331
136A9
  5
136B1
331
1375E
  5
13766
331
136E8
  5
136F0
331
136B1
  5
136B9
331
13727
  5
1372F
331
13766
  5
1376E
331
1372F
  5
13737
331
136F0
  5
136F8
331
1367A
  5
13682
331
136B9
  5
136C1
331
1376E
  5
13776
331
136F8
  5
13700
331
13682
  5
1368A
331
13737
  5
1373F
331
13700
  5
13708
331
136C1
  5
136C9
331
1368A
  5
13692
331
12F8B
  5
12F93
331
1373F
  5
13747
331
13708
  5
13710
331
136C9
  5
136D1
331
13692
  5
1369A
331
13710
  5
13718
331
136D1
  5
136D9
331
1369A
  5
136A2
331
1365B
  5
13663
331
13747
  5
1374F
331
1374F
  5
13757
331
13718
  5
13720
331
136D9
  5
136E1
331
13663
  5
1366B
331
136A2
  5
136AA
331
13757
  5
1375F
331
13720
  5
13728
331
136E1
  5
136E9
331
1366B
  5
13673
331
136AA
  5
136B2
331
1375F
  5
13767
331
136E9
  5
136F1
331
136B2
  5
136BA
331
13728
  5
13730
331
13767
  5
1376F
331
13730
  5
13738
331
136F1
  5
136F9
331
1367B
  5
13683
331
136BA
  5
136C2
331
136F9
  5
13701
331
13683
  5
1368B
331
1376F
  5
13777
331
13701
  5
13709
331
136C2
  5
136CA
331
1368B
  5
13693
331
13738
  5
13740
331
13740
  5
13748
331
13709
  5
13711
331
13693
  5
1369B
331
136CA
  5
136D2
331
13711
  5
13719
331
136D2
  5
136DA
331
1369B
  5
136A3
331
1365C
  5
13664
331
13748
  5
13750
331
13750
  5
13758
331
13719
  5
13721
331
136DA
  5
136E2
331
13664
  5
1366C
331
136A3
  5
136AB
331
13758
  5
13760
331
13721
  5
13729
331
136E2
  5
136EA
331
1366C
  5
13674
331
136AB
  5
136B3
331
13729
  5
13731
331
136EA
  5
136F2
331
136B3
  5
136BB
331
13760
  5
13768
331
13768
  5
13770
331
13731
  5
13739
331
136F2
  5
136FA
331
1367C
  5
13684
331
136BB
  5
136C3
331
136FA
  5
13702
331
13684
  5
1368C
331
13770
  5
13778
331
13702
  5
1370A
331
136C3
  5
136CB
331
1368C
  5
13694
331
13739
  5
13741
331
13741
  5
13749
331
1370A
  5
13712
331
13694
  5
1369C
331
136CB
  5
136D3
331
13712
  5
1371A
331
136D3
  5
136DB
331
1369C
  5
136A4
331
1365D
  5
13665
331
13749
  5
13751
331
13751
  5
13759
331
1371A
  5
13722
331
136A4
  5
136AC
331
13665
  5
1366D
331
136DB
  5
136E3
331
13759
  5
13761
331
13722
  5
1372A
331
136AC
  5
136B4
331
1366D
  5
13675
331
136E3
  5
136EB
331
1372A
  5
13732
331
136EB
  5
136F3
331
136B4
  5
136BC
331
13761
  5
13769
331
13769
  5
13771
331
13732
  5
1373A
331
136F3
  5
136FB
331
1367D
  5
13685
331
136BC
  5
136C4
331
136FB
  5
13703
331
13685
  5
1368D
331
13771
  5
13779
331
1373A
  5
13742
331
13703
  5
1370B
331
136C4
  5
136CC
331
1368D
  5
13695
331
13742
  5
1374A
331
1370B
  5
13713
331
13695
  5
1369D
331
136CC
  5
136D4
331
1374A
  5
13752
331
13713
  5
1371B
331
136D4
  5
136DC
331
1369D
  5
136A5
331
1365E
  5
13666
331
13752
  5
1375A
331
1371B
  5
13723
331
136A5
  5
136AD
331
13666
  5
1366E
331
136DC
  5
136E4
331
1375A
  5
13762
331
13723
  5
1372B
331
136AD
  5
136B5
331
1366E
  5
13676
331
136E4
  5
136EC
331
1372B
  5
13733
331
136EC
  5
136F4
331
136B5
  5
136BD
331
13762
  5
1376A
331
1376A
  5
13772
331
13733
  5
1373B
331
136BD
  5
136C5
331
1367E
  5
13686
331
136F4
  5
136FC
331
136FC
  5
13704
331
13686
  5
1368E
331
13772
  5
1377A
331
1373B
  5
13743
331
13704
  5
1370C
331
136C5
  5
136CD
331
1368E
  5
13696
331
1377A
  5
13783
331
13743
  5
1374B
331
1370C
  5
13714
331
13696
  5
1369E
331
13657
  5
1365F
331
136CD
  5
136D5
331
1374B
  5
13753
331
13714
  5
1371C
331
136D5
  5
136DD
331
1369E
  5
136A6
331
1365F
  5
13667
331
13753
  5
1375B
331
1371C
  5
13724
331
136A6
  5
136AE
331
13667
  5
1366F
331
136DD
  5
136E5
331
1375B
  5
13763
331
13724
  5
1372C
331
136AE
  5
136B6
331
136E5
  5
136ED
331
13763
  5
1376B
331
1372C
  5
13734
331
136ED
  5
136F5
331
136B6
  5
136BE
331
1376B
  5
13773
331
13734
  5
1373C
331
136BE
  5
136C6
331
1367F
  5
13687
331
136F5
  5
136FD
331
136FD
  5
13705
331
13687
  5
1368F
331
13773
  5
1377B
331
1373C
  5
13744
331
13705
  5
1370D
331
136C6
  5
136CE
331
1368F
  5
13697
331
13744
  5
1374C
331
136CE
  5
136D6
331
13697
  5
1369F
331
13658
  5
13660
331
1370D
  5
13715
331
1374C
  5
13754
331
13715
  5
1371D
331
136D6
  5
136DE
331
1369F
  5
136A7
331
13660
  5
13668
331
13754
  5
1375C
331
136DE
  5
136E6
331
136A7
  5
136AF
331
1371D
  5
13725
331
13668
  5
13670
331
1375C
  5
13764
331
13725
  5
1372D
331
136AF
  5
136B7
331
136E6
  5
136EE
331
13764
  5
1376C
331
1372D
  5
13735
331
136EE
  5
136F6
331
136B7
  5
136BF
331
13678
  5
13680
331
1376C
  5
13774
331
13735
  5
1373D
331
136BF
  5
136C7
331
13680
  5
13688
331
136F6
  5
136FE
  0
LAYOUT
  5
1F0A
102
{ACAD_XDICTIONARY
360
1524C
102
}
102
{ACAD_REACTORS
330
1F02
102
}
330
1F02
100
AcDbPlotSettings
  1

  2
HP DesignJet 430 (D / A1)
  4
User270
  6

 40
4.995333194732666
 41
16.93330574035644
 42
4.995330810546875
 43
16.933349609375
 44
419.9466552734374
 45
593.8519897460937
 46
0.0
 47
0.0
 48
59336.11708285688
 49
-20537.1530523113
140
115469.3951683314
141
19749.53857783539
142
1.0
143
100.0
 70
 11936
 72
     1
 73
     1
 74
     4
  7

 75
     0
147
0.01
148
-59336.11708285688
149
20537.1530523113
100
AcDbLayout
  1
Model
 70
     1
 71
     0
 10
0.0
 20
0.0
 11
12.0
 21
9.0
 12
0.0
 22
0.0
 32
0.0
 14
0.0
 24
0.0
 34
0.0
 15
0.0
 25
0.0
 35
0.0
146
0.0
 13
0.0
 23
0.0
 33
0.0
 16
1.0
 26
0.0
 36
0.0
 17
0.0
 27
1.0
 37
0.0
 76
     0
330
1F07
  0
LAYOUT
  5
1F06
102
{ACAD_XDICTIONARY
360
1524A
102
}
102
{ACAD_REACTORS
330
1F02
102
}
330
1F02
100
AcDbPlotSettings
  1

  2
HP DesignJet 430 (D / A1)
  4

  6

 40
0.0
 41
0.0
 42
0.0
 43
0.0
 44
0.0
 45
0.0
 46
0.0
 47
0.0
 48
0.0
 49
0.0
140
0.0
141
0.0
142
1.0
143
1.0
 70
   688
 72
     0
 73
     0
 74
     5
  7

 75
    16
147
1.0
148
0.0
149
0.0
100
AcDbLayout
  1
ﾚｲｱｳﾄ1
 70
     0
 71
     1
 10
0.0
 20
0.0
 11
12.0
 21
9.0
 12
0.0
 22
0.0
 32
0.0
 14
1.000000000000000E+20
 24
1.000000000000000E+20
 34
1.000000000000000E+20
 15
-1.000000000000000E+20
 25
-1.000000000000000E+20
 35
-1.000000000000000E+20
146
0.0
 13
0.0
 23
0.0
 33
0.0
 16
1.0
 26
0.0
 36
0.0
 17
0.0
 27
1.0
 37
0.0
 76
     0
330
1F03
  0
MLINESTYLE
  5
1F00
102
{ACAD_REACTORS
330
1EFF
102
}
330
1EFF
100
AcDbMlineStyle
  2
STANDARD
 70
     0
  3

 62
   256
 51
90.0
 52
90.0
 71
     2
 49
0.5
 62
   256
  6
BYLAYER
 49
-0.5
 62
   256
  6
BYLAYER
  0
ACDBPLACEHOLDER
  5
1EF8
102
{ACAD_REACTORS
330
1EF7
102
}
330
1EF7
  0
TABLESTYLE
  5
8C49
102
{ACAD_REACTORS
330
8C48
102
}
330
8C48
100
AcDbTableStyle
  3
Standard
 70
     0
 71
     0
 40
0.06
 41
0.06
280
     0
281
     0
  7
STANDARD
140
0.18
170
     2
 62
     0
 63
     7
283
     0
274
    -2
284
     1
 64
     0
275
    -2
285
     1
 65
     0
276
    -2
286
     1
 66
     0
277
    -2
287
     1
 67
     0
278
    -2
288
     1
 68
     0
279
    -2
289
     1
 69
     0
  7
STANDARD
140
0.25
170
     5
 62
     0
 63
     7
283
     0
274
    -2
284
     1
 64
     0
275
    -2
285
     1
 65
     0
276
    -2
286
     1
 66
     0
277
    -2
287
     1
 67
     0
278
    -2
288
     1
 68
     0
279
    -2
289
     1
 69
     0
  7
STANDARD
140
0.18
170
     5
 62
     0
 63
     7
283
     0
274
    -2
284
     1
 64
     0
275
    -2
285
     1
 65
     0
276
    -2
286
     1
 66
     0
277
    -2
287
     1
 67
     0
278
    -2
288
     1
 68
     0
279
    -2
289
     1
 69
     0
  0
DICTIONARYVAR
  5
8CAE
102
{ACAD_REACTORS
330
4454
102
}
330
4454
100
DictionaryVariables
280
     0
  1
STANDARD
  0
DICTIONARYVAR
  5
8CAF
102
{ACAD_REACTORS
330
4454
102
}
330
4454
100
DictionaryVariables
280
     0
  1
1
  0
DICTIONARYVAR
  5
8CB0
102
{ACAD_REACTORS
330
4454
102
}
330
4454
100
DictionaryVariables
280
     0
  1

  0
DICTIONARYVAR
  5
4455
102
{ACAD_REACTORS
330
4454
102
}
330
4454
100
DictionaryVariables
280
     0
  1
96
  0
DICTIONARY
  5
1524C
330
1F0A
100
AcDbDictionary
280
     1
281
     1
  3
ACAD_XREC_ROUNDTRIP
360
1524D
  0
DICTIONARY
  5
1524A
330
1F06
100
AcDbDictionary
280
     1
281
     1
  3
ACAD_XREC_ROUNDTRIP
360
1524B
  0
XRECORD
  5
1524D
102
{ACAD_REACTORS
330
1524C
102
}
330
1524C
100
AcDbXrecord
280
     1
102
SHADEPLOT
 70
     0
102
SHADEPLOTRESLEVEL
 70
     2
102
SHADEPLOTCUSTOMDPI
 70
   300
  0
XRECORD
  5
1524B
102
{ACAD_REACTORS
330
1524A
102
}
330
1524A
100
AcDbXrecord
280
     1
102
SHADEPLOT
 70
     0
102
SHADEPLOTRESLEVEL
 70
     2
102
SHADEPLOTCUSTOMDPI
 70
   300
  0
ENDSEC
  0
EOF
