  0
SECTION
  2
HEADER
  9
$ACADVER
  1
AC1015
  9
$ACADMAINTVER
 70
    20
  9
$DWGCODEPAGE
  3
ANSI_932
  9
$INSBASE
 10
0.0
 20
0.0
 30
0.0
  9
$EXTMIN
 10
1756.54921261192
 20
-77465.16345022412
 30
-0.0015258207003583
  9
$EXTMAX
 10
7607.180864139445
 20
-70173.81116063203
 30
0.0000000349246037
  9
$LIMMIN
 10
0.0
 20
0.0
  9
$LIMMAX
 10
59400.0
 20
42000.0
  9
$ORTHOMODE
 70
     0
  9
$REGENMODE
 70
     1
  9
$FILLMODE
 70
     1
  9
$QTEXTMODE
 70
     0
  9
$MIRRTEXT
 70
     1
  9
$LTSCALE
 40
100.0
  9
$ATTMODE
 70
     1
  9
$TEXTSIZE
 40
300.0
  9
$TRACEWID
 40
0.05
  9
$TEXTSTYLE
  7
スタイル1
  9
$CLAYER
  8
下書き
  9
$CELTYPE
  6
ByLayer
  9
$CECOLOR
 62
   256
  9
$CELTSCALE
 40
1.0
  9
$DISPSILH
 70
     0
  9
$DIMSCALE
 40
100.0
  9
$DIMASZ
 40
2.0
  9
$DIMEXO
 40
2.0
  9
$DIMDLI
 40
0.38
  9
$DIMRND
 40
0.0
  9
$DIMDLE
 40
0.0
  9
$DIMEXE
 40
0.18
  9
$DIMTP
 40
0.0
  9
$DIMTM
 40
0.0
  9
$DIMTXT
 40
2.0
  9
$DIMCEN
 40
0.09
  9
$DIMTSZ
 40
0.0
  9
$DIMTOL
 70
     0
  9
$DIMLIM
 70
     0
  9
$DIMTIH
 70
     0
  9
$DIMTOH
 70
     1
  9
$DIMSE1
 70
     0
  9
$DIMSE2
 70
     0
  9
$DIMTAD
 70
     1
  9
$DIMZIN
 70
     0
  9
$DIMBLK
  1
Open30
  9
$DIMASO
 70
     1
  9
$DIMSHO
 70
     1
  9
$DIMPOST
  1

  9
$DIMAPOST
  1

  9
$DIMALT
 70
     0
  9
$DIMALTD
 70
     2
  9
$DIMALTF
 40
25.4
  9
$DIMLFAC
 40
1.0
  9
$DIMTOFL
 70
     0
  9
$DIMTVP
 40
0.0
  9
$DIMTIX
 70
     0
  9
$DIMSOXD
 70
     0
  9
$DIMSAH
 70
     0
  9
$DIMBLK1
  1

  9
$DIMBLK2
  1

  9
$DIMSTYLE
  2
STANDARD
  9
$DIMCLRD
 70
     0
  9
$DIMCLRE
 70
     0
  9
$DIMCLRT
 70
     0
  9
$DIMTFAC
 40
1.0
  9
$DIMGAP
 40
1.0
  9
$DIMJUST
 70
     0
  9
$DIMSD1
 70
     0
  9
$DIMSD2
 70
     0
  9
$DIMTOLJ
 70
     1
  9
$DIMTZIN
 70
     0
  9
$DIMALTZ
 70
     0
  9
$DIMALTTZ
 70
     0
  9
$DIMUPT
 70
     0
  9
$DIMDEC
 70
     1
  9
$DIMTDEC
 70
     1
  9
$DIMALTU
 70
     2
  9
$DIMALTTD
 70
     2
  9
$DIMTXSTY
  7
STANDARD
  9
$DIMAUNIT
 70
     0
  9
$DIMADEC
 70
     0
  9
$DIMALTRND
 40
0.0
  9
$DIMAZIN
 70
     0
  9
$DIMDSEP
 70
    46
  9
$DIMATFIT
 70
     3
  9
$DIMFRAC
 70
     0
  9
$DIMLDRBLK
  1
Open30
  9
$DIMLUNIT
 70
     2
  9
$DIMLWD
 70
    -2
  9
$DIMLWE
 70
    -2
  9
$DIMTMOVE
 70
     0
  9
$LUNITS
 70
     2
  9
$LUPREC
 70
     4
  9
$SKETCHINC
 40
0.1
  9
$FILLETRAD
 40
0.0
  9
$AUNITS
 70
     0
  9
$AUPREC
 70
     0
  9
$MENU
  1
acad
  9
$ELEVATION
 40
0.0
  9
$PELEVATION
 40
0.0
  9
$THICKNESS
 40
0.0
  9
$LIMCHECK
 70
     0
  9
$CHAMFERA
 40
0.0
  9
$CHAMFERB
 40
0.0
  9
$CHAMFERC
 40
0.0
  9
$CHAMFERD
 40
0.0
  9
$SKPOLY
 70
     0
  9
$TDCREATE
 40
2426945.499536991
  9
$TDUCREATE
 40
2426945.124536991
  9
$TDUPDATE
 40
2456245.595037790
  9
$TDUUPDATE
 40
2456245.220037790
  9
$TDINDWG
 40
1.7138967245
  9
$TDUSRTIMER
 40
1.7138948727
  9
$USRTIMER
 70
     1
  9
$ANGBASE
 50
0.0
  9
$ANGDIR
 70
     0
  9
$PDMODE
 70
     0
  9
$PDSIZE
 40
0.0
  9
$PLINEWID
 40
0.0
  9
$SPLFRAME
 70
     0
  9
$SPLINETYPE
 70
     6
  9
$SPLINESEGS
 70
     8
  9
$HANDSEED
  5
1542F
  9
$SURFTAB1
 70
     6
  9
$SURFTAB2
 70
     6
  9
$SURFTYPE
 70
     6
  9
$SURFU
 70
     6
  9
$SURFV
 70
     6
  9
$UCSBASE
  2

  9
$UCSNAME
  2

  9
$UCSORG
 10
0.0
 20
0.0
 30
0.0
  9
$UCSXDIR
 10
1.0
 20
0.0
 30
0.0
  9
$UCSYDIR
 10
0.0
 20
1.0
 30
0.0
  9
$UCSORTHOREF
  2

  9
$UCSORTHOVIEW
 70
     0
  9
$UCSORGTOP
 10
0.0
 20
0.0
 30
0.0
  9
$UCSORGBOTTOM
 10
0.0
 20
0.0
 30
0.0
  9
$UCSORGLEFT
 10
0.0
 20
0.0
 30
0.0
  9
$UCSORGRIGHT
 10
0.0
 20
0.0
 30
0.0
  9
$UCSORGFRONT
 10
0.0
 20
0.0
 30
0.0
  9
$UCSORGBACK
 10
0.0
 20
0.0
 30
0.0
  9
$PUCSBASE
  2

  9
$PUCSNAME
  2

  9
$PUCSORG
 10
0.0
 20
0.0
 30
0.0
  9
$PUCSXDIR
 10
1.0
 20
0.0
 30
0.0
  9
$PUCSYDIR
 10
0.0
 20
1.0
 30
0.0
  9
$PUCSORTHOREF
  2

  9
$PUCSORTHOVIEW
 70
     0
  9
$PUCSORGTOP
 10
0.0
 20
0.0
 30
0.0
  9
$PUCSORGBOTTOM
 10
0.0
 20
0.0
 30
0.0
  9
$PUCSORGLEFT
 10
0.0
 20
0.0
 30
0.0
  9
$PUCSORGRIGHT
 10
0.0
 20
0.0
 30
0.0
  9
$PUCSORGFRONT
 10
0.0
 20
0.0
 30
0.0
  9
$PUCSORGBACK
 10
0.0
 20
0.0
 30
0.0
  9
$USERI1
 70
     0
  9
$USERI2
 70
     0
  9
$USERI3
 70
     0
  9
$USERI4
 70
     0
  9
$USERI5
 70
     0
  9
$USERR1
 40
0.0
  9
$USERR2
 40
0.0
  9
$USERR3
 40
0.0
  9
$USERR4
 40
0.0
  9
$USERR5
 40
0.0
  9
$WORLDVIEW
 70
     1
  9
$SHADEDGE
 70
     3
  9
$SHADEDIF
 70
    70
  9
$TILEMODE
 70
     1
  9
$MAXACTVP
 70
    16
  9
$PINSBASE
 10
0.0
 20
0.0
 30
0.0
  9
$PLIMCHECK
 70
     0
  9
$PEXTMIN
 10
1.000000000000000E+20
 20
1.000000000000000E+20
 30
1.000000000000000E+20
  9
$PEXTMAX
 10
-1.000000000000000E+20
 20
-1.000000000000000E+20
 30
-1.000000000000000E+20
  9
$PLIMMIN
 10
0.0
 20
0.0
  9
$PLIMMAX
 10
12.0
 20
9.0
  9
$UNITMODE
 70
     0
  9
$VISRETAIN
 70
     0
  9
$PLINEGEN
 70
     1
  9
$PSLTSCALE
 70
     0
  9
$TREEDEPTH
 70
  3020
  9
$CMLSTYLE
  2
Standard
  9
$CMLJUST
 70
     0
  9
$CMLSCALE
 40
1.0
  9
$PROXYGRAPHICS
 70
     1
  9
$MEASUREMENT
 70
     0
  9
$CELWEIGHT
370
    -1
  9
$ENDCAPS
280
     0
  9
$JOINSTYLE
280
     0
  9
$LWDISPLAY
290
     0
  9
$INSUNITS
 70
     0
  9
$HYPERLINKBASE
  1

  9
$STYLESHEET
  1

  9
$XEDIT
290
     1
  9
$CEPSNTYPE
380
     0
  9
$PSTYLEMODE
290
     1
  9
$FINGERPRINTGUID
  2
{8637CE02-3222-11D7-99D2-0040267E6A47}
  9
$VERSIONGUID
  2
{21ACAF12-856C-47BE-9898-94881AFC07C4}
  9
$EXTNAMES
290
     1
  9
$PSVPSCALE
 40
0.0
  9
$OLESTARTUP
290
     0
  0
ENDSEC
  0
SECTION
  2
CLASSES
  0
CLASS
  1
ACDBDICTIONARYWDFLT
  2
AcDbDictionaryWithDefault
  3
ObjectDBX Classes
 90
        0
280
     0
281
     0
  0
CLASS
  1
ACDBPLACEHOLDER
  2
AcDbPlaceHolder
  3
ObjectDBX Classes
 90
        0
280
     0
281
     0
  0
CLASS
  1
LAYOUT
  2
AcDbLayout
  3
ObjectDBX Classes
 90
        0
280
     0
281
     0
  0
CLASS
  1
DICTIONARYVAR
  2
AcDbDictionaryVar
  3
ObjectDBX Classes
 90
        0
280
     0
281
     0
  0
CLASS
  1
TABLESTYLE
  2
AcDbTableStyle
  3
ObjectDBX Classes
 90
     2047
280
     0
281
     0
  0
CLASS
  1
SORTENTSTABLE
  2
AcDbSortentsTable
  3
ObjectDBX Classes
 90
        0
280
     0
281
     0
  0
ENDSEC
  0
SECTION
  2
TABLES
  0
TABLE
  2
VPORT
  5
1EF1
330
0
100
AcDbSymbolTable
 70
     8
  0
VPORT
  5
15429
330
1EF1
100
AcDbSymbolTableRecord
100
AcDbViewportTableRecord
  2
*Active
 70
     0
 10
0.0
 20
0.0
 11
1.0
 21
1.0
 12
4681.865038375683
 22
-73819.48730542807
 13
0.0
 23
0.0
 14
1000.0
 24
1000.0
 15
1000.0
 25
1000.0
 16
0.0
 26
0.0
 36
1.0
 17
0.0
 27
0.0
 37
0.0
 40
7351.199230409547
 41
1.652054794520547
 42
50.0
 43
0.0
 44
0.0
 50
0.0
 51
0.0
 71
     0
 72
   100
 73
     1
 74
     1
 75
     0
 76
     0
 77
     0
 78
     0
281
     0
 65
     1
110
0.0
120
0.0
130
0.0
111
1.0
121
0.0
131
0.0
112
0.0
122
1.0
132
0.0
 79
     0
146
0.0
  0
ENDTAB
  0
TABLE
  2
LTYPE
  5
1EEE
330
0
100
AcDbSymbolTable
 70
     8
  0
LTYPE
  5
1EFC
330
1EEE
100
AcDbSymbolTableRecord
100
AcDbLinetypeTableRecord
  2
ByBlock
 70
     0
  3

 72
    65
 73
     0
 40
0.0
  0
LTYPE
  5
1EFD
330
1EEE
100
AcDbSymbolTableRecord
100
AcDbLinetypeTableRecord
  2
ByLayer
 70
     0
  3

 72
    65
 73
     0
 40
0.0
  0
LTYPE
  5
1EFE
330
1EEE
100
AcDbSymbolTableRecord
100
AcDbLinetypeTableRecord
  2
CONTINUOUS
 70
     0
  3
Solid line
 72
    65
 73
     0
 40
0.0
  0
LTYPE
  5
1F0C
330
1EEE
100
AcDbSymbolTableRecord
100
AcDbLinetypeTableRecord
  2
HIDDEN
 70
     0
  3
__ __ __ __ __ __ __ __ __ __ __ __ __ __ __ __
 72
    65
 73
     5
 40
8.0
 49
1.0
 74
     0
 49
-2.0
 74
     0
 49
2.0
 74
     0
 49
-2.0
 74
     0
 49
1.0
 74
     0
  0
LTYPE
  5
1F0D
330
1EEE
100
AcDbSymbolTableRecord
100
AcDbLinetypeTableRecord
  2
DOT
 70
     0
  3
. . . . . . . . . . . . . . . . . . . . . . . .
 72
    65
 73
     3
 40
1.6
 49
0.4
 74
     0
 49
-0.8
 74
     0
 49
0.4
 74
     0
  0
LTYPE
  5
1F0E
330
1EEE
100
AcDbSymbolTableRecord
100
AcDbLinetypeTableRecord
  2
CENTER
 70
     0
  3
____ _ ____ _ ____ _ ____ _ ____ _ ____ _ ____ 
 72
    65
 73
     5
 40
12.0
 49
5.0
 74
     0
 49
-0.8
 74
     0
 49
0.4
 74
     0
 49
-0.8
 74
     0
 49
5.0
 74
     0
  0
LTYPE
  5
1F0F
330
1EEE
100
AcDbSymbolTableRecord
100
AcDbLinetypeTableRecord
  2
DIVIDE
 70
     0
  3
____ . . ____ . . ____ . . ____ . . ____ . . __
 72
    65
 73
     7
 40
13.2
 49
5.0
 74
     0
 49
-0.8
 74
     0
 49
0.4
 74
     0
 49
-0.8
 74
     0
 49
0.4
 74
     0
 49
-0.8
 74
     0
 49
5.0
 74
     0
  0
LTYPE
  5
BC93
330
1EEE
100
AcDbSymbolTableRecord
100
AcDbLinetypeTableRecord
  2
DASH_CENTER
 70
     0
  3
Dash_Center
 72
    65
 73
     4
 40
36.0
 49
24.0
 74
     0
 49
-3.0
 74
     0
 49
6.0
 74
     0
 49
-3.0
 74
     0
  0
LTYPE
  5
CA49
330
1EEE
100
AcDbSymbolTableRecord
100
AcDbLinetypeTableRecord
  2
STYLE_01
 70
     0
  3

 72
    65
 73
     2
 40
0.125
 49
0.0625
 74
     0
 49
-0.0625
 74
     0
  0
LTYPE
  5
CA4A
330
1EEE
100
AcDbSymbolTableRecord
100
AcDbLinetypeTableRecord
  2
STYLE_07
 70
     0
  3

 72
    65
 73
     2
 40
0.125
 49
0.03125
 74
     0
 49
-0.09375
 74
     0
  0
ENDTAB
  0
TABLE
  2
LAYER
  5
1EEB
102
{ACAD_XDICTIONARY
360
9A3A
102
}
330
0
100
AcDbSymbolTable
 70
    13
  0
LAYER
  5
1EF9
330
1EEB
100
AcDbSymbolTableRecord
100
AcDbLayerTableRecord
  2
0
 70
     0
 62
     7
  6
CONTINUOUS
370
    -3
390
1EF8
  0
LAYER
  5
4075
330
1EEB
100
AcDbSymbolTableRecord
100
AcDbLayerTableRecord
  2
記号
 70
     0
 62
     4
  6
CONTINUOUS
370
    -3
390
1EF8
  0
LAYER
  5
42A3
330
1EEB
100
AcDbSymbolTableRecord
100
AcDbLayerTableRecord
  2
Defpoints
 70
     4
 62
     7
  6
CONTINUOUS
290
     0
370
    -3
390
1EF8
  0
LAYER
  5
58FC
330
1EEB
100
AcDbSymbolTableRecord
100
AcDbLayerTableRecord
  2
リスト
 70
     0
 62
     8
  6
CONTINUOUS
370
    13
390
1EF8
  0
LAYER
  5
8CB6
330
1EEB
100
AcDbSymbolTableRecord
100
AcDbLayerTableRecord
  2
器具
 70
     0
 62
     4
  6
CONTINUOUS
370
    -3
390
1EF8
  0
LAYER
  5
8CB7
330
1EEB
100
AcDbSymbolTableRecord
100
AcDbLayerTableRecord
  2
レイヤー_1
 70
     0
 62
   160
  6
CONTINUOUS
370
    -3
390
1EF8
  0
LAYER
  5
9466
330
1EEB
100
AcDbSymbolTableRecord
100
AcDbLayerTableRecord
  2
画層1
 70
     4
 62
   160
  6
CONTINUOUS
370
    -3
390
1EF8
1001
AcAecLayerStandard
1000

1000

  0
LAYER
  5
9F35
330
1EEB
100
AcDbSymbolTableRecord
100
AcDbLayerTableRecord
  2
下書き
 70
     0
 62
     6
  6
CONTINUOUS
370
    -3
390
1EF8
1001
AcAecLayerStandard
1000

1000

  0
LAYER
  5
A81A
330
1EEB
100
AcDbSymbolTableRecord
100
AcDbLayerTableRecord
  2
007
 70
     0
 62
     1
  6
CONTINUOUS
370
    -3
390
1EF8
  0
LAYER
  5
BC94
330
1EEB
100
AcDbSymbolTableRecord
100
AcDbLayerTableRecord
  2
図面
 70
     0
 62
     5
  6
CONTINUOUS
370
    -3
390
1EF8
  0
LAYER
  5
CA4B
330
1EEB
100
AcDbSymbolTableRecord
100
AcDbLayerTableRecord
  2
1
 70
     0
 62
     8
  6
CONTINUOUS
370
    -3
390
1EF8
1001
AcAecLayerStandard
1000

1000

  0
LAYER
  5
1246F
330
1EEB
100
AcDbSymbolTableRecord
100
AcDbLayerTableRecord
  2
寸法・文字
 70
     0
 62
     4
  6
CONTINUOUS
370
    13
390
1EF8
1001
AcAecLayerStandard
1000

1000

  0
LAYER
  5
13854
330
1EEB
100
AcDbSymbolTableRecord
100
AcDbLayerTableRecord
  2
製品
 70
     0
 62
     1
  6
CONTINUOUS
370
    -3
390
1EF8
1001
AcAecLayerStandard
1000

1000

  0
ENDTAB
  0
TABLE
  2
STYLE
  5
1EEC
330
0
100
AcDbSymbolTable
 70
    12
  0
STYLE
  5
1EFA
330
1EEC
100
AcDbSymbolTableRecord
100
AcDbTextStyleTableRecord
  2
STANDARD
 70
     0
 40
280.0
 41
1.0
 50
0.0
 71
     0
 42
280.0
  3
MS Gothic.ttf
  4

1001
ACAD
1000
MS Gothic
1071
    32817
  0
STYLE
  5
1F2D
330
1EEC
100
AcDbSymbolTableRecord
100
AcDbTextStyleTableRecord
  2
ＤＨＰ平成ゴシックW5
 70
     0
 40
1000.0
 41
1.0
 50
0.0
 71
     0
 42
1000.0
  3
txt
  4
extfont
  0
STYLE
  5
1F2E
330
1EEC
100
AcDbSymbolTableRecord
100
AcDbTextStyleTableRecord
  2
TATEDRACAD
 70
     4
 40
1000.0
 41
1.0
 50
0.0
 71
     0
 42
1000.0
  3
txt
  4
extfont
  0
STYLE
  5
1F2F
330
1EEC
100
AcDbSymbolTableRecord
100
AcDbTextStyleTableRecord
  2
ＤＨＰ平成ゴシックW51
 70
     0
 40
1000.0
 41
1.0
 50
0.0
 71
     0
 42
1000.0
  3
txt
  4
extfont
  0
STYLE
  5
1F30
330
1EEC
100
AcDbSymbolTableRecord
100
AcDbTextStyleTableRecord
  2
ＪＳＰゴシック
 70
     0
 40
1000.0
 41
1.0
 50
0.0
 71
     0
 42
1000.0
  3
txt
  4
extfont
  0
STYLE
  5
1F31
330
1EEC
100
AcDbSymbolTableRecord
100
AcDbTextStyleTableRecord
  2
ＭＳ_ゴシック
 70
     0
 40
1000.0
 41
1.0
 50
0.0
 71
     0
 42
1000.0
  3
txt
  4
extfont
  0
STYLE
  5
A258
330
1EEC
100
AcDbSymbolTableRecord
100
AcDbTextStyleTableRecord
  2
スタイル1
 70
     0
 40
300.0
 41
1.0
 50
0.0
 71
     0
 42
300.0
  3
MS Gothic.ttf
  4

1001
ACAD
1000
MS Gothic
1071
    32817
  0
STYLE
  5
A547
330
1EEC
100
AcDbSymbolTableRecord
100
AcDbTextStyleTableRecord
  2
WMF-ＭＳ Ｐゴシック0
 70
     0
 40
0.0
 41
1.0
 50
0.0
 71
     0
 42
280.0
  3
MS PGothic.ttf
  4

1001
ACAD
1000
MS PGothic
1071
    32816
  0
STYLE
  5
A58D
330
1EEC
100
AcDbSymbolTableRecord
100
AcDbTextStyleTableRecord
  2
WMF-System0
 70
     0
 40
0.0
 41
1.0
 50
0.0
 71
     0
 42
280.0
  3

  4

  0
STYLE
  5
A81B
330
1EEC
100
AcDbSymbolTableRecord
100
AcDbTextStyleTableRecord
  2
ＭＳ ゴシック
 70
     0
 40
450.0
 41
0.85
 50
0.0
 71
     0
 42
450.0
  3
MS Gothic.ttf
  4

1001
ACAD
1000
MS Gothic
1071
    32817
  0
STYLE
  5
CA4C
330
1EEC
100
AcDbSymbolTableRecord
100
AcDbTextStyleTableRecord
  2
_______
 70
     0
 40
0.0
 41
1.0
 50
0.0
 71
     0
 42
0.0
  3
MS Gothic.ttf
  4
ＭＳ ゴシック
1001
ACAD
1000
ＭＳ ゴシック
1071
        0
  0
STYLE
  5
14676
330
1EEC
100
AcDbSymbolTableRecord
100
AcDbTextStyleTableRecord
  2
ヒラギノ角ゴ Pro W3
 70
     0
 40
0.0
 41
1.0
 50
0.0
 71
     0
 42
0.0
  3
MS Gothic.ttf
  4

1001
ACAD
1000
MS Gothic
1071
    32817
  0
ENDTAB
  0
TABLE
  2
VIEW
  5
1EEF
330
0
100
AcDbSymbolTable
 70
     0
  0
ENDTAB
  0
TABLE
  2
UCS
  5
1EF0
330
0
100
AcDbSymbolTable
 70
     0
  0
ENDTAB
  0
TABLE
  2
APPID
  5
1EF2
330
0
100
AcDbSymbolTable
 70
     3
  0
APPID
  5
1EFB
330
1EF2
100
AcDbSymbolTableRecord
100
AcDbRegAppTableRecord
  2
ACAD
 70
     0
  0
APPID
  5
9467
330
1EF2
100
AcDbSymbolTableRecord
100
AcDbRegAppTableRecord
  2
AcAecLayerStandard
 70
     0
  0
APPID
  5
9D2E
330
1EF2
100
AcDbSymbolTableRecord
100
AcDbRegAppTableRecord
  2
ACAD_PSEXT
 70
     0
  0
ENDTAB
  0
TABLE
  2
DIMSTYLE
  5
1EF3
330
0
100
AcDbSymbolTable
 70
     1
100
AcDbDimStyleTable
 71
     1
340
1F32
  0
DIMSTYLE
105
1F32
330
1EF3
100
AcDbSymbolTableRecord
100
AcDbDimStyleTableRecord
  2
STANDARD
 70
     0
279
     2
340
1EFA
  0
ENDTAB
  0
TABLE
  2
BLOCK_RECORD
  5
1EEA
330
0
100
AcDbSymbolTable
 70
     3
  0
BLOCK_RECORD
  5
1F07
102
{ACAD_XDICTIONARY
360
980C
102
}
330
1EEA
100
AcDbSymbolTableRecord
100
AcDbBlockTableRecord
  2
*Model_Space
340
1F0A
  0
BLOCK_RECORD
  5
1F03
330
1EEA
100
AcDbSymbolTableRecord
100
AcDbBlockTableRecord
  2
*Paper_Space
340
1F06
  0
BLOCK_RECORD
  5
429C
330
1EEA
100
AcDbSymbolTableRecord
100
AcDbBlockTableRecord
  2
_Open30
340
0
  0
BLOCK_RECORD
  5
A543
330
1EEA
100
AcDbSymbolTableRecord
100
AcDbBlockTableRecord
  2
WMF0
340
0
  0
BLOCK_RECORD
  5
1384E
330
1EEA
100
AcDbSymbolTableRecord
100
AcDbBlockTableRecord
  2
_Open
340
0
  0
ENDTAB
  0
ENDSEC
  0
SECTION
  2
BLOCKS
  0
BLOCK
  5
1F08
330
1F07
100
AcDbEntity
  8
0
100
AcDbBlockBegin
  2
*Model_Space
 70
     0
 10
0.0
 20
0.0
 30
0.0
  3
*Model_Space
  1

  0
ENDBLK
  5
1F09
330
1F07
100
AcDbEntity
  8
0
100
AcDbBlockEnd
  0
BLOCK
  5
1F04
330
1F03
100
AcDbEntity
 67
     1
  8
0
100
AcDbBlockBegin
  2
*Paper_Space
 70
     0
 10
0.0
 20
0.0
 30
0.0
  3
*Paper_Space
  1

  0
ENDBLK
  5
1F05
330
1F03
100
AcDbEntity
 67
     1
  8
0
100
AcDbBlockEnd
  0
BLOCK
  5
42A0
330
429C
100
AcDbEntity
  8
0
100
AcDbBlockBegin
  2
_Open30
 70
     0
 10
0.0
 20
0.0
 30
0.0
  3
_Open30
  1

  0
LINE
  5
429D
330
429C
100
AcDbEntity
  8
記号
  6
DOT
 62
     0
370
    -2
100
AcDbLine
 10
-1.0
 20
0.26794919
 30
0.0
 11
0.0
 21
0.0
 31
0.0
  0
LINE
  5
429E
330
429C
100
AcDbEntity
  8
記号
  6
DOT
 62
     0
370
    -2
100
AcDbLine
 10
0.0
 20
0.0
 30
0.0
 11
-1.0
 21
-0.26794919
 31
0.0
  0
LINE
  5
429F
330
429C
100
AcDbEntity
  8
記号
  6
DOT
 62
     0
370
    -2
100
AcDbLine
 10
0.0
 20
0.0
 30
0.0
 11
-1.0
 21
0.0
 31
0.0
  0
ENDBLK
  5
42A1
330
429C
100
AcDbEntity
  8
0
100
AcDbBlockEnd
  0
BLOCK
  5
A546
330
A543
100
AcDbEntity
  8
0
 62
     7
370
     0
100
AcDbBlockBegin
  2
WMF0
 70
     0
 10
0.0
 20
0.0
 30
0.0
  3
WMF0
  1

  0
TEXT
  5
A548
330
A543
100
AcDbEntity
  8
0
 62
     7
370
     0
100
AcDbText
 10
4302.31530976598
 20
-1290.694592929794
 30
0.0
 40
894.8815844313239
  1
LEDﾀﾞｳﾝﾗｲﾄ
  7
WMF-ＭＳ Ｐゴシック0
100
AcDbText
  0
TEXT
  5
A54A
330
A543
100
AcDbEntity
  8
0
 62
     7
370
     0
100
AcDbText
 10
23920.87312229885
 20
-1290.694592929794
 30
0.0
 40
894.8815844313239
  1
LEDﾀﾞｳﾝﾗｲﾄ
  7
WMF-ＭＳ Ｐゴシック0
100
AcDbText
  0
TEXT
  5
A54B
330
A543
100
AcDbEntity
  8
0
 62
     7
370
     0
100
AcDbText
 10
43539.43093483171
 20
-1290.694592929794
 30
0.0
 40
894.8815844313239
  1
LEDﾀﾞｳﾝﾗｲﾄ
  7
WMF-ＭＳ Ｐゴシック0
100
AcDbText
  0
TEXT
  5
A54C
330
A543
100
AcDbEntity
  8
0
 62
     7
370
     0
100
AcDbText
 10
63157.98874736458
 20
-1290.694592929794
 30
0.0
 40
894.8815844313239
  1
LEDﾀﾞｳﾝﾗｲﾄ
  7
WMF-ＭＳ Ｐゴシック0
100
AcDbText
  0
TEXT
  5
A54D
330
A543
100
AcDbEntity
  8
0
 62
     7
370
     0
100
AcDbText
 10
1290.694592929794
 20
-2753.481798250227
 30
0.0
 40
894.8815844313239
  1
D1
  7
WMF-ＭＳ Ｐゴシック0
100
AcDbText
  0
TEXT
  5
A54E
330
A543
100
AcDbEntity
  8
0
 62
     7
370
     0
100
AcDbText
 10
4302.31530976598
 20
-2753.481798250227
 30
0.0
 40
894.8815844313239
  1
BML-26181WW-110
  7
WMF-ＭＳ Ｐゴシック0
100
AcDbText
  0
TEXT
  5
A54F
330
A543
100
AcDbEntity
  8
0
 62
     7
370
     0
100
AcDbText
 10
20909.25240546266
 20
-2753.481798250227
 30
0.0
 40
894.8815844313239
  1
D2
  7
WMF-ＭＳ Ｐゴシック0
100
AcDbText
  0
TEXT
  5
A550
330
A543
100
AcDbEntity
  8
0
 62
     7
370
     0
100
AcDbText
 10
23920.87312229885
 20
-2753.481798250227
 30
0.0
 40
894.8815844313239
  1
BML-26187WW-110
  7
WMF-ＭＳ Ｐゴシック0
100
AcDbText
  0
TEXT
  5
A551
330
A543
100
AcDbEntity
  8
0
 62
     7
370
     0
100
AcDbText
 10
40527.81021799553
 20
-2753.481798250227
 30
0.0
 40
894.8815844313239
  1
D3
  7
WMF-ＭＳ Ｐゴシック0
100
AcDbText
  0
TEXT
  5
A552
330
A543
100
AcDbEntity
  8
0
 62
     7
370
     0
100
AcDbText
 10
43539.43093483171
 20
-2753.481798250227
 30
0.0
 40
894.8815844313239
  1
BML-26199WW-110
  7
WMF-ＭＳ Ｐゴシック0
100
AcDbText
  0
TEXT
  5
A553
330
A543
100
AcDbEntity
  8
0
 62
     7
370
     0
100
AcDbText
 10
60146.36803052839
 20
-2753.481798250227
 30
0.0
 40
894.8815844313239
  1
D4
  7
WMF-ＭＳ Ｐゴシック0
100
AcDbText
  0
TEXT
  5
A554
330
A543
100
AcDbEntity
  8
0
 62
     7
370
     0
100
AcDbText
 10
63157.98874736458
 20
-2753.481798250227
 30
0.0
 40
894.8815844313239
  1
BML-26213WL-110
  7
WMF-ＭＳ Ｐゴシック0
100
AcDbText
  0
TEXT
  5
A555
330
A543
100
AcDbEntity
  8
0
 62
     7
370
     0
100
AcDbText
 10
9637.186293875796
 20
-4216.26900357066
 30
0.0
 40
894.8815844313239
  1
LED76W  (4500K)
  7
WMF-ＭＳ Ｐゴシック0
100
AcDbText
  0
TEXT
  5
A556
330
A543
100
AcDbEntity
  8
0
 62
     7
370
     0
100
AcDbText
 10
29255.74410640866
 20
-4216.26900357066
 30
0.0
 40
894.8815844313239
  1
LED54W  (4500K)
  7
WMF-ＭＳ Ｐゴシック0
100
AcDbText
  0
TEXT
  5
A557
330
A543
100
AcDbEntity
  8
0
 62
     7
370
     0
100
AcDbText
 10
48874.30191894153
 20
-4216.26900357066
 30
0.0
 40
894.8815844313239
  1
LED32W  (4500K)
  7
WMF-ＭＳ Ｐゴシック0
100
AcDbText
  0
TEXT
  5
A558
330
A543
100
AcDbEntity
  8
0
 62
     7
370
     0
100
AcDbText
 10
68492.8597314744
 20
-4216.26900357066
 30
0.0
 40
894.8815844313239
  1
LED17W  (2900K)
  7
WMF-ＭＳ Ｐゴシック0
100
AcDbText
  0
TEXT
  5
A559
330
A543
100
AcDbEntity
  8
0
 62
     7
370
     0
100
AcDbText
 10
4302.31530976598
 20
-20823.20609926735
 30
0.0
 40
894.8815844313239
  1
 
  7
WMF-ＭＳ Ｐゴシック0
100
AcDbText
  0
TEXT
  5
A55A
330
A543
100
AcDbEntity
  8
0
 62
     7
370
     0
100
AcDbText
 10
23920.87312229885
 20
-20823.20609926735
 30
0.0
 40
894.8815844313239
  1
 
  7
WMF-ＭＳ Ｐゴシック0
100
AcDbText
  0
TEXT
  5
A55B
330
A543
100
AcDbEntity
  8
0
 62
     7
370
     0
100
AcDbText
 10
43539.43093483171
 20
-20823.20609926735
 30
0.0
 40
894.8815844313239
  1
 
  7
WMF-ＭＳ Ｐゴシック0
100
AcDbText
  0
TEXT
  5
A55C
330
A543
100
AcDbEntity
  8
0
 62
     7
370
     0
100
AcDbText
 10
63157.98874736458
 20
-20823.20609926735
 30
0.0
 40
894.8815844313239
  1
 
  7
WMF-ＭＳ Ｐゴシック0
100
AcDbText
  0
TEXT
  5
A55D
330
A543
100
AcDbEntity
  8
0
 62
     7
370
     0
100
AcDbText
 10
4302.31530976598
 20
-24006.91942849417
 30
0.0
 40
894.8815844313239
  1
LED直管型ﾗｲﾄ
  7
WMF-ＭＳ Ｐゴシック0
100
AcDbText
  0
TEXT
  5
A55E
330
A543
100
AcDbEntity
  8
0
 62
     7
370
     0
100
AcDbText
 10
23920.87312229885
 20
-24006.91942849417
 30
0.0
 40
894.8815844313239
  1
LED軒下用ﾀﾞｳﾝﾗｲﾄ
  7
WMF-ＭＳ Ｐゴシック0
100
AcDbText
  0
TEXT
  5
A55F
330
A543
100
AcDbEntity
  8
0
 62
     7
370
     0
100
AcDbText
 10
43539.43093483171
 20
-24006.91942849417
 30
0.0
 40
894.8815844313239
  1
LEDｱｳﾄﾄﾞｱｽﾎﾟｯﾄﾗｲﾄ
  7
WMF-ＭＳ Ｐゴシック0
100
AcDbText
  0
TEXT
  5
A560
330
A543
100
AcDbEntity
  8
0
 62
     7
370
     0
100
AcDbText
 10
63157.98874736458
 20
-24006.91942849417
 30
0.0
 40
894.8815844313239
  1
LEDﾀﾞｳﾝﾗｲﾄ
  7
WMF-ＭＳ Ｐゴシック0
100
AcDbText
  0
TEXT
  5
A561
330
A543
100
AcDbEntity
  8
0
 62
     7
370
     0
100
AcDbText
 10
1376.740899125113
 20
-25469.7066338146
 30
0.0
 40
894.8815844313239
  1
F1
  7
WMF-ＭＳ Ｐゴシック0
100
AcDbText
  0
TEXT
  5
A562
330
A543
100
AcDbEntity
  8
0
 62
     7
370
     0
100
AcDbText
 10
4302.31530976598
 20
-25469.7066338146
 30
0.0
 40
894.8815844313239
  1
TBJKL-22006W
  7
WMF-ＭＳ Ｐゴシック0
100
AcDbText
  0
TEXT
  5
A563
330
A543
100
AcDbEntity
  8
0
 62
     7
370
     0
100
AcDbText
 10
20479.02087448607
 20
-25469.7066338146
 30
0.0
 40
894.8815844313239
  1
OD1
  7
WMF-ＭＳ Ｐゴシック0
100
AcDbText
  0
TEXT
  5
A564
330
A543
100
AcDbEntity
  8
0
 62
     7
370
     0
100
AcDbText
 10
23920.87312229885
 20
-25469.7066338146
 30
0.0
 40
894.8815844313239
  1
BML-26187WSW-110
  7
WMF-ＭＳ Ｐゴシック0
100
AcDbText
  0
TEXT
  5
A565
330
A543
100
AcDbEntity
  8
0
 62
     7
370
     0
100
AcDbText
 10
40097.57868701893
 20
-25469.7066338146
 30
0.0
 40
894.8815844313239
  1
OS1
  7
WMF-ＭＳ Ｐゴシック0
100
AcDbText
  0
TEXT
  5
A566
330
A543
100
AcDbEntity
  8
0
 62
     7
370
     0
100
AcDbText
 10
43539.43093483171
 20
-25469.7066338146
 30
0.0
 40
894.8815844313239
  1
BGSL-20045GW-20
  7
WMF-ＭＳ Ｐゴシック0
100
AcDbText
  0
TEXT
  5
A567
330
A543
100
AcDbEntity
  8
0
 62
     7
370
     0
100
AcDbText
 10
60576.59956150499
 20
-25469.7066338146
 30
0.0
 40
894.8815844313239
  1
0
  7
WMF-ＭＳ Ｐゴシック0
100
AcDbText
  0
TEXT
  5
A568
330
A543
100
AcDbEntity
  8
0
 62
     7
370
     0
100
AcDbText
 10
63157.98874736458
 20
-25469.7066338146
 30
0.0
 40
894.8815844313239
  1
BML-26160WW-120
  7
WMF-ＭＳ Ｐゴシック0
100
AcDbText
  0
TEXT
  5
A569
330
A543
100
AcDbEntity
  8
0
 62
     7
370
     0
100
AcDbText
 10
9637.186293875796
 20
-26932.49383913503
 30
0.0
 40
894.8815844313239
  1
LED38W  (4000K)
  7
WMF-ＭＳ Ｐゴシック0
100
AcDbText
  0
TEXT
  5
A56A
330
A543
100
AcDbEntity
  8
0
 62
     7
370
     0
100
AcDbText
 10
29255.74410640866
 20
-26932.49383913503
 30
0.0
 40
894.8815844313239
  1
LED54W  (4500K)
  7
WMF-ＭＳ Ｐゴシック0
100
AcDbText
  0
TEXT
  5
A56B
330
A543
100
AcDbEntity
  8
0
 62
     7
370
     0
100
AcDbText
 10
48874.30191894153
 20
-26932.49383913503
 30
0.0
 40
894.8815844313239
  1
LED68W  (4500K)
  7
WMF-ＭＳ Ｐゴシック0
100
AcDbText
  0
TEXT
  5
A56C
330
A543
100
AcDbEntity
  8
0
 62
     7
370
     0
100
AcDbText
 10
77613.76818817828
 20
-26932.49383913503
 30
0.0
 40
894.8815844313239
  1
0
  7
WMF-ＭＳ Ｐゴシック0
100
AcDbText
  0
TEXT
  5
A56D
330
A543
100
AcDbEntity
  8
0
 62
     7
370
     0
100
AcDbText
 10
4302.31530976598
 20
-46723.14426405853
 30
0.0
 40
894.8815844313239
  1
LEDﾀﾞｳﾝﾗｲﾄ
  7
WMF-ＭＳ Ｐゴシック0
100
AcDbText
  0
TEXT
  5
A56E
330
A543
100
AcDbEntity
  8
0
 62
     7
370
     0
100
AcDbText
 10
23920.87312229885
 20
-46723.14426405853
 30
0.0
 40
894.8815844313239
  1
LEDﾀﾞｳﾝﾗｲﾄ
  7
WMF-ＭＳ Ｐゴシック0
100
AcDbText
  0
TEXT
  5
A56F
330
A543
100
AcDbEntity
  8
0
 62
     7
370
     0
100
AcDbText
 10
43539.43093483171
 20
-46723.14426405853
 30
0.0
 40
894.8815844313239
  1
LEDﾀﾞｳﾝﾗｲﾄ
  7
WMF-ＭＳ Ｐゴシック0
100
AcDbText
  0
TEXT
  5
A570
330
A543
100
AcDbEntity
  8
0
 62
     7
370
     0
100
AcDbText
 10
63157.98874736458
 20
-46723.14426405853
 30
0.0
 40
894.8815844313239
  1
LEDﾀﾞｳﾝﾗｲﾄ
  7
WMF-ＭＳ Ｐゴシック0
100
AcDbText
  0
TEXT
  5
A571
330
A543
100
AcDbEntity
  8
0
 62
     7
370
     0
100
AcDbText
 10
1720.926123906392
 20
-48185.93146937897
 30
0.0
 40
894.8815844313239
  1
0
  7
WMF-ＭＳ Ｐゴシック0
100
AcDbText
  0
TEXT
  5
A572
330
A543
100
AcDbEntity
  8
0
 62
     7
370
     0
100
AcDbText
 10
4302.31530976598
 20
-48185.93146937897
 30
0.0
 40
894.8815844313239
  1
BML-26160WW-124
  7
WMF-ＭＳ Ｐゴシック0
100
AcDbText
  0
TEXT
  5
A573
330
A543
100
AcDbEntity
  8
0
 62
     7
370
     0
100
AcDbText
 10
21339.48393643926
 20
-48185.93146937897
 30
0.0
 40
894.8815844313239
  1
0
  7
WMF-ＭＳ Ｐゴシック0
100
AcDbText
  0
TEXT
  5
A574
330
A543
100
AcDbEntity
  8
0
 62
     7
370
     0
100
AcDbText
 10
23920.87312229885
 20
-48185.93146937897
 30
0.0
 40
894.8815844313239
  1
BML-26160WW-125
  7
WMF-ＭＳ Ｐゴシック0
100
AcDbText
  0
TEXT
  5
A575
330
A543
100
AcDbEntity
  8
0
 62
     7
370
     0
100
AcDbText
 10
40958.04174897213
 20
-48185.93146937897
 30
0.0
 40
894.8815844313239
  1
0
  7
WMF-ＭＳ Ｐゴシック0
100
AcDbText
  0
TEXT
  5
A576
330
A543
100
AcDbEntity
  8
0
 62
     7
370
     0
100
AcDbText
 10
43539.43093483171
 20
-48185.93146937897
 30
0.0
 40
894.8815844313239
  1
BML-26160WW-126
  7
WMF-ＭＳ Ｐゴシック0
100
AcDbText
  0
TEXT
  5
A577
330
A543
100
AcDbEntity
  8
0
 62
     7
370
     0
100
AcDbText
 10
60576.59956150499
 20
-48185.93146937897
 30
0.0
 40
894.8815844313239
  1
0
  7
WMF-ＭＳ Ｐゴシック0
100
AcDbText
  0
TEXT
  5
A578
330
A543
100
AcDbEntity
  8
0
 62
     7
370
     0
100
AcDbText
 10
63157.98874736458
 20
-48185.93146937897
 30
0.0
 40
894.8815844313239
  1
BML-26160WW-127
  7
WMF-ＭＳ Ｐゴシック0
100
AcDbText
  0
TEXT
  5
A579
330
A543
100
AcDbEntity
  8
0
 62
     7
370
     0
100
AcDbText
 10
18758.09475057967
 20
-49648.7186746994
 30
0.0
 40
894.8815844313239
  1
0
  7
WMF-ＭＳ Ｐゴシック0
100
AcDbText
  0
TEXT
  5
A57A
330
A543
100
AcDbEntity
  8
0
 62
     7
370
     0
100
AcDbText
 10
38376.65256311254
 20
-49648.7186746994
 30
0.0
 40
894.8815844313239
  1
0
  7
WMF-ＭＳ Ｐゴシック0
100
AcDbText
  0
TEXT
  5
A57B
330
A543
100
AcDbEntity
  8
0
 62
     7
370
     0
100
AcDbText
 10
57995.21037564541
 20
-49648.7186746994
 30
0.0
 40
894.8815844313239
  1
0
  7
WMF-ＭＳ Ｐゴシック0
100
AcDbText
  0
TEXT
  5
A57C
330
A543
100
AcDbEntity
  8
0
 62
     7
370
     0
100
AcDbText
 10
77613.76818817828
 20
-49648.7186746994
 30
0.0
 40
894.8815844313239
  1
0
  7
WMF-ＭＳ Ｐゴシック0
100
AcDbText
  0
TEXT
  5
A57D
330
A543
100
AcDbEntity
  8
0
 62
     7
370
     0
100
AcDbText
 10
4302.31530976598
 20
-69439.36909962291
 30
0.0
 40
894.8815844313239
  1
LEDﾀﾞｳﾝﾗｲﾄ
  7
WMF-ＭＳ Ｐゴシック0
100
AcDbText
  0
TEXT
  5
A57E
330
A543
100
AcDbEntity
  8
0
 62
     7
370
     0
100
AcDbText
 10
23920.87312229885
 20
-69439.36909962291
 30
0.0
 40
894.8815844313239
  1
LEDﾀﾞｳﾝﾗｲﾄ
  7
WMF-ＭＳ Ｐゴシック0
100
AcDbText
  0
TEXT
  5
A57F
330
A543
100
AcDbEntity
  8
0
 62
     7
370
     0
100
AcDbText
 10
43539.43093483171
 20
-69439.36909962291
 30
0.0
 40
894.8815844313239
  1
LEDﾀﾞｳﾝﾗｲﾄ
  7
WMF-ＭＳ Ｐゴシック0
100
AcDbText
  0
TEXT
  5
A580
330
A543
100
AcDbEntity
  8
0
 62
     7
370
     0
100
AcDbText
 10
63157.98874736458
 20
-69439.36909962291
 30
0.0
 40
894.8815844313239
  1
LEDﾀﾞｳﾝﾗｲﾄ
  7
WMF-ＭＳ Ｐゴシック0
100
AcDbText
  0
TEXT
  5
A581
330
A543
100
AcDbEntity
  8
0
 62
     7
370
     0
100
AcDbText
 10
1720.926123906392
 20
-70902.15630494334
 30
0.0
 40
894.8815844313239
  1
0
  7
WMF-ＭＳ Ｐゴシック0
100
AcDbText
  0
TEXT
  5
A582
330
A543
100
AcDbEntity
  8
0
 62
     7
370
     0
100
AcDbText
 10
18758.09475057967
 20
-70902.15630494334
 30
0.0
 40
894.8815844313239
  1
0
  7
WMF-ＭＳ Ｐゴシック0
100
AcDbText
  0
TEXT
  5
A583
330
A543
100
AcDbEntity
  8
0
 62
     7
370
     0
100
AcDbText
 10
21339.48393643926
 20
-70902.15630494334
 30
0.0
 40
894.8815844313239
  1
0
  7
WMF-ＭＳ Ｐゴシック0
100
AcDbText
  0
TEXT
  5
A584
330
A543
100
AcDbEntity
  8
0
 62
     7
370
     0
100
AcDbText
 10
38376.65256311254
 20
-70902.15630494334
 30
0.0
 40
894.8815844313239
  1
0
  7
WMF-ＭＳ Ｐゴシック0
100
AcDbText
  0
TEXT
  5
A585
330
A543
100
AcDbEntity
  8
0
 62
     7
370
     0
100
AcDbText
 10
40958.04174897213
 20
-70902.15630494334
 30
0.0
 40
894.8815844313239
  1
0
  7
WMF-ＭＳ Ｐゴシック0
100
AcDbText
  0
TEXT
  5
A586
330
A543
100
AcDbEntity
  8
0
 62
     7
370
     0
100
AcDbText
 10
57995.21037564541
 20
-70902.15630494334
 30
0.0
 40
894.8815844313239
  1
0
  7
WMF-ＭＳ Ｐゴシック0
100
AcDbText
  0
TEXT
  5
A587
330
A543
100
AcDbEntity
  8
0
 62
     7
370
     0
100
AcDbText
 10
60576.59956150499
 20
-70902.15630494334
 30
0.0
 40
894.8815844313239
  1
0
  7
WMF-ＭＳ Ｐゴシック0
100
AcDbText
  0
TEXT
  5
A588
330
A543
100
AcDbEntity
  8
0
 62
     7
370
     0
100
AcDbText
 10
77613.76818817828
 20
-70902.15630494334
 30
0.0
 40
894.8815844313239
  1
0
  7
WMF-ＭＳ Ｐゴシック0
100
AcDbText
  0
TEXT
  5
A589
330
A543
100
AcDbEntity
  8
0
 62
     7
370
     0
100
AcDbText
 10
18758.09475057967
 20
-72364.94351026378
 30
0.0
 40
894.8815844313239
  1
0
  7
WMF-ＭＳ Ｐゴシック0
100
AcDbText
  0
TEXT
  5
A58A
330
A543
100
AcDbEntity
  8
0
 62
     7
370
     0
100
AcDbText
 10
38376.65256311254
 20
-72364.94351026378
 30
0.0
 40
894.8815844313239
  1
0
  7
WMF-ＭＳ Ｐゴシック0
100
AcDbText
  0
TEXT
  5
A58B
330
A543
100
AcDbEntity
  8
0
 62
     7
370
     0
100
AcDbText
 10
57995.21037564541
 20
-72364.94351026378
 30
0.0
 40
894.8815844313239
  1
0
  7
WMF-ＭＳ Ｐゴシック0
100
AcDbText
  0
TEXT
  5
A58C
330
A543
100
AcDbEntity
  8
0
 62
     7
370
     0
100
AcDbText
 10
77613.76818817828
 20
-72364.94351026378
 30
0.0
 40
894.8815844313239
  1
0
  7
WMF-ＭＳ Ｐゴシック0
100
AcDbText
  0
POLYLINE
  5
A58E
330
A543
100
AcDbEntity
  8
0
 62
     7
370
     0
100
AcDb2dPolyline
 66
     1
 10
0.0
 20
0.0
 30
0.0
  0
VERTEX
  5
A58F
330
A58E
100
AcDbEntity
  8
0
 62
     7
370
     0
100
AcDbVertex
100
AcDb2dVertex
 10
4130.22269737534
 20
-1462.787205320433
 30
0.0
  0
VERTEX
  5
A590
330
A58E
100
AcDbEntity
  8
0
 62
     7
370
     0
100
AcDbVertex
100
AcDb2dVertex
 10
19704.60411872819
 20
-1462.787205320433
 30
0.0
  0
SEQEND
  5
A591
330
A58E
100
AcDbEntity
  8
0
 62
     7
370
     0
  0
POLYLINE
  5
A592
330
A543
100
AcDbEntity
  8
0
 62
     7
370
     0
100
AcDb2dPolyline
 66
     1
 10
0.0
 20
0.0
 30
0.0
  0
VERTEX
  5
A593
330
A592
100
AcDbEntity
  8
0
 62
     7
370
     0
100
AcDbVertex
100
AcDb2dVertex
 10
23748.78050990821
 20
-1462.787205320433
 30
0.0
  0
VERTEX
  5
A594
330
A592
100
AcDbEntity
  8
0
 62
     7
370
     0
100
AcDbVertex
100
AcDb2dVertex
 10
39323.16193126106
 20
-1462.787205320433
 30
0.0
  0
SEQEND
  5
A595
330
A592
100
AcDbEntity
  8
0
 62
     7
370
     0
  0
POLYLINE
  5
A596
330
A543
100
AcDbEntity
  8
0
 62
     7
370
     0
100
AcDb2dPolyline
 66
     1
 10
0.0
 20
0.0
 30
0.0
  0
VERTEX
  5
A597
330
A596
100
AcDbEntity
  8
0
 62
     7
370
     0
100
AcDbVertex
100
AcDb2dVertex
 10
43367.33832244107
 20
-1462.787205320433
 30
0.0
  0
VERTEX
  5
A598
330
A596
100
AcDbEntity
  8
0
 62
     7
370
     0
100
AcDbVertex
100
AcDb2dVertex
 10
58941.71974379392
 20
-1462.787205320433
 30
0.0
  0
SEQEND
  5
A599
330
A596
100
AcDbEntity
  8
0
 62
     7
370
     0
  0
POLYLINE
  5
A59A
330
A543
100
AcDbEntity
  8
0
 62
     7
370
     0
100
AcDb2dPolyline
 66
     1
 10
0.0
 20
0.0
 30
0.0
  0
VERTEX
  5
A59B
330
A59A
100
AcDbEntity
  8
0
 62
     7
370
     0
100
AcDbVertex
100
AcDb2dVertex
 10
4044.176391180021
 20
-86.04630619531958
 30
0.0
  0
VERTEX
  5
A59C
330
A59A
100
AcDbEntity
  8
0
 62
     7
370
     0
100
AcDbVertex
100
AcDb2dVertex
 10
4044.176391180021
 20
-4474.407922156618
 30
0.0
  0
SEQEND
  5
A59D
330
A59A
100
AcDbEntity
  8
0
 62
     7
370
     0
  0
POLYLINE
  5
A59E
330
A543
100
AcDbEntity
  8
0
 62
     7
370
     0
100
AcDb2dPolyline
 66
     1
 10
0.0
 20
0.0
 30
0.0
  0
VERTEX
  5
A59F
330
A59E
100
AcDbEntity
  8
0
 62
     7
370
     0
100
AcDbVertex
100
AcDb2dVertex
 10
23662.73420371289
 20
-86.04630619531958
 30
0.0
  0
VERTEX
  5
A5A0
330
A59E
100
AcDbEntity
  8
0
 62
     7
370
     0
100
AcDbVertex
100
AcDb2dVertex
 10
23662.73420371289
 20
-4474.407922156618
 30
0.0
  0
SEQEND
  5
A5A1
330
A59E
100
AcDbEntity
  8
0
 62
     7
370
     0
  0
POLYLINE
  5
A5A2
330
A543
100
AcDbEntity
  8
0
 62
     7
370
     0
100
AcDb2dPolyline
 66
     1
 10
0.0
 20
0.0
 30
0.0
  0
VERTEX
  5
A5A3
330
A5A2
100
AcDbEntity
  8
0
 62
     7
370
     0
100
AcDbVertex
100
AcDb2dVertex
 10
43281.29201624575
 20
-86.04630619531958
 30
0.0
  0
VERTEX
  5
A5A4
330
A5A2
100
AcDbEntity
  8
0
 62
     7
370
     0
100
AcDbVertex
100
AcDb2dVertex
 10
43281.29201624575
 20
-4474.407922156618
 30
0.0
  0
SEQEND
  5
A5A5
330
A5A2
100
AcDbEntity
  8
0
 62
     7
370
     0
  0
POLYLINE
  5
A5A6
330
A543
100
AcDbEntity
  8
0
 62
     7
370
     0
100
AcDb2dPolyline
 66
     1
 10
0.0
 20
0.0
 30
0.0
  0
VERTEX
  5
A5A7
330
A5A6
100
AcDbEntity
  8
0
 62
     7
370
     0
100
AcDbVertex
100
AcDb2dVertex
 10
62899.84982877862
 20
-86.04630619531958
 30
0.0
  0
VERTEX
  5
A5A8
330
A5A6
100
AcDbEntity
  8
0
 62
     7
370
     0
100
AcDbVertex
100
AcDb2dVertex
 10
62899.84982877862
 20
-4474.407922156618
 30
0.0
  0
SEQEND
  5
A5A9
330
A5A6
100
AcDbEntity
  8
0
 62
     7
370
     0
  0
POLYLINE
  5
A5AA
330
A543
100
AcDbEntity
  8
0
 62
     7
370
     0
100
AcDb2dPolyline
 66
     1
 10
0.0
 20
0.0
 30
0.0
  0
VERTEX
  5
A5AB
330
A5AA
100
AcDbEntity
  8
0
 62
     7
370
     0
100
AcDbVertex
100
AcDb2dVertex
 10
4130.22269737534
 20
-24179.0120408848
 30
0.0
  0
VERTEX
  5
A5AC
330
A5AA
100
AcDbEntity
  8
0
 62
     7
370
     0
100
AcDbVertex
100
AcDb2dVertex
 10
19704.60411872819
 20
-24179.0120408848
 30
0.0
  0
SEQEND
  5
A5AD
330
A5AA
100
AcDbEntity
  8
0
 62
     7
370
     0
  0
POLYLINE
  5
A5AE
330
A543
100
AcDbEntity
  8
0
 62
     7
370
     0
100
AcDb2dPolyline
 66
     1
 10
0.0
 20
0.0
 30
0.0
  0
VERTEX
  5
A5AF
330
A5AE
100
AcDbEntity
  8
0
 62
     7
370
     0
100
AcDbVertex
100
AcDb2dVertex
 10
23748.78050990821
 20
-24179.0120408848
 30
0.0
  0
VERTEX
  5
A5B0
330
A5AE
100
AcDbEntity
  8
0
 62
     7
370
     0
100
AcDbVertex
100
AcDb2dVertex
 10
39323.16193126106
 20
-24179.0120408848
 30
0.0
  0
SEQEND
  5
A5B1
330
A5AE
100
AcDbEntity
  8
0
 62
     7
370
     0
  0
POLYLINE
  5
A5B2
330
A543
100
AcDbEntity
  8
0
 62
     7
370
     0
100
AcDb2dPolyline
 66
     1
 10
0.0
 20
0.0
 30
0.0
  0
VERTEX
  5
A5B3
330
A5B2
100
AcDbEntity
  8
0
 62
     7
370
     0
100
AcDbVertex
100
AcDb2dVertex
 10
43367.33832244107
 20
-24179.0120408848
 30
0.0
  0
VERTEX
  5
A5B4
330
A5B2
100
AcDbEntity
  8
0
 62
     7
370
     0
100
AcDbVertex
100
AcDb2dVertex
 10
58941.71974379392
 20
-24179.0120408848
 30
0.0
  0
SEQEND
  5
A5B5
330
A5B2
100
AcDbEntity
  8
0
 62
     7
370
     0
  0
POLYLINE
  5
A5B6
330
A543
100
AcDbEntity
  8
0
 62
     7
370
     0
100
AcDb2dPolyline
 66
     1
 10
0.0
 20
0.0
 30
0.0
  0
VERTEX
  5
A5B7
330
A5B6
100
AcDbEntity
  8
0
 62
     7
370
     0
100
AcDbVertex
100
AcDb2dVertex
 10
4044.176391180021
 20
-22802.27114175969
 30
0.0
  0
VERTEX
  5
A5B8
330
A5B6
100
AcDbEntity
  8
0
 62
     7
370
     0
100
AcDbVertex
100
AcDb2dVertex
 10
4044.176391180021
 20
-27190.63275772099
 30
0.0
  0
SEQEND
  5
A5B9
330
A5B6
100
AcDbEntity
  8
0
 62
     7
370
     0
  0
POLYLINE
  5
A5BA
330
A543
100
AcDbEntity
  8
0
 62
     7
370
     0
100
AcDb2dPolyline
 66
     1
 10
0.0
 20
0.0
 30
0.0
  0
VERTEX
  5
A5BB
330
A5BA
100
AcDbEntity
  8
0
 62
     7
370
     0
100
AcDbVertex
100
AcDb2dVertex
 10
23662.73420371289
 20
-22802.27114175969
 30
0.0
  0
VERTEX
  5
A5BC
330
A5BA
100
AcDbEntity
  8
0
 62
     7
370
     0
100
AcDbVertex
100
AcDb2dVertex
 10
23662.73420371289
 20
-27190.63275772099
 30
0.0
  0
SEQEND
  5
A5BD
330
A5BA
100
AcDbEntity
  8
0
 62
     7
370
     0
  0
POLYLINE
  5
A5BE
330
A543
100
AcDbEntity
  8
0
 62
     7
370
     0
100
AcDb2dPolyline
 66
     1
 10
0.0
 20
0.0
 30
0.0
  0
VERTEX
  5
A5BF
330
A5BE
100
AcDbEntity
  8
0
 62
     7
370
     0
100
AcDbVertex
100
AcDb2dVertex
 10
43281.29201624575
 20
-22802.27114175969
 30
0.0
  0
VERTEX
  5
A5C0
330
A5BE
100
AcDbEntity
  8
0
 62
     7
370
     0
100
AcDbVertex
100
AcDb2dVertex
 10
43281.29201624575
 20
-27190.63275772099
 30
0.0
  0
SEQEND
  5
A5C1
330
A5BE
100
AcDbEntity
  8
0
 62
     7
370
     0
  0
POLYLINE
  5
A5C2
330
A543
100
AcDbEntity
  8
0
 62
     7
370
     0
100
AcDb2dPolyline
 66
     1
 10
0.0
 20
0.0
 30
0.0
  0
VERTEX
  5
A5C3
330
A5C2
100
AcDbEntity
  8
0
 62
     7
370
     0
100
AcDbVertex
100
AcDb2dVertex
 10
62899.84982877862
 20
-22802.27114175969
 30
0.0
  0
VERTEX
  5
A5C4
330
A5C2
100
AcDbEntity
  8
0
 62
     7
370
     0
100
AcDbVertex
100
AcDb2dVertex
 10
62899.84982877862
 20
-27190.63275772099
 30
0.0
  0
SEQEND
  5
A5C5
330
A5C2
100
AcDbEntity
  8
0
 62
     7
370
     0
  0
POLYLINE
  5
A5C6
330
A543
100
AcDbEntity
  8
0
 62
     7
370
     0
100
AcDb2dPolyline
 66
     1
 10
0.0
 20
0.0
 30
0.0
  0
VERTEX
  5
A5C7
330
A5C6
100
AcDbEntity
  8
0
 62
     7
370
     0
100
AcDbVertex
100
AcDb2dVertex
 10
4130.22269737534
 20
-46895.23687644918
 30
0.0
  0
VERTEX
  5
A5C8
330
A5C6
100
AcDbEntity
  8
0
 62
     7
370
     0
100
AcDbVertex
100
AcDb2dVertex
 10
19704.60411872819
 20
-46895.23687644918
 30
0.0
  0
SEQEND
  5
A5C9
330
A5C6
100
AcDbEntity
  8
0
 62
     7
370
     0
  0
POLYLINE
  5
A5CA
330
A543
100
AcDbEntity
  8
0
 62
     7
370
     0
100
AcDb2dPolyline
 66
     1
 10
0.0
 20
0.0
 30
0.0
  0
VERTEX
  5
A5CB
330
A5CA
100
AcDbEntity
  8
0
 62
     7
370
     0
100
AcDbVertex
100
AcDb2dVertex
 10
23748.78050990821
 20
-46895.23687644918
 30
0.0
  0
VERTEX
  5
A5CC
330
A5CA
100
AcDbEntity
  8
0
 62
     7
370
     0
100
AcDbVertex
100
AcDb2dVertex
 10
39323.16193126106
 20
-46895.23687644918
 30
0.0
  0
SEQEND
  5
A5CD
330
A5CA
100
AcDbEntity
  8
0
 62
     7
370
     0
  0
POLYLINE
  5
A5CE
330
A543
100
AcDbEntity
  8
0
 62
     7
370
     0
100
AcDb2dPolyline
 66
     1
 10
0.0
 20
0.0
 30
0.0
  0
VERTEX
  5
A5CF
330
A5CE
100
AcDbEntity
  8
0
 62
     7
370
     0
100
AcDbVertex
100
AcDb2dVertex
 10
43367.33832244107
 20
-46895.23687644918
 30
0.0
  0
VERTEX
  5
A5D0
330
A5CE
100
AcDbEntity
  8
0
 62
     7
370
     0
100
AcDbVertex
100
AcDb2dVertex
 10
58941.71974379392
 20
-46895.23687644918
 30
0.0
  0
SEQEND
  5
A5D1
330
A5CE
100
AcDbEntity
  8
0
 62
     7
370
     0
  0
POLYLINE
  5
A5D2
330
A543
100
AcDbEntity
  8
0
 62
     7
370
     0
100
AcDb2dPolyline
 66
     1
 10
0.0
 20
0.0
 30
0.0
  0
VERTEX
  5
A5D3
330
A5D2
100
AcDbEntity
  8
0
 62
     7
370
     0
100
AcDbVertex
100
AcDb2dVertex
 10
4044.176391180021
 20
-45518.49597732406
 30
0.0
  0
VERTEX
  5
A5D4
330
A5D2
100
AcDbEntity
  8
0
 62
     7
370
     0
100
AcDbVertex
100
AcDb2dVertex
 10
4044.176391180021
 20
-49906.85759328536
 30
0.0
  0
SEQEND
  5
A5D5
330
A5D2
100
AcDbEntity
  8
0
 62
     7
370
     0
  0
POLYLINE
  5
A5D6
330
A543
100
AcDbEntity
  8
0
 62
     7
370
     0
100
AcDb2dPolyline
 66
     1
 10
0.0
 20
0.0
 30
0.0
  0
VERTEX
  5
A5D7
330
A5D6
100
AcDbEntity
  8
0
 62
     7
370
     0
100
AcDbVertex
100
AcDb2dVertex
 10
23662.73420371289
 20
-45518.49597732406
 30
0.0
  0
VERTEX
  5
A5D8
330
A5D6
100
AcDbEntity
  8
0
 62
     7
370
     0
100
AcDbVertex
100
AcDb2dVertex
 10
23662.73420371289
 20
-49906.85759328536
 30
0.0
  0
SEQEND
  5
A5D9
330
A5D6
100
AcDbEntity
  8
0
 62
     7
370
     0
  0
POLYLINE
  5
A5DA
330
A543
100
AcDbEntity
  8
0
 62
     7
370
     0
100
AcDb2dPolyline
 66
     1
 10
0.0
 20
0.0
 30
0.0
  0
VERTEX
  5
A5DB
330
A5DA
100
AcDbEntity
  8
0
 62
     7
370
     0
100
AcDbVertex
100
AcDb2dVertex
 10
43281.29201624575
 20
-45518.49597732406
 30
0.0
  0
VERTEX
  5
A5DC
330
A5DA
100
AcDbEntity
  8
0
 62
     7
370
     0
100
AcDbVertex
100
AcDb2dVertex
 10
43281.29201624575
 20
-49906.85759328536
 30
0.0
  0
SEQEND
  5
A5DD
330
A5DA
100
AcDbEntity
  8
0
 62
     7
370
     0
  0
POLYLINE
  5
A5DE
330
A543
100
AcDbEntity
  8
0
 62
     7
370
     0
100
AcDb2dPolyline
 66
     1
 10
0.0
 20
0.0
 30
0.0
  0
VERTEX
  5
A5DF
330
A5DE
100
AcDbEntity
  8
0
 62
     7
370
     0
100
AcDbVertex
100
AcDb2dVertex
 10
62899.84982877862
 20
-45518.49597732406
 30
0.0
  0
VERTEX
  5
A5E0
330
A5DE
100
AcDbEntity
  8
0
 62
     7
370
     0
100
AcDbVertex
100
AcDb2dVertex
 10
62899.84982877862
 20
-49906.85759328536
 30
0.0
  0
SEQEND
  5
A5E1
330
A5DE
100
AcDbEntity
  8
0
 62
     7
370
     0
  0
POLYLINE
  5
A5E2
330
A543
100
AcDbEntity
  8
0
 62
     7
370
     0
100
AcDb2dPolyline
 66
     1
 10
0.0
 20
0.0
 30
0.0
  0
VERTEX
  5
A5E3
330
A5E2
100
AcDbEntity
  8
0
 62
     7
370
     0
100
AcDbVertex
100
AcDb2dVertex
 10
4130.22269737534
 20
-69611.46171201355
 30
0.0
  0
VERTEX
  5
A5E4
330
A5E2
100
AcDbEntity
  8
0
 62
     7
370
     0
100
AcDbVertex
100
AcDb2dVertex
 10
19704.60411872819
 20
-69611.46171201355
 30
0.0
  0
SEQEND
  5
A5E5
330
A5E2
100
AcDbEntity
  8
0
 62
     7
370
     0
  0
POLYLINE
  5
A5E6
330
A543
100
AcDbEntity
  8
0
 62
     7
370
     0
100
AcDb2dPolyline
 66
     1
 10
0.0
 20
0.0
 30
0.0
  0
VERTEX
  5
A5E7
330
A5E6
100
AcDbEntity
  8
0
 62
     7
370
     0
100
AcDbVertex
100
AcDb2dVertex
 10
23748.78050990821
 20
-69611.46171201355
 30
0.0
  0
VERTEX
  5
A5E8
330
A5E6
100
AcDbEntity
  8
0
 62
     7
370
     0
100
AcDbVertex
100
AcDb2dVertex
 10
39323.16193126106
 20
-69611.46171201355
 30
0.0
  0
SEQEND
  5
A5E9
330
A5E6
100
AcDbEntity
  8
0
 62
     7
370
     0
  0
POLYLINE
  5
A5EA
330
A543
100
AcDbEntity
  8
0
 62
     7
370
     0
100
AcDb2dPolyline
 66
     1
 10
0.0
 20
0.0
 30
0.0
  0
VERTEX
  5
A5EB
330
A5EA
100
AcDbEntity
  8
0
 62
     7
370
     0
100
AcDbVertex
100
AcDb2dVertex
 10
43367.33832244107
 20
-69611.46171201355
 30
0.0
  0
VERTEX
  5
A5EC
330
A5EA
100
AcDbEntity
  8
0
 62
     7
370
     0
100
AcDbVertex
100
AcDb2dVertex
 10
58941.71974379392
 20
-69611.46171201355
 30
0.0
  0
SEQEND
  5
A5ED
330
A5EA
100
AcDbEntity
  8
0
 62
     7
370
     0
  0
POLYLINE
  5
A5EE
330
A543
100
AcDbEntity
  8
0
 62
     7
370
     0
100
AcDb2dPolyline
 66
     1
 10
0.0
 20
0.0
 30
0.0
  0
VERTEX
  5
A5EF
330
A5EE
100
AcDbEntity
  8
0
 62
     7
370
     0
100
AcDbVertex
100
AcDb2dVertex
 10
0.0
 20
0.0
 30
0.0
  0
VERTEX
  5
A5F0
330
A5EE
100
AcDbEntity
  8
0
 62
     7
370
     0
100
AcDbVertex
100
AcDb2dVertex
 10
0.0
 20
-90950.94564845281
 30
0.0
  0
SEQEND
  5
A5F1
330
A5EE
100
AcDbEntity
  8
0
 62
     7
370
     0
  0
POLYLINE
  5
A5F2
330
A543
100
AcDbEntity
  8
0
 62
     7
370
     0
100
AcDb2dPolyline
 66
     1
 10
0.0
 20
0.0
 30
0.0
  0
VERTEX
  5
A5F3
330
A5F2
100
AcDbEntity
  8
0
 62
     7
370
     0
100
AcDbVertex
100
AcDb2dVertex
 10
4044.176391180021
 20
-68234.72081288843
 30
0.0
  0
VERTEX
  5
A5F4
330
A5F2
100
AcDbEntity
  8
0
 62
     7
370
     0
100
AcDbVertex
100
AcDb2dVertex
 10
4044.176391180021
 20
-72623.08242884974
 30
0.0
  0
SEQEND
  5
A5F5
330
A5F2
100
AcDbEntity
  8
0
 62
     7
370
     0
  0
POLYLINE
  5
A5F6
330
A543
100
AcDbEntity
  8
0
 62
     7
370
     0
100
AcDb2dPolyline
 66
     1
 10
0.0
 20
0.0
 30
0.0
  0
VERTEX
  5
A5F7
330
A5F6
100
AcDbEntity
  8
0
 62
     7
370
     0
100
AcDbVertex
100
AcDb2dVertex
 10
19618.55781253287
 20
-86.04630619531958
 30
0.0
  0
VERTEX
  5
A5F8
330
A5F6
100
AcDbEntity
  8
0
 62
     7
370
     0
100
AcDbVertex
100
AcDb2dVertex
 10
19618.55781253287
 20
-90950.94564845281
 30
0.0
  0
SEQEND
  5
A5F9
330
A5F6
100
AcDbEntity
  8
0
 62
     7
370
     0
  0
POLYLINE
  5
A5FA
330
A543
100
AcDbEntity
  8
0
 62
     7
370
     0
100
AcDb2dPolyline
 66
     1
 10
0.0
 20
0.0
 30
0.0
  0
VERTEX
  5
A5FB
330
A5FA
100
AcDbEntity
  8
0
 62
     7
370
     0
100
AcDbVertex
100
AcDb2dVertex
 10
23662.73420371289
 20
-68234.72081288843
 30
0.0
  0
VERTEX
  5
A5FC
330
A5FA
100
AcDbEntity
  8
0
 62
     7
370
     0
100
AcDbVertex
100
AcDb2dVertex
 10
23662.73420371289
 20
-72623.08242884974
 30
0.0
  0
SEQEND
  5
A5FD
330
A5FA
100
AcDbEntity
  8
0
 62
     7
370
     0
  0
POLYLINE
  5
A5FE
330
A543
100
AcDbEntity
  8
0
 62
     7
370
     0
100
AcDb2dPolyline
 66
     1
 10
0.0
 20
0.0
 30
0.0
  0
VERTEX
  5
A5FF
330
A5FE
100
AcDbEntity
  8
0
 62
     7
370
     0
100
AcDbVertex
100
AcDb2dVertex
 10
39237.11562506574
 20
-86.04630619531958
 30
0.0
  0
VERTEX
  5
A600
330
A5FE
100
AcDbEntity
  8
0
 62
     7
370
     0
100
AcDbVertex
100
AcDb2dVertex
 10
39237.11562506574
 20
-90950.94564845281
 30
0.0
  0
SEQEND
  5
A601
330
A5FE
100
AcDbEntity
  8
0
 62
     7
370
     0
  0
POLYLINE
  5
A602
330
A543
100
AcDbEntity
  8
0
 62
     7
370
     0
100
AcDb2dPolyline
 66
     1
 10
0.0
 20
0.0
 30
0.0
  0
VERTEX
  5
A603
330
A602
100
AcDbEntity
  8
0
 62
     7
370
     0
100
AcDbVertex
100
AcDb2dVertex
 10
43281.29201624575
 20
-68234.72081288843
 30
0.0
  0
VERTEX
  5
A604
330
A602
100
AcDbEntity
  8
0
 62
     7
370
     0
100
AcDbVertex
100
AcDb2dVertex
 10
43281.29201624575
 20
-72623.08242884974
 30
0.0
  0
SEQEND
  5
A605
330
A602
100
AcDbEntity
  8
0
 62
     7
370
     0
  0
POLYLINE
  5
A606
330
A543
100
AcDbEntity
  8
0
 62
     7
370
     0
100
AcDb2dPolyline
 66
     1
 10
0.0
 20
0.0
 30
0.0
  0
VERTEX
  5
A607
330
A606
100
AcDbEntity
  8
0
 62
     7
370
     0
100
AcDbVertex
100
AcDb2dVertex
 10
58855.6734375986
 20
-86.04630619531958
 30
0.0
  0
VERTEX
  5
A608
330
A606
100
AcDbEntity
  8
0
 62
     7
370
     0
100
AcDbVertex
100
AcDb2dVertex
 10
58855.6734375986
 20
-90950.94564845281
 30
0.0
  0
SEQEND
  5
A609
330
A606
100
AcDbEntity
  8
0
 62
     7
370
     0
  0
POLYLINE
  5
A60A
330
A543
100
AcDbEntity
  8
0
 62
     7
370
     0
100
AcDb2dPolyline
 66
     1
 10
0.0
 20
0.0
 30
0.0
  0
VERTEX
  5
A60B
330
A60A
100
AcDbEntity
  8
0
 62
     7
370
     0
100
AcDbVertex
100
AcDb2dVertex
 10
62899.84982877862
 20
-68234.72081288843
 30
0.0
  0
VERTEX
  5
A60C
330
A60A
100
AcDbEntity
  8
0
 62
     7
370
     0
100
AcDbVertex
100
AcDb2dVertex
 10
62899.84982877862
 20
-72623.08242884974
 30
0.0
  0
SEQEND
  5
A60D
330
A60A
100
AcDbEntity
  8
0
 62
     7
370
     0
  0
POLYLINE
  5
A60E
330
A543
100
AcDbEntity
  8
0
 62
     7
370
     0
100
AcDb2dPolyline
 66
     1
 10
0.0
 20
0.0
 30
0.0
  0
VERTEX
  5
A60F
330
A60E
100
AcDbEntity
  8
0
 62
     7
370
     0
100
AcDbVertex
100
AcDb2dVertex
 10
78474.23125013147
 20
-86.04630619531958
 30
0.0
  0
VERTEX
  5
A610
330
A60E
100
AcDbEntity
  8
0
 62
     7
370
     0
100
AcDbVertex
100
AcDb2dVertex
 10
78474.23125013147
 20
-90950.94564845281
 30
0.0
  0
SEQEND
  5
A611
330
A60E
100
AcDbEntity
  8
0
 62
     7
370
     0
  0
POLYLINE
  5
A612
330
A543
100
AcDbEntity
  8
0
 62
     7
370
     0
100
AcDb2dPolyline
 66
     1
 10
0.0
 20
0.0
 30
0.0
  0
VERTEX
  5
A613
330
A612
100
AcDbEntity
  8
0
 62
     7
370
     0
100
AcDbVertex
100
AcDb2dVertex
 10
86.04630619531958
 20
0.0
 30
0.0
  0
VERTEX
  5
A614
330
A612
100
AcDbEntity
  8
0
 62
     7
370
     0
100
AcDbVertex
100
AcDb2dVertex
 10
78560.2775563268
 20
0.0
 30
0.0
  0
SEQEND
  5
A615
330
A612
100
AcDbEntity
  8
0
 62
     7
370
     0
  0
POLYLINE
  5
A616
330
A543
100
AcDbEntity
  8
0
 62
     7
370
     0
100
AcDb2dPolyline
 66
     1
 10
0.0
 20
0.0
 30
0.0
  0
VERTEX
  5
A617
330
A616
100
AcDbEntity
  8
0
 62
     7
370
     0
100
AcDbVertex
100
AcDb2dVertex
 10
62985.89613497393
 20
-1462.787205320433
 30
0.0
  0
VERTEX
  5
A618
330
A616
100
AcDbEntity
  8
0
 62
     7
370
     0
100
AcDbVertex
100
AcDb2dVertex
 10
78560.2775563268
 20
-1462.787205320433
 30
0.0
  0
SEQEND
  5
A619
330
A616
100
AcDbEntity
  8
0
 62
     7
370
     0
  0
POLYLINE
  5
A61A
330
A543
100
AcDbEntity
  8
0
 62
     7
370
     0
100
AcDb2dPolyline
 66
     1
 10
0.0
 20
0.0
 30
0.0
  0
VERTEX
  5
A61B
330
A61A
100
AcDbEntity
  8
0
 62
     7
370
     0
100
AcDbVertex
100
AcDb2dVertex
 10
86.04630619531958
 20
-4388.361615961299
 30
0.0
  0
VERTEX
  5
A61C
330
A61A
100
AcDbEntity
  8
0
 62
     7
370
     0
100
AcDbVertex
100
AcDb2dVertex
 10
78560.2775563268
 20
-4388.361615961299
 30
0.0
  0
SEQEND
  5
A61D
330
A61A
100
AcDbEntity
  8
0
 62
     7
370
     0
  0
POLYLINE
  5
A61E
330
A543
100
AcDbEntity
  8
0
 62
     7
370
     0
100
AcDb2dPolyline
 66
     1
 10
0.0
 20
0.0
 30
0.0
  0
VERTEX
  5
A61F
330
A61E
100
AcDbEntity
  8
0
 62
     7
370
     0
100
AcDbVertex
100
AcDb2dVertex
 10
86.04630619531958
 20
-22716.22483556437
 30
0.0
  0
VERTEX
  5
A620
330
A61E
100
AcDbEntity
  8
0
 62
     7
370
     0
100
AcDbVertex
100
AcDb2dVertex
 10
78560.2775563268
 20
-22716.22483556437
 30
0.0
  0
SEQEND
  5
A621
330
A61E
100
AcDbEntity
  8
0
 62
     7
370
     0
  0
POLYLINE
  5
A622
330
A543
100
AcDbEntity
  8
0
 62
     7
370
     0
100
AcDb2dPolyline
 66
     1
 10
0.0
 20
0.0
 30
0.0
  0
VERTEX
  5
A623
330
A622
100
AcDbEntity
  8
0
 62
     7
370
     0
100
AcDbVertex
100
AcDb2dVertex
 10
62985.89613497393
 20
-24179.0120408848
 30
0.0
  0
VERTEX
  5
A624
330
A622
100
AcDbEntity
  8
0
 62
     7
370
     0
100
AcDbVertex
100
AcDb2dVertex
 10
78560.2775563268
 20
-24179.0120408848
 30
0.0
  0
SEQEND
  5
A625
330
A622
100
AcDbEntity
  8
0
 62
     7
370
     0
  0
POLYLINE
  5
A626
330
A543
100
AcDbEntity
  8
0
 62
     7
370
     0
100
AcDb2dPolyline
 66
     1
 10
0.0
 20
0.0
 30
0.0
  0
VERTEX
  5
A627
330
A626
100
AcDbEntity
  8
0
 62
     7
370
     0
100
AcDbVertex
100
AcDb2dVertex
 10
86.04630619531958
 20
-27104.58645152567
 30
0.0
  0
VERTEX
  5
A628
330
A626
100
AcDbEntity
  8
0
 62
     7
370
     0
100
AcDbVertex
100
AcDb2dVertex
 10
78560.2775563268
 20
-27104.58645152567
 30
0.0
  0
SEQEND
  5
A629
330
A626
100
AcDbEntity
  8
0
 62
     7
370
     0
  0
POLYLINE
  5
A62A
330
A543
100
AcDbEntity
  8
0
 62
     7
370
     0
100
AcDb2dPolyline
 66
     1
 10
0.0
 20
0.0
 30
0.0
  0
VERTEX
  5
A62B
330
A62A
100
AcDbEntity
  8
0
 62
     7
370
     0
100
AcDbVertex
100
AcDb2dVertex
 10
86.04630619531958
 20
-45432.44967112874
 30
0.0
  0
VERTEX
  5
A62C
330
A62A
100
AcDbEntity
  8
0
 62
     7
370
     0
100
AcDbVertex
100
AcDb2dVertex
 10
78560.2775563268
 20
-45432.44967112874
 30
0.0
  0
SEQEND
  5
A62D
330
A62A
100
AcDbEntity
  8
0
 62
     7
370
     0
  0
POLYLINE
  5
A62E
330
A543
100
AcDbEntity
  8
0
 62
     7
370
     0
100
AcDb2dPolyline
 66
     1
 10
0.0
 20
0.0
 30
0.0
  0
VERTEX
  5
A62F
330
A62E
100
AcDbEntity
  8
0
 62
     7
370
     0
100
AcDbVertex
100
AcDb2dVertex
 10
62985.89613497393
 20
-46895.23687644918
 30
0.0
  0
VERTEX
  5
A630
330
A62E
100
AcDbEntity
  8
0
 62
     7
370
     0
100
AcDbVertex
100
AcDb2dVertex
 10
78560.2775563268
 20
-46895.23687644918
 30
0.0
  0
SEQEND
  5
A631
330
A62E
100
AcDbEntity
  8
0
 62
     7
370
     0
  0
POLYLINE
  5
A632
330
A543
100
AcDbEntity
  8
0
 62
     7
370
     0
100
AcDb2dPolyline
 66
     1
 10
0.0
 20
0.0
 30
0.0
  0
VERTEX
  5
A633
330
A632
100
AcDbEntity
  8
0
 62
     7
370
     0
100
AcDbVertex
100
AcDb2dVertex
 10
86.04630619531958
 20
-49820.81128709004
 30
0.0
  0
VERTEX
  5
A634
330
A632
100
AcDbEntity
  8
0
 62
     7
370
     0
100
AcDbVertex
100
AcDb2dVertex
 10
78560.2775563268
 20
-49820.81128709004
 30
0.0
  0
SEQEND
  5
A635
330
A632
100
AcDbEntity
  8
0
 62
     7
370
     0
  0
POLYLINE
  5
A636
330
A543
100
AcDbEntity
  8
0
 62
     7
370
     0
100
AcDb2dPolyline
 66
     1
 10
0.0
 20
0.0
 30
0.0
  0
VERTEX
  5
A637
330
A636
100
AcDbEntity
  8
0
 62
     7
370
     0
100
AcDbVertex
100
AcDb2dVertex
 10
86.04630619531958
 20
-68148.67450669312
 30
0.0
  0
VERTEX
  5
A638
330
A636
100
AcDbEntity
  8
0
 62
     7
370
     0
100
AcDbVertex
100
AcDb2dVertex
 10
78560.2775563268
 20
-68148.67450669312
 30
0.0
  0
SEQEND
  5
A639
330
A636
100
AcDbEntity
  8
0
 62
     7
370
     0
  0
POLYLINE
  5
A63A
330
A543
100
AcDbEntity
  8
0
 62
     7
370
     0
100
AcDb2dPolyline
 66
     1
 10
0.0
 20
0.0
 30
0.0
  0
VERTEX
  5
A63B
330
A63A
100
AcDbEntity
  8
0
 62
     7
370
     0
100
AcDbVertex
100
AcDb2dVertex
 10
62985.89613497393
 20
-69611.46171201355
 30
0.0
  0
VERTEX
  5
A63C
330
A63A
100
AcDbEntity
  8
0
 62
     7
370
     0
100
AcDbVertex
100
AcDb2dVertex
 10
78560.2775563268
 20
-69611.46171201355
 30
0.0
  0
SEQEND
  5
A63D
330
A63A
100
AcDbEntity
  8
0
 62
     7
370
     0
  0
POLYLINE
  5
A63E
330
A543
100
AcDbEntity
  8
0
 62
     7
370
     0
100
AcDb2dPolyline
 66
     1
 10
0.0
 20
0.0
 30
0.0
  0
VERTEX
  5
A63F
330
A63E
100
AcDbEntity
  8
0
 62
     7
370
     0
100
AcDbVertex
100
AcDb2dVertex
 10
86.04630619531958
 20
-72537.03612265442
 30
0.0
  0
VERTEX
  5
A640
330
A63E
100
AcDbEntity
  8
0
 62
     7
370
     0
100
AcDbVertex
100
AcDb2dVertex
 10
78560.2775563268
 20
-72537.03612265442
 30
0.0
  0
SEQEND
  5
A641
330
A63E
100
AcDbEntity
  8
0
 62
     7
370
     0
  0
POLYLINE
  5
A642
330
A543
100
AcDbEntity
  8
0
 62
     7
370
     0
100
AcDb2dPolyline
 66
     1
 10
0.0
 20
0.0
 30
0.0
  0
VERTEX
  5
A643
330
A642
100
AcDbEntity
  8
0
 62
     7
370
     0
100
AcDbVertex
100
AcDb2dVertex
 10
86.04630619531958
 20
-90864.89934225749
 30
0.0
  0
VERTEX
  5
A644
330
A642
100
AcDbEntity
  8
0
 62
     7
370
     0
100
AcDbVertex
100
AcDb2dVertex
 10
78560.2775563268
 20
-90864.89934225749
 30
0.0
  0
SEQEND
  5
A645
330
A642
100
AcDbEntity
  8
0
 62
     7
370
     0
  0
ENDBLK
  5
A646
330
A543
100
AcDbEntity
  8
0
 62
     7
370
     0
100
AcDbBlockEnd
  0
BLOCK
  5
1384F
330
1384E
100
AcDbEntity
  8
0
 62
     7
100
AcDbBlockBegin
  2
_Open
 70
     0
 10
0.0
 20
0.0
 30
0.0
  3
_Open
  1

  0
LINE
  5
13850
330
1384E
100
AcDbEntity
  8
0
  6
ByBlock
 62
     0
370
    -2
100
AcDbLine
 10
-1.0
 20
0.1666666666666666
 30
0.0
 11
0.0
 21
0.0
 31
0.0
  0
LINE
  5
13851
330
1384E
100
AcDbEntity
  8
0
  6
ByBlock
 62
     0
370
    -2
100
AcDbLine
 10
-1.0
 20
-0.1666666666666666
 30
0.0
 11
0.0
 21
0.0
 31
0.0
  0
LINE
  5
13852
330
1384E
100
AcDbEntity
  8
0
  6
ByBlock
 62
     0
370
    -2
100
AcDbLine
 10
0.0
 20
0.0
 30
0.0
 11
-1.0
 21
0.0
 31
0.0
  0
ENDBLK
  5
13853
330
1384E
100
AcDbEntity
  8
0
 62
     7
100
AcDbBlockEnd
  0
ENDSEC
  0
SECTION
  2
ENTITIES
  0
TEXT
  5
12CB6
330
1F07
100
AcDbEntity
  8
0
 62
     7
100
AcDbText
 10
2936.041720299844
 20
-70555.29423728033
 30
0.0
 40
299.9999947731441
  1
LEDｱｳﾄﾄﾞｱｽﾎﾟｯﾄﾗｲﾄ
  7
WMF-ＭＳ Ｐゴシック0
100
AcDbText
  0
TEXT
  5
12CB7
330
1F07
100
AcDbEntity
  8
0
 62
     7
100
AcDbText
 10
2936.041720299844
 20
-71045.67884412105
 30
0.0
 40
299.9999947731441
  1
BGSL-20053GW-110
  7
WMF-ＭＳ Ｐゴシック0
100
AcDbText
  0
TEXT
  5
12CB8
330
1F07
100
AcDbEntity
  8
0
 62
     7
100
AcDbText
 10
4414.853686555063
 20
-71536.06345096175
 30
0.0
 40
299.9999947731441
  1
LED76W  (4500K)
  7
WMF-ＭＳ Ｐゴシック0
100
AcDbText
  0
TEXT
  5
12CB9
330
1F07
100
AcDbEntity
  8
0
 62
     7
100
AcDbText
 10
2936.041720299844
 20
-77103.37104627107
 30
0.0
 40
299.9999947731441
  1
 
  7
WMF-ＭＳ Ｐゴシック0
100
AcDbText
  0
TEXT
  5
12DD5
330
1F07
100
AcDbEntity
  8
0
 62
     7
100
AcDbText
 10
2936.041720299844
 20
-77103.37104627107
 30
0.0
 40
299.9999947731441
  1
 
  7
WMF-ＭＳ Ｐゴシック0
100
AcDbText
  0
MTEXT
  5
12F78
330
1F07
100
AcDbEntity
  8
記号
 62
     2
100
AcDbMText
 10
6610.22541301771
 20
-72228.69495944937
 30
0.0
 40
300.0001909587983
 41
2900.001845935049
 71
     5
 72
     5
  1
Re:ray
  7
スタイル1
 73
     1
 44
1.0
1001
ACAD
1000
MTEXTBEGIN
1070
    73
1070
     1
1070
    44
1040
1.0
1070
    74
1070
     0
1000
MTEXTEND
  0
MTEXT
  5
12F79
330
1F07
100
AcDbEntity
  8
記号
 62
     2
100
AcDbMText
 10
1778.83135153968
 20
-77302.25409276191
 30
0.0
 40
250.0
 41
6533.332686219465
 71
     4
 72
     5
  1
幅:160　長さ:276　高さ:431(mm)
  7
スタイル1
 73
     1
 44
1.0
1001
ACAD
1000
MTEXTBEGIN
1070
    73
1070
     1
1070
    44
1040
1.0
1070
    74
1070
     0
1000
MTEXTEND
  0
ELLIPSE
  5
131AA
330
1F07
100
AcDbEntity
  8
器具
100
AcDbEllipse
 10
4854.302992612998
 20
-73938.53176573542
 30
0.0
 11
-403.423742471187
 21
892.1219722743542
 31
0.0
210
0.0
220
0.0
230
1.0
 40
0.567775713781121
 41
7.925264329185698
 42
9.972732893629796
  0
ELLIPSE
  5
131AB
330
1F07
100
AcDbEntity
  8
器具
100
AcDbEllipse
 10
4381.475238084496
 20
-74169.2612711883
 30
0.0
 11
-390.8913713497782
 21
747.2341632108469
 31
0.0
210
0.0
220
0.0
230
1.0
 40
0.6392857092647501
 41
8.883396521292453
 42
9.019214798497223
  0
ELLIPSE
  5
131B5
330
1F07
100
AcDbEntity
  8
器具
100
AcDbEllipse
 10
5140.112431301694
 20
-73791.62564823139
 30
0.0
 11
-28.06169674482381
 21
21.64282589281698
 31
0.0
210
0.0
220
0.0
230
1.0
 40
0.7738027463091953
 41
0.0
 42
6.283185307179586
  0
ELLIPSE
  5
131B6
330
1F07
100
AcDbEntity
  8
器具
100
AcDbEllipse
 10
4901.594956132072
 20
-73617.41064550186
 30
0.0
 11
-28.06169674482381
 21
21.64282589281698
 31
0.0
210
0.0
220
0.0
230
1.0
 40
0.7738027463091953
 41
0.0
 42
6.283185307179586
  0
ELLIPSE
  5
131B7
330
1F07
100
AcDbEntity
  8
器具
100
AcDbEllipse
 10
4920.087841532791
 20
-73776.5292408507
 30
0.0
 11
-28.06169674482381
 21
21.64282589281698
 31
0.0
210
0.0
220
0.0
230
1.0
 40
0.7738027463091953
 41
0.0
 42
6.283185307179586
  0
ELLIPSE
  5
131B8
330
1F07
100
AcDbEntity
  8
器具
100
AcDbEllipse
 10
4989.283400579052
 20
-73569.81892334681
 30
0.0
 11
-28.06169674482381
 21
21.64282589281698
 31
0.0
210
0.0
220
0.0
230
1.0
 40
0.7738027463091953
 41
0.0
 42
6.283185307179586
  0
ELLIPSE
  5
131B9
330
1F07
100
AcDbEntity
  8
器具
100
AcDbEllipse
 10
5015.000417651926
 20
-73742.02318435059
 30
0.0
 11
-28.06169674482381
 21
21.64282589281698
 31
0.0
210
0.0
220
0.0
230
1.0
 40
0.7738027463091953
 41
0.0
 42
6.283185307179586
  0
ELLIPSE
  5
131BA
330
1F07
100
AcDbEntity
  8
器具
100
AcDbEllipse
 10
4728.105761110813
 20
-73871.42080428601
 30
0.0
 11
-28.06169674482381
 21
21.64282589281698
 31
0.0
210
0.0
220
0.0
230
1.0
 40
0.7738027463091953
 41
0.0
 42
6.283185307179586
  0
ELLIPSE
  5
131BB
330
1F07
100
AcDbEntity
  8
器具
100
AcDbEllipse
 10
4548.336128669226
 20
-73552.28510839214
 30
0.0
 11
-28.06169674482381
 21
21.64282589281698
 31
0.0
210
0.0
220
0.0
230
1.0
 40
0.7738027463091953
 41
0.0
 42
6.283185307179586
  0
ELLIPSE
  5
131BC
330
1F07
100
AcDbEntity
  8
器具
100
AcDbEllipse
 10
4565.87371576887
 20
-73785.23430292639
 30
0.0
 11
-28.06169674482381
 21
21.64282589281698
 31
0.0
210
0.0
220
0.0
230
1.0
 40
0.7738027463091953
 41
0.0
 42
6.283185307179586
  0
ELLIPSE
  5
131BD
330
1F07
100
AcDbEntity
  8
器具
100
AcDbEllipse
 10
4671.099849105445
 20
-73604.88649196237
 30
0.0
 11
-28.06169674482381
 21
21.64282589281698
 31
0.0
210
0.0
220
0.0
230
1.0
 40
0.7738027463091953
 41
0.0
 42
6.283185307179586
  0
ELLIPSE
  5
131BE
330
1F07
100
AcDbEntity
  8
器具
100
AcDbEllipse
 10
4656.067515260041
 20
-73750.16667301705
 30
0.0
 11
-28.06169674482381
 21
21.64282589281698
 31
0.0
210
0.0
220
0.0
230
1.0
 40
0.7738027463091953
 41
0.0
 42
6.283185307179586
  0
ELLIPSE
  5
131BF
330
1F07
100
AcDbEntity
  8
器具
100
AcDbEllipse
 10
4671.099849105445
 20
-73419.52908087693
 30
0.0
 11
-28.06169674482381
 21
21.64282589281698
 31
0.0
210
0.0
220
0.0
230
1.0
 40
0.7738027463091953
 41
0.0
 42
6.283185307179586
  0
ELLIPSE
  5
131C0
330
1F07
100
AcDbEntity
  8
器具
100
AcDbEllipse
 10
4826.4334904859
 20
-73442.07255724723
 30
0.0
 11
-28.06169674482381
 21
21.64282589281698
 31
0.0
210
0.0
220
0.0
230
1.0
 40
0.7738027463091953
 41
0.0
 42
6.283185307179586
  0
ELLIPSE
  5
131C1
330
1F07
100
AcDbEntity
  8
器具
100
AcDbEllipse
 10
4783.842047574513
 20
-73564.80926193076
 30
0.0
 11
-28.06169674482381
 21
21.64282589281698
 31
0.0
210
0.0
220
0.0
230
1.0
 40
0.7738027463091953
 41
0.0
 42
6.283185307179586
  0
ELLIPSE
  5
131C2
330
1F07
100
AcDbEntity
  8
器具
100
AcDbEllipse
 10
4786.347402618733
 20
-73722.6135352307
 30
0.0
 11
-28.06169674482381
 21
21.64282589281698
 31
0.0
210
0.0
220
0.0
230
1.0
 40
0.7738027463091953
 41
0.0
 42
6.283185307179586
  0
ELLIPSE
  5
131C3
330
1F07
100
AcDbEntity
  8
器具
100
AcDbEllipse
 10
5135.798371354272
 20
-74056.89099588636
 30
0.0
 11
-28.06169674482381
 21
21.64282589281698
 31
0.0
210
0.0
220
0.0
230
1.0
 40
0.7738027463091953
 41
0.0
 42
6.283185307179586
  0
ELLIPSE
  5
131C4
330
1F07
100
AcDbEntity
  8
器具
100
AcDbEllipse
 10
5089.364970096039
 20
-74367.64256382099
 30
0.0
 11
-28.06169674482381
 21
21.64282589281698
 31
0.0
210
0.0
220
0.0
230
1.0
 40
0.7738027463091953
 41
0.0
 42
6.283185307179586
  0
ELLIPSE
  5
131C5
330
1F07
100
AcDbEntity
  8
器具
100
AcDbEllipse
 10
4907.145254531044
 20
-74097.86691499549
 30
0.0
 11
-28.06169674482381
 21
21.64282589281698
 31
0.0
210
0.0
220
0.0
230
1.0
 40
0.7738027463091953
 41
0.0
 42
6.283185307179586
  0
ELLIPSE
  5
131C6
330
1F07
100
AcDbEntity
  8
器具
100
AcDbEllipse
 10
4956.758776144199
 20
-74253.14416924691
 30
0.0
 11
-28.06169674482381
 21
21.64282589281698
 31
0.0
210
0.0
220
0.0
230
1.0
 40
0.7738027463091953
 41
0.0
 42
6.283185307179586
  0
ELLIPSE
  5
131C7
330
1F07
100
AcDbEntity
  8
器具
100
AcDbEllipse
 10
4936.666873053962
 20
-74377.68628156779
 30
0.0
 11
-28.06169674482381
 21
21.64282589281698
 31
0.0
210
0.0
220
0.0
230
1.0
 40
0.7738027463091953
 41
0.0
 42
6.283185307179586
  0
ELLIPSE
  5
131C8
330
1F07
100
AcDbEntity
  8
器具
100
AcDbEllipse
 10
5035.11695390028
 20
-74204.93442213141
 30
0.0
 11
-28.06169674482381
 21
21.64282589281698
 31
0.0
210
0.0
220
0.0
230
1.0
 40
0.7738027463091953
 41
0.0
 42
6.283185307179586
  0
ELLIPSE
  5
131C9
330
1F07
100
AcDbEntity
  8
器具
100
AcDbEllipse
 10
4732.419922848323
 20
-74091.39699109271
 30
0.0
 11
-28.06169674482381
 21
21.64282589281698
 31
0.0
210
0.0
220
0.0
230
1.0
 40
0.7738027463091953
 41
0.0
 42
6.283185307179586
  0
ELLIPSE
  5
131CA
330
1F07
100
AcDbEntity
  8
器具
100
AcDbEllipse
 10
4757.849485216303
 20
-74259.17051022379
 30
0.0
 11
-28.06169674482381
 21
21.64282589281698
 31
0.0
210
0.0
220
0.0
230
1.0
 40
0.7738027463091953
 41
0.0
 42
6.283185307179586
  0
ELLIPSE
  5
131CB
330
1F07
100
AcDbEntity
  8
器具
100
AcDbEllipse
 10
4633.193184991895
 20
-74022.38487809245
 30
0.0
 11
-28.06169674482381
 21
21.64282589281698
 31
0.0
210
0.0
220
0.0
230
1.0
 40
0.7738027463091953
 41
0.0
 42
6.283185307179586
  0
ELLIPSE
  5
131CC
330
1F07
100
AcDbEntity
  8
器具
100
AcDbEllipse
 10
4825.175367203716
 20
-74015.9150154839
 30
0.0
 11
-28.06169674482381
 21
21.64282589281698
 31
0.0
210
0.0
220
0.0
230
1.0
 40
0.7738027463091953
 41
0.0
 42
6.283185307179586
  0
ELLIPSE
  5
131CD
330
1F07
100
AcDbEntity
  8
器具
100
AcDbEllipse
 10
4822.143351167311
 20
-74208.95186019509
 30
0.0
 11
-28.06169674482381
 21
21.64282589281698
 31
0.0
210
0.0
220
0.0
230
1.0
 40
0.7738027463091953
 41
0.0
 42
6.283185307179586
  0
ELLIPSE
  5
131CE
330
1F07
100
AcDbEntity
  8
器具
100
AcDbEllipse
 10
5088.341981504942
 20
-73914.55346685205
 30
0.0
 11
-28.06169674482381
 21
21.64282589281698
 31
0.0
210
0.0
220
0.0
230
1.0
 40
0.7738027463091953
 41
0.0
 42
6.283185307179586
  0
ELLIPSE
  5
131CF
330
1F07
100
AcDbEntity
  8
器具
100
AcDbEllipse
 10
5004.214962413815
 20
-73946.90284118946
 30
0.0
 11
-28.06169674482381
 21
21.64282589281698
 31
0.0
210
0.0
220
0.0
230
1.0
 40
0.7738027463091953
 41
0.0
 42
6.283185307179586
  0
ELLIPSE
  5
131D0
330
1F07
100
AcDbEntity
  8
器具
100
AcDbEllipse
 10
4861.846098235218
 20
-73912.3967846889
 30
0.0
 11
-28.06169674482381
 21
21.64282589281698
 31
0.0
210
0.0
220
0.0
230
1.0
 40
0.7738027463091953
 41
0.0
 42
6.283185307179586
  0
ELLIPSE
  5
131D1
330
1F07
100
AcDbEntity
  8
器具
100
AcDbEllipse
 10
4648.292903757169
 20
-73929.64981293896
 30
0.0
 11
-28.06169674482381
 21
21.64282589281698
 31
0.0
210
0.0
220
0.0
230
1.0
 40
0.7738027463091953
 41
0.0
 42
6.283185307179586
  0
ELLIPSE
  5
131D2
330
1F07
100
AcDbEntity
  8
器具
100
AcDbEllipse
 10
4846.371894392668
 20
-73923.27621217703
 30
0.0
 11
-287.6457133888327
 21
639.2545130173756
 31
0.0
210
0.0
220
0.0
230
0.9999999999999998
 40
0.5510806994067967
 41
3.24585493527027
 42
6.145225961882757
  0
ELLIPSE
  5
131D3
330
1F07
100
AcDbEntity
  8
器具
100
AcDbEllipse
 10
5171.741508112265
 20
-74235.06557537226
 30
0.0
 11
-28.06169674482381
 21
21.64282589281698
 31
0.0
210
0.0
220
0.0
230
1.0
 40
0.7738027463091953
 41
0.0
 42
6.283185307179586
  0
ELLIPSE
  5
131D4
330
1F07
100
AcDbEntity
  8
器具
100
AcDbEllipse
 10
5203.219732276919
 20
-74024.43601240474
 30
0.0
 11
-28.06169674482381
 21
21.64282589281698
 31
0.0
210
0.0
220
0.0
230
1.0
 40
0.7738027463091953
 41
0.0
 42
6.283185307179586
  0
ELLIPSE
  5
131D5
330
1F07
100
AcDbEntity
  8
器具
100
AcDbEllipse
 10
4819.206814066222
 20
-75024.95026445009
 30
0.0
 11
-69.30136965724642
 21
0.0
 31
0.0
210
0.0
220
0.0
230
1.0
 40
0.3492066639494314
 41
0.0
 42
6.283185307179586
  0
ELLIPSE
  5
131D6
330
1F07
100
AcDbEntity
  8
器具
100
AcDbEllipse
 10
4819.206814066222
 20
-75072.24078907899
 30
0.0
 11
-69.30136965724642
 21
0.0
 31
0.0
210
0.0
220
0.0
230
1.0
 40
0.3492066639494314
 41
0.0
 42
3.141592653589793
  0
SPLINE
  5
131D7
330
1F07
100
AcDbEntity
  8
器具
100
AcDbSpline
210
0.0
220
0.0
230
1.0
 70
     8
 71
     3
 72
    11
 73
     7
 74
     0
 42
0.0000000001
 43
0.0000000001
 40
24.1431787111185
 40
24.1431787111185
 40
24.1431787111185
 40
24.1431787111185
 40
91.81771680766116
 40
300.5784752433654
 40
530.7067315376259
 40
582.7282687103588
 40
582.7282687103588
 40
582.7282687103588
 40
582.7282687103588
 10
4971.370023556859
 20
-74833.3068192091
 30
0.0
 10
4965.507302601487
 20
-74853.20780893137
 30
0.0
 10
4937.456447192779
 20
-74930.74064661296
 30
0.0
 10
4769.2550895052
 20
-74965.83290580816
 30
0.0
 10
4650.399424238321
 20
-75057.22129409428
 30
0.0
 10
4567.869233013538
 20
-75058.82609013497
 30
0.0
 10
4552.413191739928
 20
-75058.26428038623
 30
0.0
  0
SPLINE
  5
131D8
330
1F07
100
AcDbEntity
  8
器具
100
AcDbSpline
210
0.0
220
0.0
230
1.0
 70
     8
 71
     3
 72
    13
 73
     9
 74
     0
 42
0.0000000001
 43
0.0000000001
 40
0.0
 40
0.0
 40
0.0
 40
0.0
 40
186.9521510872353
 40
399.8316007893695
 40
550.5298078678061
 40
657.8720713112927
 40
726.7597557599071
 40
800.5531768021944
 40
800.5531768021944
 40
800.5531768021944
 40
800.5531768021944
 10
4685.997310030217
 20
-75226.0885245375
 30
0.0
 10
4737.569395130983
 20
-75205.97329504504
 30
0.0
 10
4847.865795691168
 20
-75162.9531727226
 30
0.0
 10
4988.846692552566
 20
-75082.06067900461
 30
0.0
 10
5118.777143986159
 20
-75027.48091775235
 30
0.0
 10
5187.736711764886
 20
-74957.10181647402
 30
0.0
 10
5226.996779688319
 20
-74894.09636474431
 30
0.0
 10
5242.306712551124
 20
-74854.80418727607
 30
0.0
 10
5249.603836487006
 20
-74834.19052633234
 30
0.0
  0
ELLIPSE
  5
131D9
330
1F07
100
AcDbEntity
  8
器具
100
AcDbEllipse
 10
4381.475238084496
 20
-74169.2612711883
 30
0.0
 11
-390.8913713497782
 21
747.2341632108469
 31
0.0
210
0.0
220
0.0
230
1.0
 40
0.6392857092647501
 41
6.371199980907968
 42
6.781665034337398
  0
SPLINE
  5
131DA
330
1F07
100
AcDbEntity
  8
器具
100
AcDbSpline
210
0.0
220
0.0
230
1.0
 70
     8
 71
     3
 72
    12
 73
     8
 74
     6
 42
0.0000000001
 43
0.0000000001
 44
0.0000000001
 40
0.0
 40
0.0
 40
0.0
 40
0.0
 40
32.17257328282908
 40
117.6536709642359
 40
190.9318479043943
 40
304.0294436416879
 40
382.083157167411
 40
382.083157167411
 40
382.083157167411
 40
382.083157167411
 10
4102.876153803552
 20
-74097.42768392681
 30
0.0
 10
4111.46433020826
 20
-74090.84593137241
 30
0.0
 10
4142.870909719938
 20
-74066.77675472943
 30
0.0
 10
4208.750429174328
 20
-74058.78877120893
 30
0.0
 10
4301.948686235476
 20
-74063.25083710799
 30
0.0
 10
4366.871191581027
 20
-74141.42479131514
 30
0.0
 10
4374.629102048532
 20
-74204.70414068084
 30
0.0
 10
4377.796926132625
 20
-74230.5432951524
 30
0.0
 11
4102.876153803552
 21
-74097.42768392681
 31
0.0
 11
4129.327788653822
 21
-74079.11415107848
 31
0.0
 11
4212.858726034399
 21
-74060.95924647559
 31
0.0
 11
4285.494376864526
 21
-74070.64188269498
 31
0.0
 11
4361.761789878028
 21
-74154.15444386864
 31
0.0
 11
4377.796926132625
 21
-74230.5432951524
 31
0.0
  0
ELLIPSE
  5
131DB
330
1F07
100
AcDbEntity
  8
器具
100
AcDbEllipse
 10
4381.475238084496
 20
-74169.2612711883
 30
0.0
 11
-390.8913713497782
 21
747.2341632108469
 31
0.0
210
0.0
220
0.0
230
1.0
 40
0.6392857092647501
 41
6.870908538408461
 42
7.749319634831941
  0
SPLINE
  5
131DC
330
1F07
100
AcDbEntity
  8
器具
100
AcDbSpline
210
0.0
220
0.0
230
1.0
 70
     8
 71
     3
 72
    12
 73
     8
 74
     0
 42
0.0000000001
 43
0.0000000001
 40
32.02084201289924
 40
32.02084201289924
 40
32.02084201289924
 40
32.02084201289924
 40
118.8175933713676
 40
319.5083417421192
 40
404.1765875681697
 40
526.6619546028256
 40
646.8967874402533
 40
646.8967874402533
 40
646.8967874402533
 40
646.8967874402533
 10
4319.072991195347
 20
-75026.47173229662
 30
0.0
 10
4294.429469096153
 20
-75019.3127812524
 30
0.0
 10
4213.315244773162
 20
-74994.02100595444
 30
0.0
 10
4116.423693939714
 20
-74936.14348613777
 30
0.0
 10
4039.07896399827
 20
-74838.5854276882
 30
0.0
 10
4036.672379417255
 20
-74737.34785173443
 30
0.0
 10
4040.217855995
 20
-74665.98048529156
 30
0.0
 10
4042.240958236877
 20
-74630.81230758109
 30
0.0
  0
SPLINE
  5
131DD
330
1F07
100
AcDbEntity
  8
器具
100
AcDbSpline
210
0.0
220
0.0
230
1.0
 70
     8
 71
     3
 72
    30
 73
    26
 74
     0
 42
0.0000000001
 43
0.0000000001
 40
0.0
 40
0.0
 40
0.0
 40
0.0
 40
0.6382683377712822
 40
0.6382683377712822
 40
1.701433343246844
 40
1.701433343246844
 40
2.764598348722406
 40
2.764598348722406
 40
3.19879657961328
 40
3.19879657961328
 40
3.618671474500387
 40
3.618671474500387
 40
4.043098824114366
 40
4.043098824114366
 40
4.467526173728345
 40
4.467526173728345
 40
4.891953523342325
 40
4.891953523342325
 40
5.309927773656583
 40
5.309927773656583
 40
5.727902023970841
 40
5.727902023970841
 40
6.563850524599357
 40
6.563850524599357
 40
6.777114206260529
 40
6.777114206260529
 40
6.777114206260529
 40
6.777114206260529
 10
4322.269608657386
 20
-75119.58127498878
 30
0.0
 10
4304.105995793507
 20
-75114.44627803532
 30
0.0
 10
4285.125487092005
 20
-75109.0929422725
 30
0.0
 10
4232.843536684966
 20
-75092.68256022824
 30
0.0
 10
4198.006761168325
 20
-75079.72555014974
 30
0.0
 10
4131.071423616574
 20
-75046.13509792711
 30
0.0
 10
4098.549951440481
 20
-75025.67318899883
 30
0.0
 10
4056.022959315652
 20
-74990.66049169873
 30
0.0
 10
4044.095933960123
 20
-74979.78647096671
 30
0.0
 10
4021.602895417299
 20
-74956.84938144173
 30
0.0
 10
4010.414525422902
 20
-74944.27210418677
 30
0.0
 10
3989.177161736952
 20
-74915.33023084416
 30
0.0
 10
3979.099147142753
 20
-74898.86030472163
 30
0.0
 10
3962.961940425716
 20
-74861.23340492125
 30
0.0
 10
3958.004998479026
 20
-74842.60904270543
 30
0.0
 10
3951.716145346853
 20
-74807.37862227802
 30
0.0
 10
3950.349638764315
 20
-74790.70790171987
 30
0.0
 10
3949.109767290878
 20
-74759.79024731631
 30
0.0
 10
3949.217351692467
 20
-74745.66123154969
 30
0.0
 10
3949.615514568421
 20
-74719.04033863857
 30
0.0
 10
3949.975624433861
 20
-74705.92823728037
 30
0.0
 10
3951.388566294797
 20
-74667.12245909125
 30
0.0
 10
3952.771607208744
 20
-74641.96221785098
 30
0.0
 10
3954.584561475402
 20
-74611.01417935209
 30
0.0
 10
3954.957247317319
 20
-74604.75614119529
 30
0.0
 10
3955.328218600483
 20
-74598.52666262165
 30
0.0
  0
ELLIPSE
  5
131DE
330
1F07
100
AcDbEntity
  8
器具
100
AcDbEllipse
 10
4932.652380810441
 20
-73887.58179229991
 30
0.0
 11
-287.6457133888327
 21
639.2545130173756
 31
0.0
210
0.0
220
0.0
230
0.9999999999999998
 40
0.5510806994067967
 41
0.0
 42
6.283185307179586
  0
ELLIPSE
  5
131DF
330
1F07
100
AcDbEntity
  8
器具
100
AcDbEllipse
 10
4854.302992612998
 20
-73938.53176573542
 30
0.0
 11
-403.423742471187
 21
892.1219722743542
 31
0.0
210
0.0
220
0.0
230
1.0
 40
0.567775713781121
 41
5.948321216321043
 42
7.765553566270577
  0
ELLIPSE
  5
131E0
330
1F07
100
AcDbEntity
  8
器具
100
AcDbEllipse
 10
4381.475238084496
 20
-74169.2612711883
 30
0.0
 11
-390.8913713497782
 21
747.2341632108469
 31
0.0
210
0.0
220
0.0
230
1.0
 40
0.6392857092647501
 41
7.847545137500903
 42
8.270698032675383
  0
SPLINE
  5
131E1
330
1F07
100
AcDbEntity
  8
器具
100
AcDbSpline
210
0.0
220
0.0
230
1.0
 70
     8
 71
     3
 72
    15
 73
    11
 74
     0
 42
0.0000000001
 43
0.0000000001
 40
0.0
 40
0.0
 40
0.0
 40
0.0
 40
99.67023790342281
 40
274.5964926710696
 40
316.2445228516617
 40
403.7657380828735
 40
469.7172626731132
 40
552.7083956822498
 40
780.7184764742121
 40
887.0610292929963
 40
887.0610292929963
 40
887.0610292929963
 40
887.0610292929963
 10
4102.876153803552
 20
-74811.23125091231
 30
0.0
 10
4123.398379101623
 20
-74832.45081710929
 30
0.0
 10
4179.938136678294
 20
-74890.91178375552
 30
0.0
 10
4244.514361422837
 20
-74956.42063154288
 30
0.0
 10
4323.193687972872
 20
-75007.90014066841
 30
0.0
 10
4322.516063743854
 20
-75072.62489671869
 30
0.0
 10
4334.484217234313
 20
-75142.39622040635
 30
0.0
 10
4427.182843817348
 20
-75218.8724768253
 30
0.0
 10
4556.033953271528
 20
-75221.54480956403
 30
0.0
 10
4654.744778036088
 20
-75224.96147036956
 30
0.0
 10
4685.997310031435
 20
-75226.08852453703
 30
0.0
  0
SPLINE
  5
131E2
330
1F07
100
AcDbEntity
  8
器具
100
AcDbSpline
210
0.0
220
0.0
230
1.0
 70
     8
 71
     3
 72
    13
 73
     9
 74
     0
 42
0.0000000001
 43
0.0000000001
 40
0.0
 40
0.0
 40
0.0
 40
0.0
 40
77.17846705080295
 40
212.7691683788643
 40
295.049059823088
 40
370.6621931035983
 40
505.0961645160037
 40
580.3147949341417
 40
580.3147949341417
 40
580.3147949341417
 40
580.3147949341417
 10
4377.796926132625
 20
-74830.48901410015
 30
0.0
 10
4391.255933314118
 20
-74849.03877210983
 30
0.0
 10
4428.360346949477
 20
-74900.17760313567
 30
0.0
 10
4491.990796972396
 20
-74957.7203183339
 30
0.0
 10
4554.658161460692
 20
-75024.59398429529
 30
0.0
 10
4551.013171685017
 20
-75116.03994549234
 30
0.0
 10
4611.741155430838
 20
-75186.02642490724
 30
0.0
 10
4665.865378234006
 20
-75216.66079469348
 30
0.0
 10
4685.997310030786
 20
-75226.08852453728
 30
0.0
  0
ELLIPSE
  5
131E3
330
1F07
100
AcDbEntity
  8
器具
100
AcDbEllipse
 10
4913.269648020139
 20
-73897.2421482386
 30
0.0
 11
-384.2130880677966
 21
849.6399735946225
 31
0.0
210
0.0
220
0.0
230
1.0
 40
0.5677757137811207
 41
0.0
 42
6.283185307179586
  0
LINE
  5
131E7
330
1F07
100
AcDbEntity
  8
器具
100
AcDbLine
 10
4102.876153803552
 20
-74097.42768392672
 30
0.0
 11
4102.876153803552
 21
-74811.23125091245
 31
0.0
  0
LINE
  5
131EA
330
1F07
100
AcDbEntity
  8
器具
100
AcDbLine
 10
3955.328218600536
 20
-74598.52666262167
 30
0.0
 11
3958.19527723399
 21
-74513.45753297907
 31
0.0
  0
LINE
  5
131EB
330
1F07
100
AcDbEntity
  8
器具
100
AcDbLine
 10
4322.269608657439
 20
-75119.58127498903
 30
0.0
 11
4343.629044490379
 21
-75125.02687763273
 31
0.0
  0
CIRCLE
  5
131EC
330
1F07
100
AcDbEntity
  8
器具
100
AcDbCircle
 10
4219.699618696976
 20
-74233.55799410494
 30
0.0
 40
61.5479813504098
  0
LINE
  5
131ED
330
1F07
100
AcDbEntity
  8
器具
100
AcDbLine
 10
3865.556280634454
 20
-74339.72079864003
 30
0.0
 11
4102.876153803552
 21
-74253.87384268772
 31
0.0
  0
LINE
  5
131EE
330
1F07
100
AcDbEntity
  8
器具
100
AcDbLine
 10
4102.876153803552
 20
-74326.03866250996
 30
0.0
 11
3901.273057587917
 21
-74414.33782562885
 31
0.0
  0
LINE
  5
131EF
330
1F07
100
AcDbEntity
  8
器具
100
AcDbLine
 10
3809.76914861134
 20
-73632.42845166815
 30
0.0
 11
4128.344701707184
 21
-73496.5730053171
 31
0.0
  0
LINE
  5
131F0
330
1F07
100
AcDbEntity
  8
器具
100
AcDbLine
 10
4121.60325778636
 20
-73560.60285521194
 30
0.0
 11
3791.306313638793
 21
-73685.96573479376
 31
0.0
  0
LINE
  5
131F1
330
1F07
100
AcDbEntity
  8
器具
100
AcDbLine
 10
4128.344701707184
 20
-73496.5730053171
 30
0.0
 11
4121.60325778636
 21
-73560.60285521194
 31
0.0
  0
LINE
  5
131F2
330
1F07
100
AcDbEntity
  8
器具
100
AcDbLine
 10
4249.378916054101
 20
-73286.78608727165
 30
0.0
 11
3949.313555059532
 21
-73445.77188070789
 31
0.0
  0
LINE
  5
131F3
330
1F07
100
AcDbEntity
  8
器具
100
AcDbLine
 10
4377.796926132679
 20
-74230.54329515256
 30
0.0
 11
4377.796926132679
 21
-74830.48901410018
 31
0.0
  0
LINE
  5
131F8
330
1F07
100
AcDbEntity
  8
器具
100
AcDbLine
 10
4552.235750999922
 20
-74954.04748419525
 30
0.0
 11
4947.340938980445
 21
-74824.4601015872
 31
0.0
  0
LINE
  5
131F9
330
1F07
100
AcDbEntity
  8
器具
100
AcDbLine
 10
4765.077434010121
 20
-74778.30920899577
 30
0.0
 11
4731.034225245157
 21
-74755.41403025001
 31
0.0
  0
LINE
  5
131FA
330
1F07
100
AcDbEntity
  8
器具
100
AcDbLine
 10
4749.905444408916
 20
-75024.95026445025
 30
0.0
 11
4749.905444408916
 21
-75072.24078907924
 31
0.0
  0
LINE
  5
131FB
330
1F07
100
AcDbEntity
  8
器具
100
AcDbLine
 10
4451.371589432151
 20
-74919.60629683211
 30
0.0
 11
4765.077434010121
 21
-74778.30920899577
 31
0.0
  0
LINE
  5
131FC
330
1F07
100
AcDbEntity
  8
器具
100
AcDbLine
 10
4426.138977534956
 20
-74892.74271360446
 30
0.0
 11
4731.034225245157
 21
-74755.41403025001
 31
0.0
  0
LINE
  5
131FD
330
1F07
100
AcDbEntity
  8
器具
100
AcDbLine
 10
4888.508183723473
 20
-75024.95026445025
 30
0.0
 11
4888.508183723473
 21
-75072.24078907924
 31
0.0
  0
LINE
  5
152FB
330
1F07
100
AcDbEntity
  8
器具
  6
Continuous
100
AcDbLine
 10
5177.822232763338
 20
-74964.50487696237
 30
0.0
 11
5321.042104514432
 21
-74968.6976641381
 31
0.0
  0
LINE
  5
152FC
330
1F07
100
AcDbEntity
  8
器具
  6
Continuous
100
AcDbLine
 10
5321.042104514432
 20
-74968.6976641381
 30
0.0
 11
5372.825613729605
 21
-74978.28201273192
 31
0.0
  0
LINE
  5
152FD
330
1F07
100
AcDbEntity
  8
器具
  6
Continuous
100
AcDbLine
 10
5372.825613729605
 20
-74978.28201273192
 30
0.0
 11
5430.362781867324
 21
-74999.36761468067
 31
0.0
  0
LINE
  5
152FE
330
1F07
100
AcDbEntity
  8
器具
  6
Continuous
100
AcDbLine
 10
5430.362781867324
 20
-74999.36761468067
 30
0.0
 11
5497.489598635644
 21
-75022.37007758778
 31
0.0
  0
LINE
  5
152FF
330
1F07
100
AcDbEntity
  8
器具
  6
Continuous
100
AcDbLine
 10
5497.489598635644
 20
-75022.37007758778
 30
0.0
 11
5545.125514986054
 21
-75057.60377003648
 31
0.0
  0
LINE
  5
15300
330
1F07
100
AcDbEntity
  8
器具
  6
Continuous
100
AcDbLine
 10
5545.125514986054
 20
-75057.60377003648
 30
0.0
 11
5562.615671314044
 21
-75083.15254231391
 31
0.0
  0
LINE
  5
15301
330
1F07
100
AcDbEntity
  8
器具
  6
Continuous
100
AcDbLine
 10
5562.615671314044
 20
-75083.15254231391
 30
0.0
 11
5578.760492232823
 21
-75130.21601025239
 31
0.0
  0
LINE
  5
15302
330
1F07
100
AcDbEntity
  8
器具
  6
Continuous
100
AcDbLine
 10
5578.760492232823
 20
-75130.21601025239
 30
0.0
 11
5565.306486861079
 21
-75169.21150017045
 31
0.0
  0
LINE
  5
15303
330
1F07
100
AcDbEntity
  8
器具
  6
Continuous
100
AcDbLine
 10
5565.306486861079
 20
-75169.21150017045
 30
0.0
 11
5516.872168834388
 21
-75231.06634875346
 31
0.0
  0
LINE
  5
15304
330
1F07
100
AcDbEntity
  8
器具
  6
Continuous
100
AcDbLine
 10
5516.872168834388
 20
-75231.06634875346
 30
0.0
 11
5425.385163875223
 21
-75307.71262178385
 31
0.0
  0
LINE
  5
15305
330
1F07
100
AcDbEntity
  8
器具
  6
Continuous
100
AcDbLine
 10
5425.385163875223
 20
-75307.71262178385
 30
0.0
 11
5339.134626069642
 21
-75371.16820542449
 31
0.0
  0
LINE
  5
15306
330
1F07
100
AcDbEntity
  8
器具
  6
Continuous
100
AcDbLine
 10
5339.134626069642
 20
-75371.16820542449
 30
0.0
 11
5227.466649235455
 21
-75423.61036918038
 31
0.0
  0
LINE
  5
15307
330
1F07
100
AcDbEntity
  8
器具
  6
Continuous
100
AcDbLine
 10
5227.466649235455
 20
-75423.61036918038
 30
0.0
 11
5014.806830445556
 21
-75489.62452701775
 31
0.0
  0
LINE
  5
15308
330
1F07
100
AcDbEntity
  8
器具
  6
Continuous
100
AcDbLine
 10
5014.806830445556
 20
-75489.62452701775
 30
0.0
 11
4939.464574040273
 21
-75508.44989667204
 31
0.0
  0
LINE
  5
15309
330
1F07
100
AcDbEntity
  8
器具
  6
Continuous
100
AcDbLine
 10
4939.464574040273
 20
-75508.44989667204
 30
0.0
 11
4843.941345760114
 21
-75511.13926648173
 31
0.0
  0
LINE
  5
15312
330
1F07
100
AcDbEntity
  8
器具
  6
Continuous
100
AcDbLine
 10
4292.32062409052
 20
-75111.026696616
 30
0.0
 11
4095.439665637928
 21
-75234.25130515653
 31
0.0
  0
LINE
  5
15313
330
1F07
100
AcDbEntity
  8
器具
  6
Continuous
100
AcDbLine
 10
4095.439665637928
 20
-75234.25130515653
 30
0.0
 11
4027.077652802057
 21
-75289.50246458254
 31
0.0
  0
LINE
  5
15314
330
1F07
100
AcDbEntity
  8
器具
  6
Continuous
100
AcDbLine
 10
4027.077652802057
 20
-75289.50246458254
 30
0.0
 11
3993.587332942509
 21
-75331.50682303836
 31
0.0
  0
LINE
  5
15315
330
1F07
100
AcDbEntity
  8
器具
  6
Continuous
100
AcDbLine
 10
3993.587332942509
 20
-75331.50682303836
 30
0.0
 11
3971.917164285248
 21
-75375.4801241615
 31
0.0
  0
LINE
  5
15316
330
1F07
100
AcDbEntity
  8
器具
  6
Continuous
100
AcDbLine
 10
3971.917164285248
 20
-75375.4801241615
 30
0.0
 11
3969.743540506586
 21
-75389.87256538461
 31
0.0
  0
LINE
  5
15317
330
1F07
100
AcDbEntity
  8
器具
  6
Continuous
100
AcDbLine
 10
3969.743540506586
 20
-75417.30069067243
 30
0.0
 11
3980.453903971617
 21
-75441.76826946052
 31
0.0
  0
LINE
  5
15318
330
1F07
100
AcDbEntity
  8
器具
  6
Continuous
100
AcDbLine
 10
3980.453903971617
 20
-75441.76826946052
 30
0.0
 11
4012.63080133276
 21
-75478.52205573236
 31
0.0
  0
LINE
  5
15319
330
1F07
100
AcDbEntity
  8
器具
  6
Continuous
100
AcDbLine
 10
4012.63080133276
 20
-75478.52205573236
 30
0.0
 11
4071.530165894929
 21
-75510.34857940473
 31
0.0
  0
LINE
  5
1531A
330
1F07
100
AcDbEntity
  8
器具
  6
Continuous
100
AcDbLine
 10
4071.530165894929
 20
-75510.34857940473
 30
0.0
 11
4127.005875810765
 21
-75535.55122076014
 31
0.0
  0
LINE
  5
1531B
330
1F07
100
AcDbEntity
  8
器具
  6
Continuous
100
AcDbLine
 10
4127.005875810765
 20
-75535.55122076014
 30
0.0
 11
4207.401733328155
 21
-75550.47606899773
 31
0.0
  0
LINE
  5
1531C
330
1F07
100
AcDbEntity
  8
器具
  6
Continuous
100
AcDbLine
 10
4207.401733328155
 20
-75550.47606899773
 30
0.0
 11
4293.554650916006
 21
-75552.13532479824
 31
0.0
  0
LINE
  5
1531D
330
1F07
100
AcDbEntity
  8
器具
  6
Continuous
100
AcDbLine
 10
4293.554650916006
 20
-75552.13532479824
 30
0.0
 11
4344.843908028873
 21
-75551.3085002868
 31
0.0
  0
LINE
  5
1531E
330
1F07
100
AcDbEntity
  8
器具
  6
Continuous
100
AcDbLine
 10
4344.843908028873
 20
-75551.3085002868
 30
0.0
 11
4563.291831421536
 21
-75415.6941245825
 31
0.0
  0
LINE
  5
1531F
330
1F07
100
AcDbEntity
  8
器具
  6
Continuous
100
AcDbLine
 10
4563.291831421536
 20
-75415.6941245825
 30
0.0
 11
4631.126014852347
 21
-75378.48816044294
 31
0.0
  0
LINE
  5
15320
330
1F07
100
AcDbEntity
  8
器具
  6
Continuous
100
AcDbLine
 10
4631.126014852347
 20
-75378.48816044294
 30
0.0
 11
4662.489313913178
 21
-75368.33297178574
 31
0.0
  0
LINE
  5
15321
330
1F07
100
AcDbEntity
  8
器具
  6
Continuous
100
AcDbLine
 10
4662.489313913178
 20
-75368.33297178574
 30
0.0
 11
4678.737906063935
 21
-75366.01299226579
 31
0.0
  0
LINE
  5
15322
330
1F07
100
AcDbEntity
  8
器具
  6
Continuous
100
AcDbLine
 10
4678.737906063935
 20
-75366.01299226579
 30
0.0
 11
4703.691124413061
 21
-75365.43299738526
 31
0.0
  0
LINE
  5
15323
330
1F07
100
AcDbEntity
  8
器具
  6
Continuous
100
AcDbLine
 10
4703.691124413061
 20
-75365.43299738526
 30
0.0
 11
4729.224636702282
 21
-75371.23294618623
 31
0.0
  0
LINE
  5
15324
330
1F07
100
AcDbEntity
  8
器具
  6
Continuous
100
AcDbLine
 10
4729.224636702282
 20
-75371.23294618623
 30
0.0
 11
4740.830732601872
 21
-75380.51282046439
 31
0.0
  0
LINE
  5
15325
330
1F07
100
AcDbEntity
  8
器具
  6
Continuous
100
AcDbLine
 10
4740.830732601872
 20
-75380.51282046439
 30
0.0
 11
4843.941345760114
 21
-75511.13926648173
 31
0.0
  0
LINE
  5
15326
330
1F07
100
AcDbEntity
  8
器具
  6
Continuous
100
AcDbLine
 10
5574.975586741882
 20
-75141.18629306762
 30
0.0
 11
5316.660773100057
 21
-75154.68565301828
 31
0.0
  0
LINE
  5
15327
330
1F07
100
AcDbEntity
  8
器具
  6
Continuous
100
AcDbLine
 10
5316.660773100057
 20
-75154.68565301828
 30
0.0
 11
5298.329157994739
 21
-75159.2762899362
 31
0.0
  0
LINE
  5
15328
330
1F07
100
AcDbEntity
  8
器具
  6
Continuous
100
AcDbLine
 10
5298.329157994739
 20
-75159.2762899362
 30
0.0
 11
5291.078197424897
 21
-75165.61746800471
 31
0.0
  0
LINE
  5
15329
330
1F07
100
AcDbEntity
  8
器具
  6
Continuous
100
AcDbLine
 10
5291.078197424897
 20
-75165.61746800471
 30
0.0
 11
5285.186755778814
 21
-75178.75274666018
 31
0.0
  0
LINE
  5
1532A
330
1F07
100
AcDbEntity
  8
器具
  6
Continuous
100
AcDbLine
 10
5285.186755778814
 20
-75178.75274666018
 30
0.0
 11
5288.131282581528
 21
-75215.62160328624
 31
0.0
  0
LINE
  5
1532B
330
1F07
100
AcDbEntity
  8
器具
  6
Continuous
100
AcDbLine
 10
5288.131282581528
 20
-75215.62160328624
 30
0.0
 11
5364.065999419882
 21
-75352.82588678906
 31
0.0
  0
LINE
  5
1532C
330
1F07
100
AcDbEntity
  8
器具
  6
Continuous
100
AcDbLine
 10
5574.975586741882
 20
-75141.18629306762
 30
0.0
 11
5370.03283607264
 21
-75217.73421963425
 31
0.0
  0
LINE
  5
1532D
330
1F07
100
AcDbEntity
  8
器具
  6
Continuous
100
AcDbLine
 10
5314.264482597722
 20
-75216.71829778126
 30
0.0
 11
5315.388236756306
 21
-75195.94019255188
 31
0.0
  0
LINE
  5
1532E
330
1F07
100
AcDbEntity
  8
器具
  6
Continuous
100
AcDbLine
 10
5315.388236756306
 20
-75195.94019255188
 30
0.0
 11
5319.883181025894
 21
-75183.30488078394
 31
0.0
  0
LINE
  5
1532F
330
1F07
100
AcDbEntity
  8
器具
  6
Continuous
100
AcDbLine
 10
5319.883181025894
 20
-75183.30488078394
 30
0.0
 11
5326.906626425861
 21
-75179.3738725123
 31
0.0
  0
LINE
  5
15330
330
1F07
100
AcDbEntity
  8
器具
  6
Continuous
100
AcDbLine
 10
5326.906626425861
 20
-75179.3738725123
 30
0.0
 11
5336.739421040504
 21
-75178.53154175546
 31
0.0
  0
LINE
  5
15331
330
1F07
100
AcDbEntity
  8
器具
  6
Continuous
100
AcDbLine
 10
5336.739421040504
 20
-75178.53154175546
 30
0.0
 11
5353.033747793002
 21
-75184.70880918049
 31
0.0
  0
LINE
  5
15332
330
1F07
100
AcDbEntity
  8
器具
  6
Continuous
100
AcDbLine
 10
5353.033747793002
 20
-75184.70880918049
 30
0.0
 11
5360.338113641426
 21
-75193.69393339855
 31
0.0
  0
LINE
  5
15333
330
1F07
100
AcDbEntity
  8
器具
  6
Continuous
100
AcDbLine
 10
5360.338113641426
 20
-75193.69393339855
 30
0.0
 11
5367.923399938606
 21
-75204.92531677001
 31
0.0
  0
LINE
  5
15334
330
1F07
100
AcDbEntity
  8
器具
  6
Continuous
100
AcDbLine
 10
5367.923399938606
 20
-75204.92531677001
 30
0.0
 11
5367.361486676642
 21
-75213.62966406917
 31
0.0
  0
LINE
  5
15335
330
1F07
100
AcDbEntity
  8
器具
  6
Continuous
100
AcDbLine
 10
5367.361486676642
 20
-75213.62966406917
 30
0.0
 11
5356.966851165822
 21
-75221.4916368087
 31
0.0
  0
LINE
  5
15336
330
1F07
100
AcDbEntity
  8
器具
  6
Continuous
100
AcDbLine
 10
5356.966851165822
 20
-75221.4916368087
 30
0.0
 11
5347.414976999782
 21
-75226.26497583717
 31
0.0
  0
LINE
  5
15337
330
1F07
100
AcDbEntity
  8
器具
  6
Continuous
100
AcDbLine
 10
5347.414976999782
 20
-75226.26497583717
 30
0.0
 11
5338.144095647251
 21
-75226.54575275608
 31
0.0
  0
LINE
  5
15338
330
1F07
100
AcDbEntity
  8
器具
  6
Continuous
100
AcDbLine
 10
5338.144095647251
 20
-75226.54575275608
 30
0.0
 11
5314.264482597722
 21
-75216.71829778126
 31
0.0
  0
LINE
  5
15339
330
1F07
100
AcDbEntity
  8
器具
  6
Continuous
100
AcDbLine
 10
5314.264482597722
 20
-75216.71829778126
 30
0.0
 11
5314.264482597722
 21
-75262.84094027882
 31
0.0
  0
LINE
  5
1533A
330
1F07
100
AcDbEntity
  8
器具
  6
Continuous
100
AcDbLine
 10
5367.923399938606
 20
-75204.92531677001
 30
0.0
 11
5367.923399938606
 21
-75282.14120338019
 31
0.0
  0
LINE
  5
1533B
330
1F07
100
AcDbEntity
  8
器具
  6
Continuous
100
AcDbLine
 10
5367.923399938606
 20
-75282.14120338019
 30
0.0
 11
5357.491351786537
 21
-75285.25261462696
 31
0.0
  0
LINE
  5
1533C
330
1F07
100
AcDbEntity
  8
器具
  6
Continuous
100
AcDbLine
 10
5357.491351786537
 20
-75285.25261462696
 30
0.0
 11
5342.836740758144
 21
-75286.47318386887
 31
0.0
  0
LINE
  5
1533D
330
1F07
100
AcDbEntity
  8
器具
  6
Continuous
100
AcDbLine
 10
5342.836740758144
 20
-75286.47318386887
 30
0.0
 11
5335.265276152496
 21
-75285.74084232448
 31
0.0
  0
LINE
  5
1533E
330
1F07
100
AcDbEntity
  8
器具
  6
Continuous
100
AcDbLine
 10
5335.265276152496
 20
-75285.74084232448
 30
0.0
 11
5325.947064297846
 21
-75283.9498653973
 31
0.0
  0
LINE
  5
1533F
330
1F07
100
AcDbEntity
  8
器具
  6
Continuous
100
AcDbLine
 10
4843.941345760114
 20
-75511.13926648173
 30
0.0
 11
4721.067233696291
 21
-75449.33753586406
 31
0.0
  0
LINE
  5
15340
330
1F07
100
AcDbEntity
  8
器具
  6
Continuous
100
AcDbLine
 10
4344.843908028873
 20
-75551.3085002868
 30
0.0
 11
4655.266286184961
 21
-75447.80920585584
 31
0.0
  0
LINE
  5
15341
330
1F07
100
AcDbEntity
  8
器具
  6
Continuous
100
AcDbLine
 10
4656.037695762719
 20
-75417.16752446107
 30
0.0
 11
4662.063880807003
 21
-75407.85668149602
 31
0.0
  0
LINE
  5
15342
330
1F07
100
AcDbEntity
  8
器具
  6
Continuous
100
AcDbLine
 10
4662.063880807003
 20
-75407.85668149602
 30
0.0
 11
4672.124407685925
 21
-75402.9650744991
 31
0.0
  0
LINE
  5
15343
330
1F07
100
AcDbEntity
  8
器具
  6
Continuous
100
AcDbLine
 10
4672.124407685925
 20
-75402.9650744991
 30
0.0
 11
4681.369165318436
 21
-75398.61693072094
 31
0.0
  0
LINE
  5
15344
330
1F07
100
AcDbEntity
  8
器具
  6
Continuous
100
AcDbLine
 10
4681.369165318436
 20
-75398.61693072094
 30
0.0
 11
4694.420532520274
 21
-75399.16043774256
 31
0.0
  0
LINE
  5
15345
330
1F07
100
AcDbEntity
  8
器具
  6
Continuous
100
AcDbLine
 10
4694.420532520274
 20
-75399.16043774256
 30
0.0
 11
4705.296756280708
 21
-75402.42152367468
 31
0.0
  0
LINE
  5
15346
330
1F07
100
AcDbEntity
  8
器具
  6
Continuous
100
AcDbLine
 10
4705.296756280708
 20
-75402.42152367468
 30
0.0
 11
4716.988676922652
 21
-75408.9437393419
 31
0.0
  0
LINE
  5
15347
330
1F07
100
AcDbEntity
  8
器具
  6
Continuous
100
AcDbLine
 10
4716.988676922652
 20
-75408.9437393419
 30
0.0
 11
4721.067233696291
 21
-75414.92240418477
 31
0.0
  0
LINE
  5
15348
330
1F07
100
AcDbEntity
  8
器具
  6
Continuous
100
AcDbLine
 10
4721.067233696291
 20
-75414.92240418477
 30
0.0
 11
4721.067233696291
 21
-75417.91173660573
 31
0.0
  0
LINE
  5
15349
330
1F07
100
AcDbEntity
  8
器具
  6
Continuous
100
AcDbLine
 10
4721.067233696291
 20
-75417.91173660573
 30
0.0
 11
4718.620070686266
 21
-75423.61864793728
 31
0.0
  0
LINE
  5
1534A
330
1F07
100
AcDbEntity
  8
器具
  6
Continuous
100
AcDbLine
 10
4718.620070686266
 20
-75423.61864793728
 30
0.0
 11
4715.357210794729
 21
-75429.32555926987
 31
0.0
  0
LINE
  5
1534B
330
1F07
100
AcDbEntity
  8
器具
  6
Continuous
100
AcDbLine
 10
4715.357210794729
 20
-75429.32555926987
 30
0.0
 11
4708.831491011064
 21
-75432.04313818047
 31
0.0
  0
LINE
  5
1534C
330
1F07
100
AcDbEntity
  8
器具
  6
Continuous
100
AcDbLine
 10
4708.831491011064
 20
-75432.04313818047
 30
0.0
 11
4697.13957036912
 21
-75433.13019602641
 31
0.0
  0
LINE
  5
1534D
330
1F07
100
AcDbEntity
  8
器具
  6
Continuous
100
AcDbLine
 10
4697.13957036912
 20
-75433.13019602641
 30
0.0
 11
4682.184862199947
 21
-75433.13019602641
 31
0.0
  0
LINE
  5
1534E
330
1F07
100
AcDbEntity
  8
器具
  6
Continuous
100
AcDbLine
 10
4682.184862199947
 20
-75433.13019602641
 30
0.0
 11
4673.48392661057
 21
-75431.49963115895
 31
0.0
  0
LINE
  5
1534F
330
1F07
100
AcDbEntity
  8
器具
  6
Continuous
100
AcDbLine
 10
4673.48392661057
 20
-75431.49963115895
 30
0.0
 11
4661.792005968182
 21
-75429.05380575864
 31
0.0
  0
LINE
  5
15350
330
1F07
100
AcDbEntity
  8
器具
  6
Continuous
100
AcDbLine
 10
4661.792005968182
 20
-75429.05380575864
 30
0.0
 11
4658.257198872775
 21
-75425.79271982637
 31
0.0
  0
LINE
  5
15351
330
1F07
100
AcDbEntity
  8
器具
  6
Continuous
100
AcDbLine
 10
4658.257198872775
 20
-75425.79271982637
 30
0.0
 11
4655.266286184961
 21
-75420.6293155164
 31
0.0
  0
LINE
  5
15352
330
1F07
100
AcDbEntity
  8
器具
  6
Continuous
100
AcDbLine
 10
4655.266286184961
 20
-75420.6293155164
 30
0.0
 11
4656.037695762719
 21
-75417.16752446107
 31
0.0
  0
LINE
  5
15353
330
1F07
100
AcDbEntity
  8
器具
  6
Continuous
100
AcDbLine
 10
4655.266286184961
 20
-75420.6293155164
 30
0.0
 11
4655.266286184961
 21
-75490.19935314884
 31
0.0
  0
LINE
  5
15354
330
1F07
100
AcDbEntity
  8
器具
  6
Continuous
100
AcDbLine
 10
4721.067233696291
 20
-75417.91173660573
 30
0.0
 11
4721.067233696291
 21
-75492.10162772483
 31
0.0
  0
LINE
  5
15355
330
1F07
100
AcDbEntity
  8
器具
  6
Continuous
100
AcDbLine
 10
4721.067233696291
 20
-75492.10162772483
 30
0.0
 11
4705.024809076986
 21
-75499.43910392384
 31
0.0
  0
LINE
  5
15356
330
1F07
100
AcDbEntity
  8
器具
  6
Continuous
100
AcDbLine
 10
4705.024809076986
 20
-75499.43910392384
 30
0.0
 11
4691.701494671279
 21
-75499.98261094544
 31
0.0
  0
LINE
  5
15357
330
1F07
100
AcDbEntity
  8
器具
  6
Continuous
100
AcDbLine
 10
4691.701494671279
 20
-75499.98261094544
 30
0.0
 11
4681.912914996225
 21
-75499.98261094544
 31
0.0
  0
LINE
  5
15358
330
1F07
100
AcDbEntity
  8
器具
  6
Continuous
100
AcDbLine
 10
4681.912914996225
 20
-75499.98261094544
 30
0.0
 11
4674.299623492228
 21
-75499.16735041355
 31
0.0
  0
LINE
  5
15359
330
1F07
100
AcDbEntity
  8
器具
  6
Continuous
100
AcDbLine
 10
4674.299623492228
 20
-75499.16735041355
 30
0.0
 11
4665.598687902852
 21
-75497.26503203477
 31
0.0
  0
LINE
  5
1535A
330
1F07
100
AcDbEntity
  8
器具
  6
Continuous
100
AcDbLine
 10
4665.598687902852
 20
-75497.26503203477
 30
0.0
 11
4658.257198872775
 21
-75494.81920663542
 31
0.0
  0
LINE
  5
1535B
330
1F07
100
AcDbEntity
  8
器具
  6
Continuous
100
AcDbLine
 10
4658.257198872775
 20
-75494.81920663542
 30
0.0
 11
4655.266286184961
 21
-75490.19935314884
 31
0.0
  0
LINE
  5
1535C
330
1F07
100
AcDbEntity
  8
器具
  6
Continuous
100
AcDbLine
 10
4344.843908028873
 20
-75551.3085002868
 30
0.0
 11
4386.288719782257
 21
-75557.79085526776
 31
0.0
  0
LINE
  5
1535D
330
1F07
100
AcDbEntity
  8
器具
  6
Continuous
100
AcDbLine
 10
4386.288719782257
 20
-75557.79085526776
 30
0.0
 11
4794.917109264495
 21
-75534.12775624767
 31
0.0
  0
LINE
  5
1535E
330
1F07
100
AcDbEntity
  8
器具
  6
Continuous
100
AcDbLine
 10
4794.917109264495
 20
-75534.12775624767
 30
0.0
 11
4843.941345760114
 21
-75511.13926648173
 31
0.0
  0
LINE
  5
1535F
330
1F07
100
AcDbEntity
  8
器具
  6
Continuous
100
AcDbLine
 10
5574.975586741882
 20
-75141.18629306762
 30
0.0
 11
5574.975586741882
 21
-75869.86318691766
 31
0.0
  0
LINE
  5
15360
330
1F07
100
AcDbEntity
  8
器具
  6
Continuous
100
AcDbLine
 10
5574.975586741882
 20
-75869.86318691766
 30
0.0
 11
5552.505067940735
 21
-75924.5997930738
 31
0.0
  0
LINE
  5
15361
330
1F07
100
AcDbEntity
  8
器具
  6
Continuous
100
AcDbLine
 10
5552.505067940735
 20
-75924.5997930738
 30
0.0
 11
5484.316586077405
 21
-75992.75144733577
 31
0.0
  0
LINE
  5
15362
330
1F07
100
AcDbEntity
  8
器具
  6
Continuous
100
AcDbLine
 10
5484.316586077405
 20
-75992.75144733577
 30
0.0
 11
5420.30290627235
 21
-76045.60373812576
 31
0.0
  0
LINE
  5
15363
330
1F07
100
AcDbEntity
  8
器具
  6
Continuous
100
AcDbLine
 10
5420.30290627235
 20
-76045.60373812576
 30
0.0
 11
5297.842070014533
 21
-76110.97364215285
 31
0.0
  0
LINE
  5
15364
330
1F07
100
AcDbEntity
  8
器具
  6
Continuous
100
AcDbLine
 10
5297.842070014533
 20
-76110.97364215285
 30
0.0
 11
5155.898727665083
 21
-76173.56188355162
 31
0.0
  0
LINE
  5
15365
330
1F07
100
AcDbEntity
  8
器具
  6
Continuous
100
AcDbLine
 10
5155.898727665083
 20
-76173.56188355162
 30
0.0
 11
4964.959805310485
 21
-76240.54369238948
 31
0.0
  0
LINE
  5
15366
330
1F07
100
AcDbEntity
  8
器具
  6
Continuous
100
AcDbLine
 10
4964.959805310485
 20
-76240.54369238948
 30
0.0
 11
4838.324094629786
 21
-76273.92408196178
 31
0.0
  0
LINE
  5
15367
330
1F07
100
AcDbEntity
  8
器具
  6
Continuous
100
AcDbLine
 10
4838.324094629786
 20
-76273.92408196178
 30
0.0
 11
4575.089983701599
 21
-76324.07088345636
 31
0.0
  0
LINE
  5
15368
330
1F07
100
AcDbEntity
  8
器具
  6
Continuous
100
AcDbLine
 10
4575.089983701599
 20
-76324.07088345636
 30
0.0
 11
4442.887894397965
 21
-76332.4160027506
 31
0.0
  0
LINE
  5
15369
330
1F07
100
AcDbEntity
  8
器具
  6
Continuous
100
AcDbLine
 10
4442.887894397965
 20
-76332.4160027506
 30
0.0
 11
4295.378173425286
 21
-76333.80683406521
 31
0.0
  0
LINE
  5
1536A
330
1F07
100
AcDbEntity
  8
器具
  6
Continuous
100
AcDbLine
 10
4295.378173425286
 20
-76333.80683406521
 30
0.0
 11
4171.525688238061
 21
-76317.11663927867
 31
0.0
  0
LINE
  5
1536B
330
1F07
100
AcDbEntity
  8
器具
  6
Continuous
100
AcDbLine
 10
4171.525688238061
 20
-76317.11663927867
 30
0.0
 11
4072.722015401684
 21
-76292.08132519778
 31
0.0
  0
LINE
  5
1536C
330
1F07
100
AcDbEntity
  8
器具
  6
Continuous
100
AcDbLine
 10
4072.722015401684
 20
-76292.08132519778
 30
0.0
 11
4021.232741771759
 21
-76271.21859266644
 31
0.0
  0
LINE
  5
1536D
330
1F07
100
AcDbEntity
  8
器具
  6
Continuous
100
AcDbLine
 10
4021.232741771759
 20
-76271.21859266644
 30
0.0
 11
3969.743540506586
 21
-76205.84868863837
 31
0.0
  0
LINE
  5
1536E
330
1F07
100
AcDbEntity
  8
器具
  6
Continuous
100
AcDbLine
 10
3969.743540506586
 20
-76205.84868863837
 30
0.0
 11
3969.743540506586
 21
-75389.87256538461
 31
0.0
  0
LINE
  5
1536F
330
1F07
100
AcDbEntity
  8
器具
  6
Continuous
100
AcDbLine
 10
4300.563116786936
 20
-75552.02234263195
 30
0.0
 11
4300.563116786936
 21
-76333.75794656449
 31
0.0
  0
LINE
  5
15370
330
1F07
100
AcDbEntity
  8
器具
  6
Continuous
100
AcDbLine
 10
4387.318761426653
 20
-75557.73120699601
 30
0.0
 11
4387.318761426653
 21
-76332.93994984905
 31
0.0
  0
LINE
  5
15371
330
1F07
100
AcDbEntity
  8
器具
  6
Continuous
100
AcDbLine
 10
4422.950575060099
 20
-75555.66781845955
 30
0.0
 11
4422.950575060099
 21
-76332.60398662027
 31
0.0
  0
LINE
  5
15372
330
1F07
100
AcDbEntity
  8
器具
  6
Continuous
100
AcDbLine
 10
4506.607845171624
 20
-75550.82334284996
 30
0.0
 11
4506.607845171624
 21
-76328.39374717649
 31
0.0
  0
LINE
  5
15373
330
1F07
100
AcDbEntity
  8
器具
  6
Continuous
100
AcDbLine
 10
4542.239658805071
 20
-75548.75995431353
 30
0.0
 11
4542.239658805071
 21
-76326.14452602575
 31
0.0
  0
LINE
  5
15374
330
1F07
100
AcDbEntity
  8
器具
  6
Continuous
100
AcDbLine
 10
4602.658830492091
 20
-75545.26116451032
 30
0.0
 11
4602.658830492091
 21
-76318.81894447836
 31
0.0
  0
LINE
  5
15375
330
1F07
100
AcDbEntity
  8
器具
  6
Continuous
100
AcDbLine
 10
4636.74138449632
 20
-75543.28749143525
 30
0.0
 11
4636.74138449632
 21
-76312.32612687269
 31
0.0
  0
LINE
  5
15376
330
1F07
100
AcDbEntity
  8
器具
  6
Continuous
100
AcDbLine
 10
4700.259003076432
 20
-75539.60927490172
 30
0.0
 11
4700.259003076432
 21
-76300.22585081313
 31
0.0
  0
LINE
  5
15377
330
1F07
100
AcDbEntity
  8
器具
  6
Continuous
100
AcDbLine
 10
4729.693922923255
 20
-75537.90473982603
 30
0.0
 11
4729.693922923255
 21
-76294.6184199329
 31
0.0
  0
LINE
  5
15378
330
1F07
100
AcDbEntity
  8
器具
  6
Continuous
100
AcDbLine
 10
4784.020261514485
 20
-75534.75877747293
 30
0.0
 11
4784.020261514485
 21
-76284.26910727103
 31
0.0
  0
LINE
  5
15379
330
1F07
100
AcDbEntity
  8
器具
  6
Continuous
100
AcDbLine
 10
4821.201262412248
 20
-75531.17184547804
 30
0.0
 11
4821.201262412248
 21
-76277.18602725185
 31
0.0
  0
LINE
  5
1537A
330
1F07
100
AcDbEntity
  8
器具
  6
Continuous
100
AcDbLine
 10
4902.488582836306
 20
-75509.49092215016
 30
0.0
 11
4902.488582836306
 21
-76257.01071999221
 31
0.0
  0
LINE
  5
1537B
330
1F07
100
AcDbEntity
  8
器具
  6
Continuous
100
AcDbLine
 10
4923.055838418963
 20
-75508.9118697329
 30
0.0
 11
4923.055838418963
 21
-76251.58931871356
 31
0.0
  0
LINE
  5
1537C
330
1F07
100
AcDbEntity
  8
器具
  6
Continuous
100
AcDbLine
 10
5402.23412039651
 20
-75324.74512979109
 30
0.0
 11
5402.23412039651
 21
-76055.24890171213
 31
0.0
  0
LINE
  5
1537D
330
1F07
100
AcDbEntity
  8
器具
  6
Continuous
100
AcDbLine
 10
5419.180454681367
 20
-75308.62324134101
 30
0.0
 11
5419.180454681367
 21
-76046.2029056226
 31
0.0
  0
LINE
  5
1537E
330
1F07
100
AcDbEntity
  8
器具
  6
Continuous
100
AcDbLine
 10
5449.93284945949
 20
-75287.14698393809
 30
0.0
 11
5449.93284945949
 21
-76021.14005507886
 31
0.0
  0
LINE
  5
1537F
330
1F07
100
AcDbEntity
  8
器具
  6
Continuous
100
AcDbLine
 10
5466.879183744347
 20
-75272.94963028129
 30
0.0
 11
5466.879183744347
 21
-76007.14847405795
 31
0.0
  0
LINE
  5
15380
330
1F07
100
AcDbEntity
  8
器具
  6
Continuous
100
AcDbLine
 10
5493.893353760466
 20
-75250.31761328982
 30
0.0
 11
5493.893353760466
 21
-75983.17985192458
 31
0.0
  0
LINE
  5
15381
330
1F07
100
AcDbEntity
  8
器具
  6
Continuous
100
AcDbLine
 10
5510.839688045322
 20
-75236.12025963215
 30
0.0
 11
5510.839688045322
 21
-75966.24267010716
 31
0.0
  0
LINE
  5
15382
330
1F07
100
AcDbEntity
  8
器具
  6
Continuous
100
AcDbLine
 10
5532.682085107225
 20
-75210.87570672555
 30
0.0
 11
5532.682085107225
 21
-75944.41206980437
 31
0.0
  0
LINE
  5
15383
330
1F07
100
AcDbEntity
  8
器具
  6
Continuous
100
AcDbLine
 10
5549.628419392079
 20
-75189.23375977641
 30
0.0
 11
5549.628419392079
 21
-75927.47488798604
 31
0.0
  0
LINE
  5
15384
330
1F07
100
AcDbEntity
  8
器具
  6
Continuous
100
AcDbLine
 10
5082.763165786919
 20
-76199.21800523003
 30
0.0
 11
5082.763165786919
 21
-75812.60519527146
 31
0.0
  0
LINE
  5
15385
330
1F07
100
AcDbEntity
  8
器具
  6
Continuous
100
AcDbLine
 10
5228.819655320766
 20
-75769.14618460128
 30
0.0
 11
5228.819655320766
 21
-76141.40826121525
 31
0.0
  0
LINE
  5
15386
330
1F07
100
AcDbEntity
  8
器具
  6
Continuous
100
AcDbLine
 10
5082.763165786919
 20
-75812.60519527146
 30
0.0
 11
5094.615374629659
 21
-75782.45671886559
 31
0.0
  0
LINE
  5
15387
330
1F07
100
AcDbEntity
  8
器具
  6
Continuous
100
AcDbLine
 10
5094.615374629659
 20
-75782.45671886559
 30
0.0
 11
5118.20733729729
 21
-75754.49068071232
 31
0.0
  0
LINE
  5
15388
330
1F07
100
AcDbEntity
  8
器具
  6
Continuous
100
AcDbLine
 10
5118.20733729729
 20
-75754.49068071232
 30
0.0
 11
5147.285860129502
 21
-75745.16862419213
 31
0.0
  0
LINE
  5
15389
330
1F07
100
AcDbEntity
  8
器具
  6
Continuous
100
AcDbLine
 10
5147.285860129502
 20
-75745.16862419213
 30
0.0
 11
5173.621030514452
 21
-75744.07192969616
 31
0.0
  0
LINE
  5
1538A
330
1F07
100
AcDbEntity
  8
器具
  6
Continuous
100
AcDbLine
 10
5173.621030514452
 20
-75744.07192969616
 30
0.0
 11
5191.726505382689
 21
-75744.62029884554
 31
0.0
  0
LINE
  5
1538B
330
1F07
100
AcDbEntity
  8
器具
  6
Continuous
100
AcDbLine
 10
5191.726505382689
 20
-75744.62029884554
 30
0.0
 11
5209.831980250488
 21
-75750.10381512505
 31
0.0
  0
LINE
  5
1538C
330
1F07
100
AcDbEntity
  8
器具
  6
Continuous
100
AcDbLine
 10
5209.831980250488
 20
-75750.10381512505
 30
0.0
 11
5222.999637807934
 21
-75759.42587164619
 31
0.0
  0
LINE
  5
1538D
330
1F07
100
AcDbEntity
  8
器具
  6
Continuous
100
AcDbLine
 10
5222.999637807934
 20
-75759.42587164619
 30
0.0
 11
5228.819655320766
 21
-75769.14618460128
 31
0.0
  0
LINE
  5
1538E
330
1F07
100
AcDbEntity
  8
器具
  6
Continuous
100
AcDbLine
 10
5153.178242518394
 20
-75786.75676700338
 30
0.0
 11
5171.072484313543
 21
-75786.27984046758
 31
0.0
  0
LINE
  5
1538F
330
1F07
100
AcDbEntity
  8
器具
  6
Continuous
100
AcDbLine
 10
5171.072484313543
 20
-75786.27984046758
 30
0.0
 11
5186.342196787339
 21
-75794.38750396296
 31
0.0
  0
LINE
  5
15390
330
1F07
100
AcDbEntity
  8
器具
  6
Continuous
100
AcDbLine
 10
5186.342196787339
 20
-75794.38750396296
 30
0.0
 11
5200.65756127744
 21
-75816.08744230555
 31
0.0
  0
LINE
  5
15391
330
1F07
100
AcDbEntity
  8
器具
  6
Continuous
100
AcDbLine
 10
5200.65756127744
 20
-75816.08744230555
 30
0.0
 11
5197.55585796446
 21
-75817.27971484081
 31
0.0
  0
LINE
  5
15392
330
1F07
100
AcDbEntity
  8
器具
  6
Continuous
100
AcDbLine
 10
5197.55585796446
 20
-75817.27971484081
 30
0.0
 11
5189.205240739459
 21
-75816.80283210871
 31
0.0
  0
LINE
  5
15393
330
1F07
100
AcDbEntity
  8
器具
  6
Continuous
100
AcDbLine
 10
5189.205240739459
 20
-75816.80283210871
 30
0.0
 11
5180.377449522536
 21
-75818.94895771465
 31
0.0
  0
LINE
  5
15394
330
1F07
100
AcDbEntity
  8
器具
  6
Continuous
100
AcDbLine
 10
5180.377449522536
 20
-75818.94895771465
 30
0.0
 11
5171.788245301573
 21
-75823.47971599766
 31
0.0
  0
LINE
  5
15395
330
1F07
100
AcDbEntity
  8
器具
  6
Continuous
100
AcDbLine
 10
5171.788245301573
 20
-75823.47971599766
 30
0.0
 11
5164.391976060268
 21
-75832.77965202737
 31
0.0
  0
LINE
  5
15396
330
1F07
100
AcDbEntity
  8
器具
  6
Continuous
100
AcDbLine
 10
5164.391976060268
 20
-75832.77965202737
 30
0.0
 11
5165.584911040366
 21
-75842.79502166407
 31
0.0
  0
LINE
  5
15397
330
1F07
100
AcDbEntity
  8
器具
  6
Continuous
100
AcDbLine
 10
5165.584911040366
 20
-75842.79502166407
 30
0.0
 11
5173.458354273741
 21
-75848.04112594651
 31
0.0
  0
LINE
  5
15398
330
1F07
100
AcDbEntity
  8
器具
  6
Continuous
100
AcDbLine
 10
5173.458354273741
 20
-75848.04112594651
 30
0.0
 11
5188.728066747537
 21
-75850.18729535529
 31
0.0
  0
LINE
  5
15399
330
1F07
100
AcDbEntity
  8
器具
  6
Continuous
100
AcDbLine
 10
5188.728066747537
 20
-75850.18729535529
 30
0.0
 11
5201.37332226547
 21
-75848.75651574973
 31
0.0
  0
LINE
  5
1539A
330
1F07
100
AcDbEntity
  8
器具
  6
Continuous
100
AcDbLine
 10
5201.37332226547
 20
-75848.75651574973
 30
0.0
 11
5206.860823173452
 21
-75843.51041146632
 31
0.0
  0
LINE
  5
1539B
330
1F07
100
AcDbEntity
  8
器具
  6
Continuous
100
AcDbLine
 10
5206.860823173452
 20
-75843.51041146632
 30
0.0
 11
5206.145062185424
 21
-75825.62584160354
 31
0.0
  0
LINE
  5
1539C
330
1F07
100
AcDbEntity
  8
器具
  6
Continuous
100
AcDbLine
 10
5206.145062185424
 20
-75825.62584160354
 30
0.0
 11
5203.520605229709
 21
-75818.94895771465
 31
0.0
  0
LINE
  5
1539D
330
1F07
100
AcDbEntity
  8
器具
  6
Continuous
100
AcDbLine
 10
5203.520605229709
 20
-75818.94895771465
 30
0.0
 11
5200.65756127744
 21
-75816.08744230555
 31
0.0
  0
LINE
  5
1539E
330
1F07
100
AcDbEntity
  8
器具
  6
Continuous
100
AcDbLine
 10
5153.178242518394
 20
-75786.75676700338
 30
0.0
 11
5137.192769056568
 21
-75792.00291508874
 31
0.0
  0
LINE
  5
1539F
330
1F07
100
AcDbEntity
  8
器具
  6
Continuous
100
AcDbLine
 10
5137.192769056568
 20
-75792.00291508874
 30
0.0
 11
5122.638817570359
 21
-75801.06443165475
 31
0.0
  0
LINE
  5
153A0
330
1F07
100
AcDbEntity
  8
器具
  6
Continuous
100
AcDbLine
 10
5122.638817570359
 20
-75801.06443165475
 30
0.0
 11
5117.389831293586
 21
-75813.22588309355
 31
0.0
  0
LINE
  5
153A1
330
1F07
100
AcDbEntity
  8
器具
  6
Continuous
100
AcDbLine
 10
5117.389831293586
 20
-75813.22588309355
 30
0.0
 11
5117.151244297624
 21
-75834.4488949012
 31
0.0
  0
LINE
  5
153A2
330
1F07
100
AcDbEntity
  8
器具
  6
Continuous
100
AcDbLine
 10
5117.151244297624
 20
-75834.4488949012
 30
0.0
 11
5124.786100534448
 21
-75843.03348493145
 31
0.0
  0
LINE
  5
153A3
330
1F07
100
AcDbEntity
  8
器具
  6
Continuous
100
AcDbLine
 10
5124.786100534448
 20
-75843.03348493145
 30
0.0
 11
5146.736321261521
 21
-75852.33342096116
 31
0.0
  0
LINE
  5
153A4
330
1F07
100
AcDbEntity
  8
器具
  6
Continuous
100
AcDbLine
 10
5146.736321261521
 20
-75852.33342096116
 30
0.0
 11
5164.153389064306
 21
-75856.38725270932
 31
0.0
  0
LINE
  5
153A5
330
1F07
100
AcDbEntity
  8
器具
  6
Continuous
100
AcDbLine
 10
5164.153389064306
 20
-75856.38725270932
 30
0.0
 11
5179.900275530466
 21
-75855.67186290607
 31
0.0
  0
LINE
  5
153A6
330
1F07
100
AcDbEntity
  8
器具
  6
Continuous
100
AcDbLine
 10
5179.900275530466
 20
-75855.67186290607
 30
0.0
 11
5191.113936707588
 21
-75852.810347497
 31
0.0
  0
LINE
  5
153A7
330
1F07
100
AcDbEntity
  8
器具
  6
Continuous
100
AcDbLine
 10
5191.113936707588
 20
-75852.810347497
 30
0.0
 11
5201.37332226547
 21
-75848.75651574973
 31
0.0
  0
ENDSEC
  0
SECTION
  2
OBJECTS
  0
DICTIONARY
  5
1EF5
330
0
100
AcDbDictionary
281
     1
  3
ACAD_COLOR
350
8C47
  3
ACAD_GROUP
350
1EF6
  3
ACAD_LAYOUT
350
1F02
  3
ACAD_MATERIAL
350
8C46
  3
ACAD_MLINESTYLE
350
1EFF
  3
ACAD_PLOTSETTINGS
350
1F01
  3
ACAD_PLOTSTYLENAME
350
1EF7
  3
ACAD_TABLESTYLE
350
8C48
  3
ACDBHEADERROUNDTRIPXREC
350
1542A
  3
AcDbVariableDictionary
350
4454
  0
DICTIONARY
  5
9A3A
330
1EEB
100
AcDbDictionary
280
     1
281
     1
  3
ACAD_LAYERFILTERS
360
A52F
  3
ACAD_LAYERSTATES
360
9A3B
  0
DICTIONARY
  5
980C
330
1F07
100
AcDbDictionary
280
     1
281
     1
  3
ACAD_SORTENTS
360
980D
  0
DICTIONARY
  5
8C47
102
{ACAD_REACTORS
330
1EF5
102
}
330
1EF5
100
AcDbDictionary
281
     1
  0
DICTIONARY
  5
1EF6
102
{ACAD_REACTORS
330
1EF5
102
}
330
1EF5
100
AcDbDictionary
281
     1
  0
DICTIONARY
  5
1F02
102
{ACAD_REACTORS
330
1EF5
102
}
330
1EF5
100
AcDbDictionary
281
     1
  3
Model
350
1F0A
  3
ﾚｲｱｳﾄ1
350
1F06
  0
DICTIONARY
  5
8C46
102
{ACAD_REACTORS
330
1EF5
102
}
330
1EF5
100
AcDbDictionary
281
     1
  0
DICTIONARY
  5
1EFF
102
{ACAD_REACTORS
330
1EF5
102
}
330
1EF5
100
AcDbDictionary
281
     1
  3
Standard
350
1F00
  0
DICTIONARY
  5
1F01
102
{ACAD_REACTORS
330
1EF5
102
}
330
1EF5
100
AcDbDictionary
281
     1
  0
ACDBDICTIONARYWDFLT
  5
1EF7
102
{ACAD_REACTORS
330
1EF5
102
}
330
1EF5
100
AcDbDictionary
281
     1
  3
Normal
350
1EF8
100
AcDbDictionaryWithDefault
340
1EF8
  0
DICTIONARY
  5
8C48
102
{ACAD_REACTORS
330
1EF5
102
}
330
1EF5
100
AcDbDictionary
281
     1
  3
Standard
350
8C49
  0
DICTIONARY
  5
1542A
102
{ACAD_REACTORS
330
1EF5
102
}
330
1EF5
100
AcDbDictionary
281
     1
  0
DICTIONARY
  5
4454
102
{ACAD_REACTORS
330
1EF5
102
}
330
1EF5
100
AcDbDictionary
281
     1
  3
CTABLESTYLE
350
8CAE
  3
DIMASSOC
350
8CAF
  3
PROJECTNAME
350
8CB0
  3
SORTENTS
350
4455
  0
DICTIONARY
  5
A52F
102
{ACAD_REACTORS
330
9A3A
102
}
330
9A3A
100
AcDbDictionary
280
     1
281
     1
  0
DICTIONARY
  5
9A3B
102
{ACAD_REACTORS
330
9A3A
102
}
330
9A3A
100
AcDbDictionary
281
     1
  0
SORTENTSTABLE
  5
980D
102
{ACAD_REACTORS
330
980C
102
}
330
980C
100
AcDbSortentsTable
330
1F07
331
131DC
  5
131E5
331
131E7
  5
131EF
331
131C2
  5
131CA
331
12DD5
  5
12DDD
331
131B7
  5
131BF
331
131D1
  5
131D9
331
131EB
  5
131F3
331
131AA
  5
131B2
331
131CF
  5
131D7
331
131C0
  5
131C8
331
131DA
  5
131E2
331
131B5
  5
131BD
331
12CB8
  5
12CC7
331
131CD
  5
131D5
331
131F2
  5
131FA
331
131FD
  5
13208
331
131BE
  5
131C6
331
131D8
  5
131E0
331
12CB6
  5
12CBF
331
131E3
  5
131EC
331
131F0
  5
131F8
331
131D6
  5
131DE
331
131CB
  5
131D3
331
131BC
  5
131C4
331
131C7
  5
131CF
331
131E1
  5
131EA
331
131FB
  5
13203
331
131EE
  5
131F6
331
131D4
  5
131DC
331
131C9
  5
131D1
331
131BA
  5
131C2
331
131DF
  5
131E8
331
131F9
  5
13201
331
131C5
  5
131CD
331
12F78
  5
12F88
331
131EC
  5
131F4
331
131C3
  5
131CB
331
131DD
  5
131E6
331
131B8
  5
131C0
331
131D2
  5
131DA
331
131AB
  5
131B3
331
12CB9
  5
12CCB
331
131C1
  5
131C9
331
131DB
  5
131E3
331
131B6
  5
131BE
331
131D0
  5
131D8
331
131EA
  5
131F2
331
131CE
  5
131D6
331
131F3
  5
131FB
331
131BF
  5
131C7
331
131D9
  5
131E1
331
12CB7
  5
12CC3
331
131F1
  5
131F9
331
131D7
  5
131DF
331
131CC
  5
131D4
331
131BD
  5
131C5
331
131E2
  5
131EB
331
131FC
  5
13204
331
131EF
  5
131F7
331
131D5
  5
131DD
331
131CA
  5
131D2
331
131BB
  5
131C3
331
12F79
  5
12F89
331
131C6
  5
131CE
331
131E0
  5
131E9
331
131FA
  5
13202
331
131ED
  5
131F5
331
131D3
  5
131DB
331
131C8
  5
131D0
331
131F8
  5
13200
331
131C4
  5
131CC
331
131DE
  5
131E7
331
131B9
  5
131C1
  0
LAYOUT
  5
1F0A
102
{ACAD_XDICTIONARY
360
1542D
102
}
102
{ACAD_REACTORS
330
1F02
102
}
330
1F02
100
AcDbPlotSettings
  1

  2
HP DesignJet 430 (D / A1)
  4
User270
  6

 40
4.995333194732666
 41
16.93330574035644
 42
4.995330810546875
 43
16.933349609375
 44
419.9466552734374
 45
593.8519897460937
 46
0.0
 47
0.0
 48
59336.11708285688
 49
-20537.1530523113
140
115469.3951683314
141
19749.53857783539
142
1.0
143
100.0
 70
 11936
 72
     1
 73
     1
 74
     4
  7

 75
     0
147
0.01
148
-59336.11708285688
149
20537.1530523113
100
AcDbLayout
  1
Model
 70
     1
 71
     0
 10
0.0
 20
0.0
 11
12.0
 21
9.0
 12
0.0
 22
0.0
 32
0.0
 14
0.0
 24
0.0
 34
0.0
 15
0.0
 25
0.0
 35
0.0
146
0.0
 13
0.0
 23
0.0
 33
0.0
 16
1.0
 26
0.0
 36
0.0
 17
0.0
 27
1.0
 37
0.0
 76
     0
330
1F07
  0
LAYOUT
  5
1F06
102
{ACAD_XDICTIONARY
360
1542B
102
}
102
{ACAD_REACTORS
330
1F02
102
}
330
1F02
100
AcDbPlotSettings
  1

  2
HP DesignJet 430 (D / A1)
  4

  6

 40
0.0
 41
0.0
 42
0.0
 43
0.0
 44
0.0
 45
0.0
 46
0.0
 47
0.0
 48
0.0
 49
0.0
140
0.0
141
0.0
142
1.0
143
1.0
 70
   688
 72
     0
 73
     0
 74
     5
  7

 75
    16
147
1.0
148
0.0
149
0.0
100
AcDbLayout
  1
ﾚｲｱｳﾄ1
 70
     0
 71
     1
 10
0.0
 20
0.0
 11
12.0
 21
9.0
 12
0.0
 22
0.0
 32
0.0
 14
1.000000000000000E+20
 24
1.000000000000000E+20
 34
1.000000000000000E+20
 15
-1.000000000000000E+20
 25
-1.000000000000000E+20
 35
-1.000000000000000E+20
146
0.0
 13
0.0
 23
0.0
 33
0.0
 16
1.0
 26
0.0
 36
0.0
 17
0.0
 27
1.0
 37
0.0
 76
     0
330
1F03
  0
MLINESTYLE
  5
1F00
102
{ACAD_REACTORS
330
1EFF
102
}
330
1EFF
100
AcDbMlineStyle
  2
STANDARD
 70
     0
  3

 62
   256
 51
90.0
 52
90.0
 71
     2
 49
0.5
 62
   256
  6
BYLAYER
 49
-0.5
 62
   256
  6
BYLAYER
  0
ACDBPLACEHOLDER
  5
1EF8
102
{ACAD_REACTORS
330
1EF7
102
}
330
1EF7
  0
TABLESTYLE
  5
8C49
102
{ACAD_REACTORS
330
8C48
102
}
330
8C48
100
AcDbTableStyle
  3
Standard
 70
     0
 71
     0
 40
0.06
 41
0.06
280
     0
281
     0
  7
STANDARD
140
0.18
170
     2
 62
     0
 63
     7
283
     0
274
    -2
284
     1
 64
     0
275
    -2
285
     1
 65
     0
276
    -2
286
     1
 66
     0
277
    -2
287
     1
 67
     0
278
    -2
288
     1
 68
     0
279
    -2
289
     1
 69
     0
  7
STANDARD
140
0.25
170
     5
 62
     0
 63
     7
283
     0
274
    -2
284
     1
 64
     0
275
    -2
285
     1
 65
     0
276
    -2
286
     1
 66
     0
277
    -2
287
     1
 67
     0
278
    -2
288
     1
 68
     0
279
    -2
289
     1
 69
     0
  7
STANDARD
140
0.18
170
     5
 62
     0
 63
     7
283
     0
274
    -2
284
     1
 64
     0
275
    -2
285
     1
 65
     0
276
    -2
286
     1
 66
     0
277
    -2
287
     1
 67
     0
278
    -2
288
     1
 68
     0
279
    -2
289
     1
 69
     0
  0
DICTIONARYVAR
  5
8CAE
102
{ACAD_REACTORS
330
4454
102
}
330
4454
100
DictionaryVariables
280
     0
  1
STANDARD
  0
DICTIONARYVAR
  5
8CAF
102
{ACAD_REACTORS
330
4454
102
}
330
4454
100
DictionaryVariables
280
     0
  1
1
  0
DICTIONARYVAR
  5
8CB0
102
{ACAD_REACTORS
330
4454
102
}
330
4454
100
DictionaryVariables
280
     0
  1

  0
DICTIONARYVAR
  5
4455
102
{ACAD_REACTORS
330
4454
102
}
330
4454
100
DictionaryVariables
280
     0
  1
96
  0
DICTIONARY
  5
1542D
330
1F0A
100
AcDbDictionary
280
     1
281
     1
  3
ACAD_XREC_ROUNDTRIP
360
1542E
  0
DICTIONARY
  5
1542B
330
1F06
100
AcDbDictionary
280
     1
281
     1
  3
ACAD_XREC_ROUNDTRIP
360
1542C
  0
XRECORD
  5
1542E
102
{ACAD_REACTORS
330
1542D
102
}
330
1542D
100
AcDbXrecord
280
     1
102
SHADEPLOT
 70
     0
102
SHADEPLOTRESLEVEL
 70
     2
102
SHADEPLOTCUSTOMDPI
 70
   300
  0
XRECORD
  5
1542C
102
{ACAD_REACTORS
330
1542B
102
}
330
1542B
100
AcDbXrecord
280
     1
102
SHADEPLOT
 70
     0
102
SHADEPLOTRESLEVEL
 70
     2
102
SHADEPLOTCUSTOMDPI
 70
   300
  0
ENDSEC
  0
EOF
