  0
SECTION
  2
HEADER
  9
$ACADVER
  1
AC1015
  9
$ACADMAINTVER
 70
    20
  9
$DWGCODEPAGE
  3
ANSI_932
  9
$INSBASE
 10
0.0
 20
0.0
 30
0.0
  9
$EXTMIN
 10
127294.2702136955
 20
-1889.132247019595
 30
0.0
  9
$EXTMAX
 10
133984.4226122115
 20
5396.53318568477
 30
0.0
  9
$LIMMIN
 10
0.0
 20
0.0
  9
$LIMMAX
 10
59400.0
 20
42000.0
  9
$ORTHOMODE
 70
     1
  9
$REGENMODE
 70
     1
  9
$FILLMODE
 70
     1
  9
$QTEXTMODE
 70
     0
  9
$MIRRTEXT
 70
     1
  9
$LTSCALE
 40
100.0
  9
$ATTMODE
 70
     1
  9
$TEXTSIZE
 40
300.0
  9
$TRACEWID
 40
0.05
  9
$TEXTSTYLE
  7
スタイル1
  9
$CLAYER
  8
下書き
  9
$CELTYPE
  6
ByLayer
  9
$CECOLOR
 62
   256
  9
$CELTSCALE
 40
1.0
  9
$DISPSILH
 70
     0
  9
$DIMSCALE
 40
100.0
  9
$DIMASZ
 40
2.0
  9
$DIMEXO
 40
2.0
  9
$DIMDLI
 40
0.38
  9
$DIMRND
 40
0.0
  9
$DIMDLE
 40
0.0
  9
$DIMEXE
 40
0.18
  9
$DIMTP
 40
0.0
  9
$DIMTM
 40
0.0
  9
$DIMTXT
 40
2.0
  9
$DIMCEN
 40
0.09
  9
$DIMTSZ
 40
0.0
  9
$DIMTOL
 70
     0
  9
$DIMLIM
 70
     0
  9
$DIMTIH
 70
     0
  9
$DIMTOH
 70
     1
  9
$DIMSE1
 70
     0
  9
$DIMSE2
 70
     0
  9
$DIMTAD
 70
     1
  9
$DIMZIN
 70
     0
  9
$DIMBLK
  1
Open30
  9
$DIMASO
 70
     1
  9
$DIMSHO
 70
     1
  9
$DIMPOST
  1

  9
$DIMAPOST
  1

  9
$DIMALT
 70
     0
  9
$DIMALTD
 70
     2
  9
$DIMALTF
 40
25.4
  9
$DIMLFAC
 40
1.0
  9
$DIMTOFL
 70
     0
  9
$DIMTVP
 40
0.0
  9
$DIMTIX
 70
     0
  9
$DIMSOXD
 70
     0
  9
$DIMSAH
 70
     0
  9
$DIMBLK1
  1

  9
$DIMBLK2
  1

  9
$DIMSTYLE
  2
STANDARD
  9
$DIMCLRD
 70
     0
  9
$DIMCLRE
 70
     0
  9
$DIMCLRT
 70
     0
  9
$DIMTFAC
 40
1.0
  9
$DIMGAP
 40
1.0
  9
$DIMJUST
 70
     0
  9
$DIMSD1
 70
     0
  9
$DIMSD2
 70
     0
  9
$DIMTOLJ
 70
     1
  9
$DIMTZIN
 70
     0
  9
$DIMALTZ
 70
     0
  9
$DIMALTTZ
 70
     0
  9
$DIMUPT
 70
     0
  9
$DIMDEC
 70
     1
  9
$DIMTDEC
 70
     1
  9
$DIMALTU
 70
     2
  9
$DIMALTTD
 70
     2
  9
$DIMTXSTY
  7
STANDARD
  9
$DIMAUNIT
 70
     0
  9
$DIMADEC
 70
     0
  9
$DIMALTRND
 40
0.0
  9
$DIMAZIN
 70
     0
  9
$DIMDSEP
 70
    46
  9
$DIMATFIT
 70
     3
  9
$DIMFRAC
 70
     0
  9
$DIMLDRBLK
  1
Open30
  9
$DIMLUNIT
 70
     2
  9
$DIMLWD
 70
    -2
  9
$DIMLWE
 70
    -2
  9
$DIMTMOVE
 70
     0
  9
$LUNITS
 70
     2
  9
$LUPREC
 70
     4
  9
$SKETCHINC
 40
0.1
  9
$FILLETRAD
 40
0.0
  9
$AUNITS
 70
     0
  9
$AUPREC
 70
     0
  9
$MENU
  1
acad
  9
$ELEVATION
 40
0.0
  9
$PELEVATION
 40
0.0
  9
$THICKNESS
 40
0.0
  9
$LIMCHECK
 70
     0
  9
$CHAMFERA
 40
0.0
  9
$CHAMFERB
 40
0.0
  9
$CHAMFERC
 40
0.0
  9
$CHAMFERD
 40
0.0
  9
$SKPOLY
 70
     0
  9
$TDCREATE
 40
2426945.499536991
  9
$TDUCREATE
 40
2426945.124536991
  9
$TDUPDATE
 40
2456248.604217940
  9
$TDUUPDATE
 40
2456248.229217940
  9
$TDINDWG
 40
1.7198837731
  9
$TDUSRTIMER
 40
1.7198819213
  9
$USRTIMER
 70
     1
  9
$ANGBASE
 50
0.0
  9
$ANGDIR
 70
     0
  9
$PDMODE
 70
     0
  9
$PDSIZE
 40
0.0
  9
$PLINEWID
 40
0.0
  9
$SPLFRAME
 70
     0
  9
$SPLINETYPE
 70
     6
  9
$SPLINESEGS
 70
     8
  9
$HANDSEED
  5
15262
  9
$SURFTAB1
 70
     6
  9
$SURFTAB2
 70
     6
  9
$SURFTYPE
 70
     6
  9
$SURFU
 70
     6
  9
$SURFV
 70
     6
  9
$UCSBASE
  2

  9
$UCSNAME
  2

  9
$UCSORG
 10
0.0
 20
0.0
 30
0.0
  9
$UCSXDIR
 10
1.0
 20
0.0
 30
0.0
  9
$UCSYDIR
 10
0.0
 20
1.0
 30
0.0
  9
$UCSORTHOREF
  2

  9
$UCSORTHOVIEW
 70
     0
  9
$UCSORGTOP
 10
0.0
 20
0.0
 30
0.0
  9
$UCSORGBOTTOM
 10
0.0
 20
0.0
 30
0.0
  9
$UCSORGLEFT
 10
0.0
 20
0.0
 30
0.0
  9
$UCSORGRIGHT
 10
0.0
 20
0.0
 30
0.0
  9
$UCSORGFRONT
 10
0.0
 20
0.0
 30
0.0
  9
$UCSORGBACK
 10
0.0
 20
0.0
 30
0.0
  9
$PUCSBASE
  2

  9
$PUCSNAME
  2

  9
$PUCSORG
 10
0.0
 20
0.0
 30
0.0
  9
$PUCSXDIR
 10
1.0
 20
0.0
 30
0.0
  9
$PUCSYDIR
 10
0.0
 20
1.0
 30
0.0
  9
$PUCSORTHOREF
  2

  9
$PUCSORTHOVIEW
 70
     0
  9
$PUCSORGTOP
 10
0.0
 20
0.0
 30
0.0
  9
$PUCSORGBOTTOM
 10
0.0
 20
0.0
 30
0.0
  9
$PUCSORGLEFT
 10
0.0
 20
0.0
 30
0.0
  9
$PUCSORGRIGHT
 10
0.0
 20
0.0
 30
0.0
  9
$PUCSORGFRONT
 10
0.0
 20
0.0
 30
0.0
  9
$PUCSORGBACK
 10
0.0
 20
0.0
 30
0.0
  9
$USERI1
 70
     0
  9
$USERI2
 70
     0
  9
$USERI3
 70
     0
  9
$USERI4
 70
     0
  9
$USERI5
 70
     0
  9
$USERR1
 40
0.0
  9
$USERR2
 40
0.0
  9
$USERR3
 40
0.0
  9
$USERR4
 40
0.0
  9
$USERR5
 40
0.0
  9
$WORLDVIEW
 70
     1
  9
$SHADEDGE
 70
     3
  9
$SHADEDIF
 70
    70
  9
$TILEMODE
 70
     1
  9
$MAXACTVP
 70
    16
  9
$PINSBASE
 10
0.0
 20
0.0
 30
0.0
  9
$PLIMCHECK
 70
     0
  9
$PEXTMIN
 10
1.000000000000000E+20
 20
1.000000000000000E+20
 30
1.000000000000000E+20
  9
$PEXTMAX
 10
-1.000000000000000E+20
 20
-1.000000000000000E+20
 30
-1.000000000000000E+20
  9
$PLIMMIN
 10
0.0
 20
0.0
  9
$PLIMMAX
 10
12.0
 20
9.0
  9
$UNITMODE
 70
     0
  9
$VISRETAIN
 70
     0
  9
$PLINEGEN
 70
     1
  9
$PSLTSCALE
 70
     0
  9
$TREEDEPTH
 70
  3020
  9
$CMLSTYLE
  2
Standard
  9
$CMLJUST
 70
     0
  9
$CMLSCALE
 40
1.0
  9
$PROXYGRAPHICS
 70
     1
  9
$MEASUREMENT
 70
     0
  9
$CELWEIGHT
370
    -1
  9
$ENDCAPS
280
     0
  9
$JOINSTYLE
280
     0
  9
$LWDISPLAY
290
     0
  9
$INSUNITS
 70
     0
  9
$HYPERLINKBASE
  1

  9
$STYLESHEET
  1
aclt.ctb
  9
$XEDIT
290
     1
  9
$CEPSNTYPE
380
     0
  9
$PSTYLEMODE
290
     1
  9
$FINGERPRINTGUID
  2
{8637CE02-3222-11D7-99D2-0040267E6A47}
  9
$VERSIONGUID
  2
{B3A1256D-81BD-47DC-9A32-D567889B389F}
  9
$EXTNAMES
290
     1
  9
$PSVPSCALE
 40
0.0
  9
$OLESTARTUP
290
     0
  0
ENDSEC
  0
SECTION
  2
CLASSES
  0
CLASS
  1
ACDBDICTIONARYWDFLT
  2
AcDbDictionaryWithDefault
  3
ObjectDBX Classes
 90
        0
280
     0
281
     0
  0
CLASS
  1
ACDBPLACEHOLDER
  2
AcDbPlaceHolder
  3
ObjectDBX Classes
 90
        0
280
     0
281
     0
  0
CLASS
  1
LAYOUT
  2
AcDbLayout
  3
ObjectDBX Classes
 90
        0
280
     0
281
     0
  0
CLASS
  1
DICTIONARYVAR
  2
AcDbDictionaryVar
  3
ObjectDBX Classes
 90
        0
280
     0
281
     0
  0
CLASS
  1
TABLESTYLE
  2
AcDbTableStyle
  3
ObjectDBX Classes
 90
     2047
280
     0
281
     0
  0
CLASS
  1
SORTENTSTABLE
  2
AcDbSortentsTable
  3
ObjectDBX Classes
 90
        0
280
     0
281
     0
  0
ENDSEC
  0
SECTION
  2
TABLES
  0
TABLE
  2
VPORT
  5
1EF1
330
0
100
AcDbSymbolTable
 70
     3
  0
VPORT
  5
1525C
330
1EF1
100
AcDbSymbolTableRecord
100
AcDbViewportTableRecord
  2
*Active
 70
     0
 10
0.0
 20
0.0
 11
1.0
 21
1.0
 12
132229.0401138873
 22
1153.313093299087
 13
0.0
 23
0.0
 14
1000.0
 24
1000.0
 15
1000.0
 25
1000.0
 16
0.0
 26
0.0
 36
1.0
 17
0.0
 27
0.0
 37
0.0
 40
11840.608245874
 41
1.652054794520547
 42
50.0
 43
0.0
 44
0.0
 50
0.0
 51
0.0
 71
     0
 72
   100
 73
     1
 74
     1
 75
     0
 76
     0
 77
     0
 78
     0
281
     0
 65
     1
110
0.0
120
0.0
130
0.0
111
1.0
121
0.0
131
0.0
112
0.0
122
1.0
132
0.0
 79
     0
146
0.0
  0
ENDTAB
  0
TABLE
  2
LTYPE
  5
1EEE
330
0
100
AcDbSymbolTable
 70
     8
  0
LTYPE
  5
1EFC
330
1EEE
100
AcDbSymbolTableRecord
100
AcDbLinetypeTableRecord
  2
ByBlock
 70
     0
  3

 72
    65
 73
     0
 40
0.0
  0
LTYPE
  5
1EFD
330
1EEE
100
AcDbSymbolTableRecord
100
AcDbLinetypeTableRecord
  2
ByLayer
 70
     0
  3

 72
    65
 73
     0
 40
0.0
  0
LTYPE
  5
1EFE
330
1EEE
100
AcDbSymbolTableRecord
100
AcDbLinetypeTableRecord
  2
CONTINUOUS
 70
     0
  3
Solid line
 72
    65
 73
     0
 40
0.0
  0
LTYPE
  5
1F0C
330
1EEE
100
AcDbSymbolTableRecord
100
AcDbLinetypeTableRecord
  2
HIDDEN
 70
     0
  3
__ __ __ __ __ __ __ __ __ __ __ __ __ __ __ __
 72
    65
 73
     5
 40
8.0
 49
1.0
 74
     0
 49
-2.0
 74
     0
 49
2.0
 74
     0
 49
-2.0
 74
     0
 49
1.0
 74
     0
  0
LTYPE
  5
1F0D
330
1EEE
100
AcDbSymbolTableRecord
100
AcDbLinetypeTableRecord
  2
DOT
 70
     0
  3
. . . . . . . . . . . . . . . . . . . . . . . .
 72
    65
 73
     3
 40
1.6
 49
0.4
 74
     0
 49
-0.8
 74
     0
 49
0.4
 74
     0
  0
LTYPE
  5
1F0E
330
1EEE
100
AcDbSymbolTableRecord
100
AcDbLinetypeTableRecord
  2
CENTER
 70
     0
  3
____ _ ____ _ ____ _ ____ _ ____ _ ____ _ ____ 
 72
    65
 73
     5
 40
12.0
 49
5.0
 74
     0
 49
-0.8
 74
     0
 49
0.4
 74
     0
 49
-0.8
 74
     0
 49
5.0
 74
     0
  0
LTYPE
  5
1F0F
330
1EEE
100
AcDbSymbolTableRecord
100
AcDbLinetypeTableRecord
  2
DIVIDE
 70
     0
  3
____ . . ____ . . ____ . . ____ . . ____ . . __
 72
    65
 73
     7
 40
13.2
 49
5.0
 74
     0
 49
-0.8
 74
     0
 49
0.4
 74
     0
 49
-0.8
 74
     0
 49
0.4
 74
     0
 49
-0.8
 74
     0
 49
5.0
 74
     0
  0
LTYPE
  5
BC93
330
1EEE
100
AcDbSymbolTableRecord
100
AcDbLinetypeTableRecord
  2
DASH_CENTER
 70
     0
  3
Dash_Center
 72
    65
 73
     4
 40
36.0
 49
24.0
 74
     0
 49
-3.0
 74
     0
 49
6.0
 74
     0
 49
-3.0
 74
     0
  0
LTYPE
  5
CA49
330
1EEE
100
AcDbSymbolTableRecord
100
AcDbLinetypeTableRecord
  2
STYLE_01
 70
     0
  3

 72
    65
 73
     2
 40
0.125
 49
0.0625
 74
     0
 49
-0.0625
 74
     0
  0
LTYPE
  5
CA4A
330
1EEE
100
AcDbSymbolTableRecord
100
AcDbLinetypeTableRecord
  2
STYLE_07
 70
     0
  3

 72
    65
 73
     2
 40
0.125
 49
0.03125
 74
     0
 49
-0.09375
 74
     0
  0
ENDTAB
  0
TABLE
  2
LAYER
  5
1EEB
102
{ACAD_XDICTIONARY
360
9A3A
102
}
330
0
100
AcDbSymbolTable
 70
    13
  0
LAYER
  5
1EF9
330
1EEB
100
AcDbSymbolTableRecord
100
AcDbLayerTableRecord
  2
0
 70
     0
 62
     7
  6
CONTINUOUS
370
    -3
390
1EF8
  0
LAYER
  5
4075
330
1EEB
100
AcDbSymbolTableRecord
100
AcDbLayerTableRecord
  2
記号
 70
     0
 62
     4
  6
CONTINUOUS
370
    -3
390
1EF8
  0
LAYER
  5
42A3
330
1EEB
100
AcDbSymbolTableRecord
100
AcDbLayerTableRecord
  2
Defpoints
 70
     4
 62
     7
  6
CONTINUOUS
290
     0
370
    -3
390
1EF8
  0
LAYER
  5
58FC
330
1EEB
100
AcDbSymbolTableRecord
100
AcDbLayerTableRecord
  2
リスト
 70
     0
 62
     8
  6
CONTINUOUS
370
    13
390
1EF8
  0
LAYER
  5
8CB6
330
1EEB
100
AcDbSymbolTableRecord
100
AcDbLayerTableRecord
  2
器具
 70
     0
 62
     4
  6
CONTINUOUS
370
    -3
390
1EF8
  0
LAYER
  5
8CB7
330
1EEB
100
AcDbSymbolTableRecord
100
AcDbLayerTableRecord
  2
レイヤー_1
 70
     0
 62
   160
  6
CONTINUOUS
370
    -3
390
1EF8
  0
LAYER
  5
9466
330
1EEB
100
AcDbSymbolTableRecord
100
AcDbLayerTableRecord
  2
画層1
 70
     4
 62
   160
  6
CONTINUOUS
370
    -3
390
1EF8
1001
AcAecLayerStandard
1000

1000

  0
LAYER
  5
9F35
330
1EEB
100
AcDbSymbolTableRecord
100
AcDbLayerTableRecord
  2
下書き
 70
     0
 62
     6
  6
CONTINUOUS
370
    -3
390
1EF8
1001
AcAecLayerStandard
1000

1000

  0
LAYER
  5
A81A
330
1EEB
100
AcDbSymbolTableRecord
100
AcDbLayerTableRecord
  2
007
 70
     0
 62
     1
  6
CONTINUOUS
370
    -3
390
1EF8
  0
LAYER
  5
BC94
330
1EEB
100
AcDbSymbolTableRecord
100
AcDbLayerTableRecord
  2
図面
 70
     0
 62
     5
  6
CONTINUOUS
370
    -3
390
1EF8
  0
LAYER
  5
CA4B
330
1EEB
100
AcDbSymbolTableRecord
100
AcDbLayerTableRecord
  2
1
 70
     0
 62
     8
  6
CONTINUOUS
370
    -3
390
1EF8
1001
AcAecLayerStandard
1000

1000

  0
LAYER
  5
1246F
330
1EEB
100
AcDbSymbolTableRecord
100
AcDbLayerTableRecord
  2
寸法・文字
 70
     0
 62
     4
  6
CONTINUOUS
370
    13
390
1EF8
1001
AcAecLayerStandard
1000

1000

  0
LAYER
  5
13854
330
1EEB
100
AcDbSymbolTableRecord
100
AcDbLayerTableRecord
  2
製品
 70
     0
 62
     1
  6
CONTINUOUS
370
    -3
390
1EF8
1001
AcAecLayerStandard
1000

1000

  0
ENDTAB
  0
TABLE
  2
STYLE
  5
1EEC
330
0
100
AcDbSymbolTable
 70
    12
  0
STYLE
  5
1EFA
330
1EEC
100
AcDbSymbolTableRecord
100
AcDbTextStyleTableRecord
  2
STANDARD
 70
     0
 40
280.0
 41
1.0
 50
0.0
 71
     0
 42
280.0
  3
MS Gothic.ttf
  4

1001
ACAD
1000
MS Gothic
1071
    32817
  0
STYLE
  5
1F2D
330
1EEC
100
AcDbSymbolTableRecord
100
AcDbTextStyleTableRecord
  2
ＤＨＰ平成ゴシックW5
 70
     0
 40
1000.0
 41
1.0
 50
0.0
 71
     0
 42
1000.0
  3
txt
  4
extfont
  0
STYLE
  5
1F2E
330
1EEC
100
AcDbSymbolTableRecord
100
AcDbTextStyleTableRecord
  2
TATEDRACAD
 70
     4
 40
1000.0
 41
1.0
 50
0.0
 71
     0
 42
1000.0
  3
txt
  4
extfont
  0
STYLE
  5
1F2F
330
1EEC
100
AcDbSymbolTableRecord
100
AcDbTextStyleTableRecord
  2
ＤＨＰ平成ゴシックW51
 70
     0
 40
1000.0
 41
1.0
 50
0.0
 71
     0
 42
1000.0
  3
txt
  4
extfont
  0
STYLE
  5
1F30
330
1EEC
100
AcDbSymbolTableRecord
100
AcDbTextStyleTableRecord
  2
ＪＳＰゴシック
 70
     0
 40
1000.0
 41
1.0
 50
0.0
 71
     0
 42
1000.0
  3
txt
  4
extfont
  0
STYLE
  5
1F31
330
1EEC
100
AcDbSymbolTableRecord
100
AcDbTextStyleTableRecord
  2
ＭＳ_ゴシック
 70
     0
 40
1000.0
 41
1.0
 50
0.0
 71
     0
 42
1000.0
  3
txt
  4
extfont
  0
STYLE
  5
A258
330
1EEC
100
AcDbSymbolTableRecord
100
AcDbTextStyleTableRecord
  2
スタイル1
 70
     0
 40
300.0
 41
1.0
 50
0.0
 71
     0
 42
300.0
  3
MS Gothic.ttf
  4

1001
ACAD
1000
MS Gothic
1071
    32817
  0
STYLE
  5
A547
330
1EEC
100
AcDbSymbolTableRecord
100
AcDbTextStyleTableRecord
  2
WMF-ＭＳ Ｐゴシック0
 70
     0
 40
0.0
 41
1.0
 50
0.0
 71
     0
 42
280.0
  3
MS PGothic.ttf
  4

1001
ACAD
1000
MS PGothic
1071
    32816
  0
STYLE
  5
A58D
330
1EEC
100
AcDbSymbolTableRecord
100
AcDbTextStyleTableRecord
  2
WMF-System0
 70
     0
 40
0.0
 41
1.0
 50
0.0
 71
     0
 42
280.0
  3

  4

  0
STYLE
  5
A81B
330
1EEC
100
AcDbSymbolTableRecord
100
AcDbTextStyleTableRecord
  2
ＭＳ ゴシック
 70
     0
 40
450.0
 41
0.85
 50
0.0
 71
     0
 42
450.0
  3
MS Gothic.ttf
  4

1001
ACAD
1000
MS Gothic
1071
    32817
  0
STYLE
  5
CA4C
330
1EEC
100
AcDbSymbolTableRecord
100
AcDbTextStyleTableRecord
  2
_______
 70
     0
 40
0.0
 41
1.0
 50
0.0
 71
     0
 42
0.0
  3
MS Gothic.ttf
  4
ＭＳ ゴシック
1001
ACAD
1000
ＭＳ ゴシック
1071
        0
  0
STYLE
  5
14676
330
1EEC
100
AcDbSymbolTableRecord
100
AcDbTextStyleTableRecord
  2
ヒラギノ角ゴ Pro W3
 70
     0
 40
0.0
 41
1.0
 50
0.0
 71
     0
 42
0.0
  3
MS Gothic.ttf
  4

1001
ACAD
1000
MS Gothic
1071
    32817
  0
ENDTAB
  0
TABLE
  2
VIEW
  5
1EEF
330
0
100
AcDbSymbolTable
 70
     0
  0
ENDTAB
  0
TABLE
  2
UCS
  5
1EF0
330
0
100
AcDbSymbolTable
 70
     0
  0
ENDTAB
  0
TABLE
  2
APPID
  5
1EF2
330
0
100
AcDbSymbolTable
 70
     3
  0
APPID
  5
1EFB
330
1EF2
100
AcDbSymbolTableRecord
100
AcDbRegAppTableRecord
  2
ACAD
 70
     0
  0
APPID
  5
9467
330
1EF2
100
AcDbSymbolTableRecord
100
AcDbRegAppTableRecord
  2
AcAecLayerStandard
 70
     0
  0
APPID
  5
9D2E
330
1EF2
100
AcDbSymbolTableRecord
100
AcDbRegAppTableRecord
  2
ACAD_PSEXT
 70
     0
  0
ENDTAB
  0
TABLE
  2
DIMSTYLE
  5
1EF3
330
0
100
AcDbSymbolTable
 70
     1
100
AcDbDimStyleTable
 71
     1
340
1F32
  0
DIMSTYLE
105
1F32
330
1EF3
100
AcDbSymbolTableRecord
100
AcDbDimStyleTableRecord
  2
STANDARD
 70
     0
279
     2
340
1EFA
  0
ENDTAB
  0
TABLE
  2
BLOCK_RECORD
  5
1EEA
330
0
100
AcDbSymbolTable
 70
     3
  0
BLOCK_RECORD
  5
1F07
102
{ACAD_XDICTIONARY
360
980C
102
}
330
1EEA
100
AcDbSymbolTableRecord
100
AcDbBlockTableRecord
  2
*Model_Space
340
1F0A
  0
BLOCK_RECORD
  5
1F03
330
1EEA
100
AcDbSymbolTableRecord
100
AcDbBlockTableRecord
  2
*Paper_Space
340
1F06
  0
BLOCK_RECORD
  5
429C
330
1EEA
100
AcDbSymbolTableRecord
100
AcDbBlockTableRecord
  2
_Open30
340
0
  0
BLOCK_RECORD
  5
A543
330
1EEA
100
AcDbSymbolTableRecord
100
AcDbBlockTableRecord
  2
WMF0
340
0
  0
BLOCK_RECORD
  5
1384E
330
1EEA
100
AcDbSymbolTableRecord
100
AcDbBlockTableRecord
  2
_Open
340
0
  0
ENDTAB
  0
ENDSEC
  0
SECTION
  2
BLOCKS
  0
BLOCK
  5
1F08
330
1F07
100
AcDbEntity
  8
0
100
AcDbBlockBegin
  2
*Model_Space
 70
     0
 10
0.0
 20
0.0
 30
0.0
  3
*Model_Space
  1

  0
ENDBLK
  5
1F09
330
1F07
100
AcDbEntity
  8
0
100
AcDbBlockEnd
  0
BLOCK
  5
1F04
330
1F03
100
AcDbEntity
 67
     1
  8
0
100
AcDbBlockBegin
  2
*Paper_Space
 70
     0
 10
0.0
 20
0.0
 30
0.0
  3
*Paper_Space
  1

  0
ENDBLK
  5
1F05
330
1F03
100
AcDbEntity
 67
     1
  8
0
100
AcDbBlockEnd
  0
BLOCK
  5
42A0
330
429C
100
AcDbEntity
  8
0
100
AcDbBlockBegin
  2
_Open30
 70
     0
 10
0.0
 20
0.0
 30
0.0
  3
_Open30
  1

  0
LINE
  5
429D
330
429C
100
AcDbEntity
  8
記号
  6
DOT
 62
     0
370
    -2
100
AcDbLine
 10
-1.0
 20
0.26794919
 30
0.0
 11
0.0
 21
0.0
 31
0.0
  0
LINE
  5
429E
330
429C
100
AcDbEntity
  8
記号
  6
DOT
 62
     0
370
    -2
100
AcDbLine
 10
0.0
 20
0.0
 30
0.0
 11
-1.0
 21
-0.26794919
 31
0.0
  0
LINE
  5
429F
330
429C
100
AcDbEntity
  8
記号
  6
DOT
 62
     0
370
    -2
100
AcDbLine
 10
0.0
 20
0.0
 30
0.0
 11
-1.0
 21
0.0
 31
0.0
  0
ENDBLK
  5
42A1
330
429C
100
AcDbEntity
  8
0
100
AcDbBlockEnd
  0
BLOCK
  5
A546
330
A543
100
AcDbEntity
  8
0
 62
     7
370
     0
100
AcDbBlockBegin
  2
WMF0
 70
     0
 10
0.0
 20
0.0
 30
0.0
  3
WMF0
  1

  0
TEXT
  5
A548
330
A543
100
AcDbEntity
  8
0
 62
     7
370
     0
100
AcDbText
 10
4302.31530976598
 20
-1290.694592929794
 30
0.0
 40
894.8815844313239
  1
LEDﾀﾞｳﾝﾗｲﾄ
  7
WMF-ＭＳ Ｐゴシック0
100
AcDbText
  0
TEXT
  5
A54A
330
A543
100
AcDbEntity
  8
0
 62
     7
370
     0
100
AcDbText
 10
23920.87312229885
 20
-1290.694592929794
 30
0.0
 40
894.8815844313239
  1
LEDﾀﾞｳﾝﾗｲﾄ
  7
WMF-ＭＳ Ｐゴシック0
100
AcDbText
  0
TEXT
  5
A54B
330
A543
100
AcDbEntity
  8
0
 62
     7
370
     0
100
AcDbText
 10
43539.43093483171
 20
-1290.694592929794
 30
0.0
 40
894.8815844313239
  1
LEDﾀﾞｳﾝﾗｲﾄ
  7
WMF-ＭＳ Ｐゴシック0
100
AcDbText
  0
TEXT
  5
A54C
330
A543
100
AcDbEntity
  8
0
 62
     7
370
     0
100
AcDbText
 10
63157.98874736458
 20
-1290.694592929794
 30
0.0
 40
894.8815844313239
  1
LEDﾀﾞｳﾝﾗｲﾄ
  7
WMF-ＭＳ Ｐゴシック0
100
AcDbText
  0
TEXT
  5
A54D
330
A543
100
AcDbEntity
  8
0
 62
     7
370
     0
100
AcDbText
 10
1290.694592929794
 20
-2753.481798250227
 30
0.0
 40
894.8815844313239
  1
D1
  7
WMF-ＭＳ Ｐゴシック0
100
AcDbText
  0
TEXT
  5
A54E
330
A543
100
AcDbEntity
  8
0
 62
     7
370
     0
100
AcDbText
 10
4302.31530976598
 20
-2753.481798250227
 30
0.0
 40
894.8815844313239
  1
BML-26181WW-110
  7
WMF-ＭＳ Ｐゴシック0
100
AcDbText
  0
TEXT
  5
A54F
330
A543
100
AcDbEntity
  8
0
 62
     7
370
     0
100
AcDbText
 10
20909.25240546266
 20
-2753.481798250227
 30
0.0
 40
894.8815844313239
  1
D2
  7
WMF-ＭＳ Ｐゴシック0
100
AcDbText
  0
TEXT
  5
A550
330
A543
100
AcDbEntity
  8
0
 62
     7
370
     0
100
AcDbText
 10
23920.87312229885
 20
-2753.481798250227
 30
0.0
 40
894.8815844313239
  1
BML-26187WW-110
  7
WMF-ＭＳ Ｐゴシック0
100
AcDbText
  0
TEXT
  5
A551
330
A543
100
AcDbEntity
  8
0
 62
     7
370
     0
100
AcDbText
 10
40527.81021799553
 20
-2753.481798250227
 30
0.0
 40
894.8815844313239
  1
D3
  7
WMF-ＭＳ Ｐゴシック0
100
AcDbText
  0
TEXT
  5
A552
330
A543
100
AcDbEntity
  8
0
 62
     7
370
     0
100
AcDbText
 10
43539.43093483171
 20
-2753.481798250227
 30
0.0
 40
894.8815844313239
  1
BML-26199WW-110
  7
WMF-ＭＳ Ｐゴシック0
100
AcDbText
  0
TEXT
  5
A553
330
A543
100
AcDbEntity
  8
0
 62
     7
370
     0
100
AcDbText
 10
60146.36803052839
 20
-2753.481798250227
 30
0.0
 40
894.8815844313239
  1
D4
  7
WMF-ＭＳ Ｐゴシック0
100
AcDbText
  0
TEXT
  5
A554
330
A543
100
AcDbEntity
  8
0
 62
     7
370
     0
100
AcDbText
 10
63157.98874736458
 20
-2753.481798250227
 30
0.0
 40
894.8815844313239
  1
BML-26213WL-110
  7
WMF-ＭＳ Ｐゴシック0
100
AcDbText
  0
TEXT
  5
A555
330
A543
100
AcDbEntity
  8
0
 62
     7
370
     0
100
AcDbText
 10
9637.186293875796
 20
-4216.26900357066
 30
0.0
 40
894.8815844313239
  1
LED76W  (4500K)
  7
WMF-ＭＳ Ｐゴシック0
100
AcDbText
  0
TEXT
  5
A556
330
A543
100
AcDbEntity
  8
0
 62
     7
370
     0
100
AcDbText
 10
29255.74410640866
 20
-4216.26900357066
 30
0.0
 40
894.8815844313239
  1
LED54W  (4500K)
  7
WMF-ＭＳ Ｐゴシック0
100
AcDbText
  0
TEXT
  5
A557
330
A543
100
AcDbEntity
  8
0
 62
     7
370
     0
100
AcDbText
 10
48874.30191894153
 20
-4216.26900357066
 30
0.0
 40
894.8815844313239
  1
LED32W  (4500K)
  7
WMF-ＭＳ Ｐゴシック0
100
AcDbText
  0
TEXT
  5
A558
330
A543
100
AcDbEntity
  8
0
 62
     7
370
     0
100
AcDbText
 10
68492.8597314744
 20
-4216.26900357066
 30
0.0
 40
894.8815844313239
  1
LED17W  (2900K)
  7
WMF-ＭＳ Ｐゴシック0
100
AcDbText
  0
TEXT
  5
A559
330
A543
100
AcDbEntity
  8
0
 62
     7
370
     0
100
AcDbText
 10
4302.31530976598
 20
-20823.20609926735
 30
0.0
 40
894.8815844313239
  1
 
  7
WMF-ＭＳ Ｐゴシック0
100
AcDbText
  0
TEXT
  5
A55A
330
A543
100
AcDbEntity
  8
0
 62
     7
370
     0
100
AcDbText
 10
23920.87312229885
 20
-20823.20609926735
 30
0.0
 40
894.8815844313239
  1
 
  7
WMF-ＭＳ Ｐゴシック0
100
AcDbText
  0
TEXT
  5
A55B
330
A543
100
AcDbEntity
  8
0
 62
     7
370
     0
100
AcDbText
 10
43539.43093483171
 20
-20823.20609926735
 30
0.0
 40
894.8815844313239
  1
 
  7
WMF-ＭＳ Ｐゴシック0
100
AcDbText
  0
TEXT
  5
A55C
330
A543
100
AcDbEntity
  8
0
 62
     7
370
     0
100
AcDbText
 10
63157.98874736458
 20
-20823.20609926735
 30
0.0
 40
894.8815844313239
  1
 
  7
WMF-ＭＳ Ｐゴシック0
100
AcDbText
  0
TEXT
  5
A55D
330
A543
100
AcDbEntity
  8
0
 62
     7
370
     0
100
AcDbText
 10
4302.31530976598
 20
-24006.91942849417
 30
0.0
 40
894.8815844313239
  1
LED直管型ﾗｲﾄ
  7
WMF-ＭＳ Ｐゴシック0
100
AcDbText
  0
TEXT
  5
A55E
330
A543
100
AcDbEntity
  8
0
 62
     7
370
     0
100
AcDbText
 10
23920.87312229885
 20
-24006.91942849417
 30
0.0
 40
894.8815844313239
  1
LED軒下用ﾀﾞｳﾝﾗｲﾄ
  7
WMF-ＭＳ Ｐゴシック0
100
AcDbText
  0
TEXT
  5
A55F
330
A543
100
AcDbEntity
  8
0
 62
     7
370
     0
100
AcDbText
 10
43539.43093483171
 20
-24006.91942849417
 30
0.0
 40
894.8815844313239
  1
LEDｱｳﾄﾄﾞｱｽﾎﾟｯﾄﾗｲﾄ
  7
WMF-ＭＳ Ｐゴシック0
100
AcDbText
  0
TEXT
  5
A560
330
A543
100
AcDbEntity
  8
0
 62
     7
370
     0
100
AcDbText
 10
63157.98874736458
 20
-24006.91942849417
 30
0.0
 40
894.8815844313239
  1
LEDﾀﾞｳﾝﾗｲﾄ
  7
WMF-ＭＳ Ｐゴシック0
100
AcDbText
  0
TEXT
  5
A561
330
A543
100
AcDbEntity
  8
0
 62
     7
370
     0
100
AcDbText
 10
1376.740899125113
 20
-25469.7066338146
 30
0.0
 40
894.8815844313239
  1
F1
  7
WMF-ＭＳ Ｐゴシック0
100
AcDbText
  0
TEXT
  5
A562
330
A543
100
AcDbEntity
  8
0
 62
     7
370
     0
100
AcDbText
 10
4302.31530976598
 20
-25469.7066338146
 30
0.0
 40
894.8815844313239
  1
TBJKL-22006W
  7
WMF-ＭＳ Ｐゴシック0
100
AcDbText
  0
TEXT
  5
A563
330
A543
100
AcDbEntity
  8
0
 62
     7
370
     0
100
AcDbText
 10
20479.02087448607
 20
-25469.7066338146
 30
0.0
 40
894.8815844313239
  1
OD1
  7
WMF-ＭＳ Ｐゴシック0
100
AcDbText
  0
TEXT
  5
A564
330
A543
100
AcDbEntity
  8
0
 62
     7
370
     0
100
AcDbText
 10
23920.87312229885
 20
-25469.7066338146
 30
0.0
 40
894.8815844313239
  1
BML-26187WSW-110
  7
WMF-ＭＳ Ｐゴシック0
100
AcDbText
  0
TEXT
  5
A565
330
A543
100
AcDbEntity
  8
0
 62
     7
370
     0
100
AcDbText
 10
40097.57868701893
 20
-25469.7066338146
 30
0.0
 40
894.8815844313239
  1
OS1
  7
WMF-ＭＳ Ｐゴシック0
100
AcDbText
  0
TEXT
  5
A566
330
A543
100
AcDbEntity
  8
0
 62
     7
370
     0
100
AcDbText
 10
43539.43093483171
 20
-25469.7066338146
 30
0.0
 40
894.8815844313239
  1
BGSL-20045GW-20
  7
WMF-ＭＳ Ｐゴシック0
100
AcDbText
  0
TEXT
  5
A567
330
A543
100
AcDbEntity
  8
0
 62
     7
370
     0
100
AcDbText
 10
60576.59956150499
 20
-25469.7066338146
 30
0.0
 40
894.8815844313239
  1
0
  7
WMF-ＭＳ Ｐゴシック0
100
AcDbText
  0
TEXT
  5
A568
330
A543
100
AcDbEntity
  8
0
 62
     7
370
     0
100
AcDbText
 10
63157.98874736458
 20
-25469.7066338146
 30
0.0
 40
894.8815844313239
  1
BML-26160WW-120
  7
WMF-ＭＳ Ｐゴシック0
100
AcDbText
  0
TEXT
  5
A569
330
A543
100
AcDbEntity
  8
0
 62
     7
370
     0
100
AcDbText
 10
9637.186293875796
 20
-26932.49383913503
 30
0.0
 40
894.8815844313239
  1
LED38W  (4000K)
  7
WMF-ＭＳ Ｐゴシック0
100
AcDbText
  0
TEXT
  5
A56A
330
A543
100
AcDbEntity
  8
0
 62
     7
370
     0
100
AcDbText
 10
29255.74410640866
 20
-26932.49383913503
 30
0.0
 40
894.8815844313239
  1
LED54W  (4500K)
  7
WMF-ＭＳ Ｐゴシック0
100
AcDbText
  0
TEXT
  5
A56B
330
A543
100
AcDbEntity
  8
0
 62
     7
370
     0
100
AcDbText
 10
48874.30191894153
 20
-26932.49383913503
 30
0.0
 40
894.8815844313239
  1
LED68W  (4500K)
  7
WMF-ＭＳ Ｐゴシック0
100
AcDbText
  0
TEXT
  5
A56C
330
A543
100
AcDbEntity
  8
0
 62
     7
370
     0
100
AcDbText
 10
77613.76818817828
 20
-26932.49383913503
 30
0.0
 40
894.8815844313239
  1
0
  7
WMF-ＭＳ Ｐゴシック0
100
AcDbText
  0
TEXT
  5
A56D
330
A543
100
AcDbEntity
  8
0
 62
     7
370
     0
100
AcDbText
 10
4302.31530976598
 20
-46723.14426405853
 30
0.0
 40
894.8815844313239
  1
LEDﾀﾞｳﾝﾗｲﾄ
  7
WMF-ＭＳ Ｐゴシック0
100
AcDbText
  0
TEXT
  5
A56E
330
A543
100
AcDbEntity
  8
0
 62
     7
370
     0
100
AcDbText
 10
23920.87312229885
 20
-46723.14426405853
 30
0.0
 40
894.8815844313239
  1
LEDﾀﾞｳﾝﾗｲﾄ
  7
WMF-ＭＳ Ｐゴシック0
100
AcDbText
  0
TEXT
  5
A56F
330
A543
100
AcDbEntity
  8
0
 62
     7
370
     0
100
AcDbText
 10
43539.43093483171
 20
-46723.14426405853
 30
0.0
 40
894.8815844313239
  1
LEDﾀﾞｳﾝﾗｲﾄ
  7
WMF-ＭＳ Ｐゴシック0
100
AcDbText
  0
TEXT
  5
A570
330
A543
100
AcDbEntity
  8
0
 62
     7
370
     0
100
AcDbText
 10
63157.98874736458
 20
-46723.14426405853
 30
0.0
 40
894.8815844313239
  1
LEDﾀﾞｳﾝﾗｲﾄ
  7
WMF-ＭＳ Ｐゴシック0
100
AcDbText
  0
TEXT
  5
A571
330
A543
100
AcDbEntity
  8
0
 62
     7
370
     0
100
AcDbText
 10
1720.926123906392
 20
-48185.93146937897
 30
0.0
 40
894.8815844313239
  1
0
  7
WMF-ＭＳ Ｐゴシック0
100
AcDbText
  0
TEXT
  5
A572
330
A543
100
AcDbEntity
  8
0
 62
     7
370
     0
100
AcDbText
 10
4302.31530976598
 20
-48185.93146937897
 30
0.0
 40
894.8815844313239
  1
BML-26160WW-124
  7
WMF-ＭＳ Ｐゴシック0
100
AcDbText
  0
TEXT
  5
A573
330
A543
100
AcDbEntity
  8
0
 62
     7
370
     0
100
AcDbText
 10
21339.48393643926
 20
-48185.93146937897
 30
0.0
 40
894.8815844313239
  1
0
  7
WMF-ＭＳ Ｐゴシック0
100
AcDbText
  0
TEXT
  5
A574
330
A543
100
AcDbEntity
  8
0
 62
     7
370
     0
100
AcDbText
 10
23920.87312229885
 20
-48185.93146937897
 30
0.0
 40
894.8815844313239
  1
BML-26160WW-125
  7
WMF-ＭＳ Ｐゴシック0
100
AcDbText
  0
TEXT
  5
A575
330
A543
100
AcDbEntity
  8
0
 62
     7
370
     0
100
AcDbText
 10
40958.04174897213
 20
-48185.93146937897
 30
0.0
 40
894.8815844313239
  1
0
  7
WMF-ＭＳ Ｐゴシック0
100
AcDbText
  0
TEXT
  5
A576
330
A543
100
AcDbEntity
  8
0
 62
     7
370
     0
100
AcDbText
 10
43539.43093483171
 20
-48185.93146937897
 30
0.0
 40
894.8815844313239
  1
BML-26160WW-126
  7
WMF-ＭＳ Ｐゴシック0
100
AcDbText
  0
TEXT
  5
A577
330
A543
100
AcDbEntity
  8
0
 62
     7
370
     0
100
AcDbText
 10
60576.59956150499
 20
-48185.93146937897
 30
0.0
 40
894.8815844313239
  1
0
  7
WMF-ＭＳ Ｐゴシック0
100
AcDbText
  0
TEXT
  5
A578
330
A543
100
AcDbEntity
  8
0
 62
     7
370
     0
100
AcDbText
 10
63157.98874736458
 20
-48185.93146937897
 30
0.0
 40
894.8815844313239
  1
BML-26160WW-127
  7
WMF-ＭＳ Ｐゴシック0
100
AcDbText
  0
TEXT
  5
A579
330
A543
100
AcDbEntity
  8
0
 62
     7
370
     0
100
AcDbText
 10
18758.09475057967
 20
-49648.7186746994
 30
0.0
 40
894.8815844313239
  1
0
  7
WMF-ＭＳ Ｐゴシック0
100
AcDbText
  0
TEXT
  5
A57A
330
A543
100
AcDbEntity
  8
0
 62
     7
370
     0
100
AcDbText
 10
38376.65256311254
 20
-49648.7186746994
 30
0.0
 40
894.8815844313239
  1
0
  7
WMF-ＭＳ Ｐゴシック0
100
AcDbText
  0
TEXT
  5
A57B
330
A543
100
AcDbEntity
  8
0
 62
     7
370
     0
100
AcDbText
 10
57995.21037564541
 20
-49648.7186746994
 30
0.0
 40
894.8815844313239
  1
0
  7
WMF-ＭＳ Ｐゴシック0
100
AcDbText
  0
TEXT
  5
A57C
330
A543
100
AcDbEntity
  8
0
 62
     7
370
     0
100
AcDbText
 10
77613.76818817828
 20
-49648.7186746994
 30
0.0
 40
894.8815844313239
  1
0
  7
WMF-ＭＳ Ｐゴシック0
100
AcDbText
  0
TEXT
  5
A57D
330
A543
100
AcDbEntity
  8
0
 62
     7
370
     0
100
AcDbText
 10
4302.31530976598
 20
-69439.36909962291
 30
0.0
 40
894.8815844313239
  1
LEDﾀﾞｳﾝﾗｲﾄ
  7
WMF-ＭＳ Ｐゴシック0
100
AcDbText
  0
TEXT
  5
A57E
330
A543
100
AcDbEntity
  8
0
 62
     7
370
     0
100
AcDbText
 10
23920.87312229885
 20
-69439.36909962291
 30
0.0
 40
894.8815844313239
  1
LEDﾀﾞｳﾝﾗｲﾄ
  7
WMF-ＭＳ Ｐゴシック0
100
AcDbText
  0
TEXT
  5
A57F
330
A543
100
AcDbEntity
  8
0
 62
     7
370
     0
100
AcDbText
 10
43539.43093483171
 20
-69439.36909962291
 30
0.0
 40
894.8815844313239
  1
LEDﾀﾞｳﾝﾗｲﾄ
  7
WMF-ＭＳ Ｐゴシック0
100
AcDbText
  0
TEXT
  5
A580
330
A543
100
AcDbEntity
  8
0
 62
     7
370
     0
100
AcDbText
 10
63157.98874736458
 20
-69439.36909962291
 30
0.0
 40
894.8815844313239
  1
LEDﾀﾞｳﾝﾗｲﾄ
  7
WMF-ＭＳ Ｐゴシック0
100
AcDbText
  0
TEXT
  5
A581
330
A543
100
AcDbEntity
  8
0
 62
     7
370
     0
100
AcDbText
 10
1720.926123906392
 20
-70902.15630494334
 30
0.0
 40
894.8815844313239
  1
0
  7
WMF-ＭＳ Ｐゴシック0
100
AcDbText
  0
TEXT
  5
A582
330
A543
100
AcDbEntity
  8
0
 62
     7
370
     0
100
AcDbText
 10
18758.09475057967
 20
-70902.15630494334
 30
0.0
 40
894.8815844313239
  1
0
  7
WMF-ＭＳ Ｐゴシック0
100
AcDbText
  0
TEXT
  5
A583
330
A543
100
AcDbEntity
  8
0
 62
     7
370
     0
100
AcDbText
 10
21339.48393643926
 20
-70902.15630494334
 30
0.0
 40
894.8815844313239
  1
0
  7
WMF-ＭＳ Ｐゴシック0
100
AcDbText
  0
TEXT
  5
A584
330
A543
100
AcDbEntity
  8
0
 62
     7
370
     0
100
AcDbText
 10
38376.65256311254
 20
-70902.15630494334
 30
0.0
 40
894.8815844313239
  1
0
  7
WMF-ＭＳ Ｐゴシック0
100
AcDbText
  0
TEXT
  5
A585
330
A543
100
AcDbEntity
  8
0
 62
     7
370
     0
100
AcDbText
 10
40958.04174897213
 20
-70902.15630494334
 30
0.0
 40
894.8815844313239
  1
0
  7
WMF-ＭＳ Ｐゴシック0
100
AcDbText
  0
TEXT
  5
A586
330
A543
100
AcDbEntity
  8
0
 62
     7
370
     0
100
AcDbText
 10
57995.21037564541
 20
-70902.15630494334
 30
0.0
 40
894.8815844313239
  1
0
  7
WMF-ＭＳ Ｐゴシック0
100
AcDbText
  0
TEXT
  5
A587
330
A543
100
AcDbEntity
  8
0
 62
     7
370
     0
100
AcDbText
 10
60576.59956150499
 20
-70902.15630494334
 30
0.0
 40
894.8815844313239
  1
0
  7
WMF-ＭＳ Ｐゴシック0
100
AcDbText
  0
TEXT
  5
A588
330
A543
100
AcDbEntity
  8
0
 62
     7
370
     0
100
AcDbText
 10
77613.76818817828
 20
-70902.15630494334
 30
0.0
 40
894.8815844313239
  1
0
  7
WMF-ＭＳ Ｐゴシック0
100
AcDbText
  0
TEXT
  5
A589
330
A543
100
AcDbEntity
  8
0
 62
     7
370
     0
100
AcDbText
 10
18758.09475057967
 20
-72364.94351026378
 30
0.0
 40
894.8815844313239
  1
0
  7
WMF-ＭＳ Ｐゴシック0
100
AcDbText
  0
TEXT
  5
A58A
330
A543
100
AcDbEntity
  8
0
 62
     7
370
     0
100
AcDbText
 10
38376.65256311254
 20
-72364.94351026378
 30
0.0
 40
894.8815844313239
  1
0
  7
WMF-ＭＳ Ｐゴシック0
100
AcDbText
  0
TEXT
  5
A58B
330
A543
100
AcDbEntity
  8
0
 62
     7
370
     0
100
AcDbText
 10
57995.21037564541
 20
-72364.94351026378
 30
0.0
 40
894.8815844313239
  1
0
  7
WMF-ＭＳ Ｐゴシック0
100
AcDbText
  0
TEXT
  5
A58C
330
A543
100
AcDbEntity
  8
0
 62
     7
370
     0
100
AcDbText
 10
77613.76818817828
 20
-72364.94351026378
 30
0.0
 40
894.8815844313239
  1
0
  7
WMF-ＭＳ Ｐゴシック0
100
AcDbText
  0
POLYLINE
  5
A58E
330
A543
100
AcDbEntity
  8
0
 62
     7
370
     0
100
AcDb2dPolyline
 66
     1
 10
0.0
 20
0.0
 30
0.0
  0
VERTEX
  5
A58F
330
A58E
100
AcDbEntity
  8
0
 62
     7
370
     0
100
AcDbVertex
100
AcDb2dVertex
 10
4130.22269737534
 20
-1462.787205320433
 30
0.0
  0
VERTEX
  5
A590
330
A58E
100
AcDbEntity
  8
0
 62
     7
370
     0
100
AcDbVertex
100
AcDb2dVertex
 10
19704.60411872819
 20
-1462.787205320433
 30
0.0
  0
SEQEND
  5
A591
330
A58E
100
AcDbEntity
  8
0
 62
     7
370
     0
  0
POLYLINE
  5
A592
330
A543
100
AcDbEntity
  8
0
 62
     7
370
     0
100
AcDb2dPolyline
 66
     1
 10
0.0
 20
0.0
 30
0.0
  0
VERTEX
  5
A593
330
A592
100
AcDbEntity
  8
0
 62
     7
370
     0
100
AcDbVertex
100
AcDb2dVertex
 10
23748.78050990821
 20
-1462.787205320433
 30
0.0
  0
VERTEX
  5
A594
330
A592
100
AcDbEntity
  8
0
 62
     7
370
     0
100
AcDbVertex
100
AcDb2dVertex
 10
39323.16193126106
 20
-1462.787205320433
 30
0.0
  0
SEQEND
  5
A595
330
A592
100
AcDbEntity
  8
0
 62
     7
370
     0
  0
POLYLINE
  5
A596
330
A543
100
AcDbEntity
  8
0
 62
     7
370
     0
100
AcDb2dPolyline
 66
     1
 10
0.0
 20
0.0
 30
0.0
  0
VERTEX
  5
A597
330
A596
100
AcDbEntity
  8
0
 62
     7
370
     0
100
AcDbVertex
100
AcDb2dVertex
 10
43367.33832244107
 20
-1462.787205320433
 30
0.0
  0
VERTEX
  5
A598
330
A596
100
AcDbEntity
  8
0
 62
     7
370
     0
100
AcDbVertex
100
AcDb2dVertex
 10
58941.71974379392
 20
-1462.787205320433
 30
0.0
  0
SEQEND
  5
A599
330
A596
100
AcDbEntity
  8
0
 62
     7
370
     0
  0
POLYLINE
  5
A59A
330
A543
100
AcDbEntity
  8
0
 62
     7
370
     0
100
AcDb2dPolyline
 66
     1
 10
0.0
 20
0.0
 30
0.0
  0
VERTEX
  5
A59B
330
A59A
100
AcDbEntity
  8
0
 62
     7
370
     0
100
AcDbVertex
100
AcDb2dVertex
 10
4044.176391180021
 20
-86.04630619531958
 30
0.0
  0
VERTEX
  5
A59C
330
A59A
100
AcDbEntity
  8
0
 62
     7
370
     0
100
AcDbVertex
100
AcDb2dVertex
 10
4044.176391180021
 20
-4474.407922156618
 30
0.0
  0
SEQEND
  5
A59D
330
A59A
100
AcDbEntity
  8
0
 62
     7
370
     0
  0
POLYLINE
  5
A59E
330
A543
100
AcDbEntity
  8
0
 62
     7
370
     0
100
AcDb2dPolyline
 66
     1
 10
0.0
 20
0.0
 30
0.0
  0
VERTEX
  5
A59F
330
A59E
100
AcDbEntity
  8
0
 62
     7
370
     0
100
AcDbVertex
100
AcDb2dVertex
 10
23662.73420371289
 20
-86.04630619531958
 30
0.0
  0
VERTEX
  5
A5A0
330
A59E
100
AcDbEntity
  8
0
 62
     7
370
     0
100
AcDbVertex
100
AcDb2dVertex
 10
23662.73420371289
 20
-4474.407922156618
 30
0.0
  0
SEQEND
  5
A5A1
330
A59E
100
AcDbEntity
  8
0
 62
     7
370
     0
  0
POLYLINE
  5
A5A2
330
A543
100
AcDbEntity
  8
0
 62
     7
370
     0
100
AcDb2dPolyline
 66
     1
 10
0.0
 20
0.0
 30
0.0
  0
VERTEX
  5
A5A3
330
A5A2
100
AcDbEntity
  8
0
 62
     7
370
     0
100
AcDbVertex
100
AcDb2dVertex
 10
43281.29201624575
 20
-86.04630619531958
 30
0.0
  0
VERTEX
  5
A5A4
330
A5A2
100
AcDbEntity
  8
0
 62
     7
370
     0
100
AcDbVertex
100
AcDb2dVertex
 10
43281.29201624575
 20
-4474.407922156618
 30
0.0
  0
SEQEND
  5
A5A5
330
A5A2
100
AcDbEntity
  8
0
 62
     7
370
     0
  0
POLYLINE
  5
A5A6
330
A543
100
AcDbEntity
  8
0
 62
     7
370
     0
100
AcDb2dPolyline
 66
     1
 10
0.0
 20
0.0
 30
0.0
  0
VERTEX
  5
A5A7
330
A5A6
100
AcDbEntity
  8
0
 62
     7
370
     0
100
AcDbVertex
100
AcDb2dVertex
 10
62899.84982877862
 20
-86.04630619531958
 30
0.0
  0
VERTEX
  5
A5A8
330
A5A6
100
AcDbEntity
  8
0
 62
     7
370
     0
100
AcDbVertex
100
AcDb2dVertex
 10
62899.84982877862
 20
-4474.407922156618
 30
0.0
  0
SEQEND
  5
A5A9
330
A5A6
100
AcDbEntity
  8
0
 62
     7
370
     0
  0
POLYLINE
  5
A5AA
330
A543
100
AcDbEntity
  8
0
 62
     7
370
     0
100
AcDb2dPolyline
 66
     1
 10
0.0
 20
0.0
 30
0.0
  0
VERTEX
  5
A5AB
330
A5AA
100
AcDbEntity
  8
0
 62
     7
370
     0
100
AcDbVertex
100
AcDb2dVertex
 10
4130.22269737534
 20
-24179.0120408848
 30
0.0
  0
VERTEX
  5
A5AC
330
A5AA
100
AcDbEntity
  8
0
 62
     7
370
     0
100
AcDbVertex
100
AcDb2dVertex
 10
19704.60411872819
 20
-24179.0120408848
 30
0.0
  0
SEQEND
  5
A5AD
330
A5AA
100
AcDbEntity
  8
0
 62
     7
370
     0
  0
POLYLINE
  5
A5AE
330
A543
100
AcDbEntity
  8
0
 62
     7
370
     0
100
AcDb2dPolyline
 66
     1
 10
0.0
 20
0.0
 30
0.0
  0
VERTEX
  5
A5AF
330
A5AE
100
AcDbEntity
  8
0
 62
     7
370
     0
100
AcDbVertex
100
AcDb2dVertex
 10
23748.78050990821
 20
-24179.0120408848
 30
0.0
  0
VERTEX
  5
A5B0
330
A5AE
100
AcDbEntity
  8
0
 62
     7
370
     0
100
AcDbVertex
100
AcDb2dVertex
 10
39323.16193126106
 20
-24179.0120408848
 30
0.0
  0
SEQEND
  5
A5B1
330
A5AE
100
AcDbEntity
  8
0
 62
     7
370
     0
  0
POLYLINE
  5
A5B2
330
A543
100
AcDbEntity
  8
0
 62
     7
370
     0
100
AcDb2dPolyline
 66
     1
 10
0.0
 20
0.0
 30
0.0
  0
VERTEX
  5
A5B3
330
A5B2
100
AcDbEntity
  8
0
 62
     7
370
     0
100
AcDbVertex
100
AcDb2dVertex
 10
43367.33832244107
 20
-24179.0120408848
 30
0.0
  0
VERTEX
  5
A5B4
330
A5B2
100
AcDbEntity
  8
0
 62
     7
370
     0
100
AcDbVertex
100
AcDb2dVertex
 10
58941.71974379392
 20
-24179.0120408848
 30
0.0
  0
SEQEND
  5
A5B5
330
A5B2
100
AcDbEntity
  8
0
 62
     7
370
     0
  0
POLYLINE
  5
A5B6
330
A543
100
AcDbEntity
  8
0
 62
     7
370
     0
100
AcDb2dPolyline
 66
     1
 10
0.0
 20
0.0
 30
0.0
  0
VERTEX
  5
A5B7
330
A5B6
100
AcDbEntity
  8
0
 62
     7
370
     0
100
AcDbVertex
100
AcDb2dVertex
 10
4044.176391180021
 20
-22802.27114175969
 30
0.0
  0
VERTEX
  5
A5B8
330
A5B6
100
AcDbEntity
  8
0
 62
     7
370
     0
100
AcDbVertex
100
AcDb2dVertex
 10
4044.176391180021
 20
-27190.63275772099
 30
0.0
  0
SEQEND
  5
A5B9
330
A5B6
100
AcDbEntity
  8
0
 62
     7
370
     0
  0
POLYLINE
  5
A5BA
330
A543
100
AcDbEntity
  8
0
 62
     7
370
     0
100
AcDb2dPolyline
 66
     1
 10
0.0
 20
0.0
 30
0.0
  0
VERTEX
  5
A5BB
330
A5BA
100
AcDbEntity
  8
0
 62
     7
370
     0
100
AcDbVertex
100
AcDb2dVertex
 10
23662.73420371289
 20
-22802.27114175969
 30
0.0
  0
VERTEX
  5
A5BC
330
A5BA
100
AcDbEntity
  8
0
 62
     7
370
     0
100
AcDbVertex
100
AcDb2dVertex
 10
23662.73420371289
 20
-27190.63275772099
 30
0.0
  0
SEQEND
  5
A5BD
330
A5BA
100
AcDbEntity
  8
0
 62
     7
370
     0
  0
POLYLINE
  5
A5BE
330
A543
100
AcDbEntity
  8
0
 62
     7
370
     0
100
AcDb2dPolyline
 66
     1
 10
0.0
 20
0.0
 30
0.0
  0
VERTEX
  5
A5BF
330
A5BE
100
AcDbEntity
  8
0
 62
     7
370
     0
100
AcDbVertex
100
AcDb2dVertex
 10
43281.29201624575
 20
-22802.27114175969
 30
0.0
  0
VERTEX
  5
A5C0
330
A5BE
100
AcDbEntity
  8
0
 62
     7
370
     0
100
AcDbVertex
100
AcDb2dVertex
 10
43281.29201624575
 20
-27190.63275772099
 30
0.0
  0
SEQEND
  5
A5C1
330
A5BE
100
AcDbEntity
  8
0
 62
     7
370
     0
  0
POLYLINE
  5
A5C2
330
A543
100
AcDbEntity
  8
0
 62
     7
370
     0
100
AcDb2dPolyline
 66
     1
 10
0.0
 20
0.0
 30
0.0
  0
VERTEX
  5
A5C3
330
A5C2
100
AcDbEntity
  8
0
 62
     7
370
     0
100
AcDbVertex
100
AcDb2dVertex
 10
62899.84982877862
 20
-22802.27114175969
 30
0.0
  0
VERTEX
  5
A5C4
330
A5C2
100
AcDbEntity
  8
0
 62
     7
370
     0
100
AcDbVertex
100
AcDb2dVertex
 10
62899.84982877862
 20
-27190.63275772099
 30
0.0
  0
SEQEND
  5
A5C5
330
A5C2
100
AcDbEntity
  8
0
 62
     7
370
     0
  0
POLYLINE
  5
A5C6
330
A543
100
AcDbEntity
  8
0
 62
     7
370
     0
100
AcDb2dPolyline
 66
     1
 10
0.0
 20
0.0
 30
0.0
  0
VERTEX
  5
A5C7
330
A5C6
100
AcDbEntity
  8
0
 62
     7
370
     0
100
AcDbVertex
100
AcDb2dVertex
 10
4130.22269737534
 20
-46895.23687644918
 30
0.0
  0
VERTEX
  5
A5C8
330
A5C6
100
AcDbEntity
  8
0
 62
     7
370
     0
100
AcDbVertex
100
AcDb2dVertex
 10
19704.60411872819
 20
-46895.23687644918
 30
0.0
  0
SEQEND
  5
A5C9
330
A5C6
100
AcDbEntity
  8
0
 62
     7
370
     0
  0
POLYLINE
  5
A5CA
330
A543
100
AcDbEntity
  8
0
 62
     7
370
     0
100
AcDb2dPolyline
 66
     1
 10
0.0
 20
0.0
 30
0.0
  0
VERTEX
  5
A5CB
330
A5CA
100
AcDbEntity
  8
0
 62
     7
370
     0
100
AcDbVertex
100
AcDb2dVertex
 10
23748.78050990821
 20
-46895.23687644918
 30
0.0
  0
VERTEX
  5
A5CC
330
A5CA
100
AcDbEntity
  8
0
 62
     7
370
     0
100
AcDbVertex
100
AcDb2dVertex
 10
39323.16193126106
 20
-46895.23687644918
 30
0.0
  0
SEQEND
  5
A5CD
330
A5CA
100
AcDbEntity
  8
0
 62
     7
370
     0
  0
POLYLINE
  5
A5CE
330
A543
100
AcDbEntity
  8
0
 62
     7
370
     0
100
AcDb2dPolyline
 66
     1
 10
0.0
 20
0.0
 30
0.0
  0
VERTEX
  5
A5CF
330
A5CE
100
AcDbEntity
  8
0
 62
     7
370
     0
100
AcDbVertex
100
AcDb2dVertex
 10
43367.33832244107
 20
-46895.23687644918
 30
0.0
  0
VERTEX
  5
A5D0
330
A5CE
100
AcDbEntity
  8
0
 62
     7
370
     0
100
AcDbVertex
100
AcDb2dVertex
 10
58941.71974379392
 20
-46895.23687644918
 30
0.0
  0
SEQEND
  5
A5D1
330
A5CE
100
AcDbEntity
  8
0
 62
     7
370
     0
  0
POLYLINE
  5
A5D2
330
A543
100
AcDbEntity
  8
0
 62
     7
370
     0
100
AcDb2dPolyline
 66
     1
 10
0.0
 20
0.0
 30
0.0
  0
VERTEX
  5
A5D3
330
A5D2
100
AcDbEntity
  8
0
 62
     7
370
     0
100
AcDbVertex
100
AcDb2dVertex
 10
4044.176391180021
 20
-45518.49597732406
 30
0.0
  0
VERTEX
  5
A5D4
330
A5D2
100
AcDbEntity
  8
0
 62
     7
370
     0
100
AcDbVertex
100
AcDb2dVertex
 10
4044.176391180021
 20
-49906.85759328536
 30
0.0
  0
SEQEND
  5
A5D5
330
A5D2
100
AcDbEntity
  8
0
 62
     7
370
     0
  0
POLYLINE
  5
A5D6
330
A543
100
AcDbEntity
  8
0
 62
     7
370
     0
100
AcDb2dPolyline
 66
     1
 10
0.0
 20
0.0
 30
0.0
  0
VERTEX
  5
A5D7
330
A5D6
100
AcDbEntity
  8
0
 62
     7
370
     0
100
AcDbVertex
100
AcDb2dVertex
 10
23662.73420371289
 20
-45518.49597732406
 30
0.0
  0
VERTEX
  5
A5D8
330
A5D6
100
AcDbEntity
  8
0
 62
     7
370
     0
100
AcDbVertex
100
AcDb2dVertex
 10
23662.73420371289
 20
-49906.85759328536
 30
0.0
  0
SEQEND
  5
A5D9
330
A5D6
100
AcDbEntity
  8
0
 62
     7
370
     0
  0
POLYLINE
  5
A5DA
330
A543
100
AcDbEntity
  8
0
 62
     7
370
     0
100
AcDb2dPolyline
 66
     1
 10
0.0
 20
0.0
 30
0.0
  0
VERTEX
  5
A5DB
330
A5DA
100
AcDbEntity
  8
0
 62
     7
370
     0
100
AcDbVertex
100
AcDb2dVertex
 10
43281.29201624575
 20
-45518.49597732406
 30
0.0
  0
VERTEX
  5
A5DC
330
A5DA
100
AcDbEntity
  8
0
 62
     7
370
     0
100
AcDbVertex
100
AcDb2dVertex
 10
43281.29201624575
 20
-49906.85759328536
 30
0.0
  0
SEQEND
  5
A5DD
330
A5DA
100
AcDbEntity
  8
0
 62
     7
370
     0
  0
POLYLINE
  5
A5DE
330
A543
100
AcDbEntity
  8
0
 62
     7
370
     0
100
AcDb2dPolyline
 66
     1
 10
0.0
 20
0.0
 30
0.0
  0
VERTEX
  5
A5DF
330
A5DE
100
AcDbEntity
  8
0
 62
     7
370
     0
100
AcDbVertex
100
AcDb2dVertex
 10
62899.84982877862
 20
-45518.49597732406
 30
0.0
  0
VERTEX
  5
A5E0
330
A5DE
100
AcDbEntity
  8
0
 62
     7
370
     0
100
AcDbVertex
100
AcDb2dVertex
 10
62899.84982877862
 20
-49906.85759328536
 30
0.0
  0
SEQEND
  5
A5E1
330
A5DE
100
AcDbEntity
  8
0
 62
     7
370
     0
  0
POLYLINE
  5
A5E2
330
A543
100
AcDbEntity
  8
0
 62
     7
370
     0
100
AcDb2dPolyline
 66
     1
 10
0.0
 20
0.0
 30
0.0
  0
VERTEX
  5
A5E3
330
A5E2
100
AcDbEntity
  8
0
 62
     7
370
     0
100
AcDbVertex
100
AcDb2dVertex
 10
4130.22269737534
 20
-69611.46171201355
 30
0.0
  0
VERTEX
  5
A5E4
330
A5E2
100
AcDbEntity
  8
0
 62
     7
370
     0
100
AcDbVertex
100
AcDb2dVertex
 10
19704.60411872819
 20
-69611.46171201355
 30
0.0
  0
SEQEND
  5
A5E5
330
A5E2
100
AcDbEntity
  8
0
 62
     7
370
     0
  0
POLYLINE
  5
A5E6
330
A543
100
AcDbEntity
  8
0
 62
     7
370
     0
100
AcDb2dPolyline
 66
     1
 10
0.0
 20
0.0
 30
0.0
  0
VERTEX
  5
A5E7
330
A5E6
100
AcDbEntity
  8
0
 62
     7
370
     0
100
AcDbVertex
100
AcDb2dVertex
 10
23748.78050990821
 20
-69611.46171201355
 30
0.0
  0
VERTEX
  5
A5E8
330
A5E6
100
AcDbEntity
  8
0
 62
     7
370
     0
100
AcDbVertex
100
AcDb2dVertex
 10
39323.16193126106
 20
-69611.46171201355
 30
0.0
  0
SEQEND
  5
A5E9
330
A5E6
100
AcDbEntity
  8
0
 62
     7
370
     0
  0
POLYLINE
  5
A5EA
330
A543
100
AcDbEntity
  8
0
 62
     7
370
     0
100
AcDb2dPolyline
 66
     1
 10
0.0
 20
0.0
 30
0.0
  0
VERTEX
  5
A5EB
330
A5EA
100
AcDbEntity
  8
0
 62
     7
370
     0
100
AcDbVertex
100
AcDb2dVertex
 10
43367.33832244107
 20
-69611.46171201355
 30
0.0
  0
VERTEX
  5
A5EC
330
A5EA
100
AcDbEntity
  8
0
 62
     7
370
     0
100
AcDbVertex
100
AcDb2dVertex
 10
58941.71974379392
 20
-69611.46171201355
 30
0.0
  0
SEQEND
  5
A5ED
330
A5EA
100
AcDbEntity
  8
0
 62
     7
370
     0
  0
POLYLINE
  5
A5EE
330
A543
100
AcDbEntity
  8
0
 62
     7
370
     0
100
AcDb2dPolyline
 66
     1
 10
0.0
 20
0.0
 30
0.0
  0
VERTEX
  5
A5EF
330
A5EE
100
AcDbEntity
  8
0
 62
     7
370
     0
100
AcDbVertex
100
AcDb2dVertex
 10
0.0
 20
0.0
 30
0.0
  0
VERTEX
  5
A5F0
330
A5EE
100
AcDbEntity
  8
0
 62
     7
370
     0
100
AcDbVertex
100
AcDb2dVertex
 10
0.0
 20
-90950.94564845281
 30
0.0
  0
SEQEND
  5
A5F1
330
A5EE
100
AcDbEntity
  8
0
 62
     7
370
     0
  0
POLYLINE
  5
A5F2
330
A543
100
AcDbEntity
  8
0
 62
     7
370
     0
100
AcDb2dPolyline
 66
     1
 10
0.0
 20
0.0
 30
0.0
  0
VERTEX
  5
A5F3
330
A5F2
100
AcDbEntity
  8
0
 62
     7
370
     0
100
AcDbVertex
100
AcDb2dVertex
 10
4044.176391180021
 20
-68234.72081288843
 30
0.0
  0
VERTEX
  5
A5F4
330
A5F2
100
AcDbEntity
  8
0
 62
     7
370
     0
100
AcDbVertex
100
AcDb2dVertex
 10
4044.176391180021
 20
-72623.08242884974
 30
0.0
  0
SEQEND
  5
A5F5
330
A5F2
100
AcDbEntity
  8
0
 62
     7
370
     0
  0
POLYLINE
  5
A5F6
330
A543
100
AcDbEntity
  8
0
 62
     7
370
     0
100
AcDb2dPolyline
 66
     1
 10
0.0
 20
0.0
 30
0.0
  0
VERTEX
  5
A5F7
330
A5F6
100
AcDbEntity
  8
0
 62
     7
370
     0
100
AcDbVertex
100
AcDb2dVertex
 10
19618.55781253287
 20
-86.04630619531958
 30
0.0
  0
VERTEX
  5
A5F8
330
A5F6
100
AcDbEntity
  8
0
 62
     7
370
     0
100
AcDbVertex
100
AcDb2dVertex
 10
19618.55781253287
 20
-90950.94564845281
 30
0.0
  0
SEQEND
  5
A5F9
330
A5F6
100
AcDbEntity
  8
0
 62
     7
370
     0
  0
POLYLINE
  5
A5FA
330
A543
100
AcDbEntity
  8
0
 62
     7
370
     0
100
AcDb2dPolyline
 66
     1
 10
0.0
 20
0.0
 30
0.0
  0
VERTEX
  5
A5FB
330
A5FA
100
AcDbEntity
  8
0
 62
     7
370
     0
100
AcDbVertex
100
AcDb2dVertex
 10
23662.73420371289
 20
-68234.72081288843
 30
0.0
  0
VERTEX
  5
A5FC
330
A5FA
100
AcDbEntity
  8
0
 62
     7
370
     0
100
AcDbVertex
100
AcDb2dVertex
 10
23662.73420371289
 20
-72623.08242884974
 30
0.0
  0
SEQEND
  5
A5FD
330
A5FA
100
AcDbEntity
  8
0
 62
     7
370
     0
  0
POLYLINE
  5
A5FE
330
A543
100
AcDbEntity
  8
0
 62
     7
370
     0
100
AcDb2dPolyline
 66
     1
 10
0.0
 20
0.0
 30
0.0
  0
VERTEX
  5
A5FF
330
A5FE
100
AcDbEntity
  8
0
 62
     7
370
     0
100
AcDbVertex
100
AcDb2dVertex
 10
39237.11562506574
 20
-86.04630619531958
 30
0.0
  0
VERTEX
  5
A600
330
A5FE
100
AcDbEntity
  8
0
 62
     7
370
     0
100
AcDbVertex
100
AcDb2dVertex
 10
39237.11562506574
 20
-90950.94564845281
 30
0.0
  0
SEQEND
  5
A601
330
A5FE
100
AcDbEntity
  8
0
 62
     7
370
     0
  0
POLYLINE
  5
A602
330
A543
100
AcDbEntity
  8
0
 62
     7
370
     0
100
AcDb2dPolyline
 66
     1
 10
0.0
 20
0.0
 30
0.0
  0
VERTEX
  5
A603
330
A602
100
AcDbEntity
  8
0
 62
     7
370
     0
100
AcDbVertex
100
AcDb2dVertex
 10
43281.29201624575
 20
-68234.72081288843
 30
0.0
  0
VERTEX
  5
A604
330
A602
100
AcDbEntity
  8
0
 62
     7
370
     0
100
AcDbVertex
100
AcDb2dVertex
 10
43281.29201624575
 20
-72623.08242884974
 30
0.0
  0
SEQEND
  5
A605
330
A602
100
AcDbEntity
  8
0
 62
     7
370
     0
  0
POLYLINE
  5
A606
330
A543
100
AcDbEntity
  8
0
 62
     7
370
     0
100
AcDb2dPolyline
 66
     1
 10
0.0
 20
0.0
 30
0.0
  0
VERTEX
  5
A607
330
A606
100
AcDbEntity
  8
0
 62
     7
370
     0
100
AcDbVertex
100
AcDb2dVertex
 10
58855.6734375986
 20
-86.04630619531958
 30
0.0
  0
VERTEX
  5
A608
330
A606
100
AcDbEntity
  8
0
 62
     7
370
     0
100
AcDbVertex
100
AcDb2dVertex
 10
58855.6734375986
 20
-90950.94564845281
 30
0.0
  0
SEQEND
  5
A609
330
A606
100
AcDbEntity
  8
0
 62
     7
370
     0
  0
POLYLINE
  5
A60A
330
A543
100
AcDbEntity
  8
0
 62
     7
370
     0
100
AcDb2dPolyline
 66
     1
 10
0.0
 20
0.0
 30
0.0
  0
VERTEX
  5
A60B
330
A60A
100
AcDbEntity
  8
0
 62
     7
370
     0
100
AcDbVertex
100
AcDb2dVertex
 10
62899.84982877862
 20
-68234.72081288843
 30
0.0
  0
VERTEX
  5
A60C
330
A60A
100
AcDbEntity
  8
0
 62
     7
370
     0
100
AcDbVertex
100
AcDb2dVertex
 10
62899.84982877862
 20
-72623.08242884974
 30
0.0
  0
SEQEND
  5
A60D
330
A60A
100
AcDbEntity
  8
0
 62
     7
370
     0
  0
POLYLINE
  5
A60E
330
A543
100
AcDbEntity
  8
0
 62
     7
370
     0
100
AcDb2dPolyline
 66
     1
 10
0.0
 20
0.0
 30
0.0
  0
VERTEX
  5
A60F
330
A60E
100
AcDbEntity
  8
0
 62
     7
370
     0
100
AcDbVertex
100
AcDb2dVertex
 10
78474.23125013147
 20
-86.04630619531958
 30
0.0
  0
VERTEX
  5
A610
330
A60E
100
AcDbEntity
  8
0
 62
     7
370
     0
100
AcDbVertex
100
AcDb2dVertex
 10
78474.23125013147
 20
-90950.94564845281
 30
0.0
  0
SEQEND
  5
A611
330
A60E
100
AcDbEntity
  8
0
 62
     7
370
     0
  0
POLYLINE
  5
A612
330
A543
100
AcDbEntity
  8
0
 62
     7
370
     0
100
AcDb2dPolyline
 66
     1
 10
0.0
 20
0.0
 30
0.0
  0
VERTEX
  5
A613
330
A612
100
AcDbEntity
  8
0
 62
     7
370
     0
100
AcDbVertex
100
AcDb2dVertex
 10
86.04630619531958
 20
0.0
 30
0.0
  0
VERTEX
  5
A614
330
A612
100
AcDbEntity
  8
0
 62
     7
370
     0
100
AcDbVertex
100
AcDb2dVertex
 10
78560.2775563268
 20
0.0
 30
0.0
  0
SEQEND
  5
A615
330
A612
100
AcDbEntity
  8
0
 62
     7
370
     0
  0
POLYLINE
  5
A616
330
A543
100
AcDbEntity
  8
0
 62
     7
370
     0
100
AcDb2dPolyline
 66
     1
 10
0.0
 20
0.0
 30
0.0
  0
VERTEX
  5
A617
330
A616
100
AcDbEntity
  8
0
 62
     7
370
     0
100
AcDbVertex
100
AcDb2dVertex
 10
62985.89613497393
 20
-1462.787205320433
 30
0.0
  0
VERTEX
  5
A618
330
A616
100
AcDbEntity
  8
0
 62
     7
370
     0
100
AcDbVertex
100
AcDb2dVertex
 10
78560.2775563268
 20
-1462.787205320433
 30
0.0
  0
SEQEND
  5
A619
330
A616
100
AcDbEntity
  8
0
 62
     7
370
     0
  0
POLYLINE
  5
A61A
330
A543
100
AcDbEntity
  8
0
 62
     7
370
     0
100
AcDb2dPolyline
 66
     1
 10
0.0
 20
0.0
 30
0.0
  0
VERTEX
  5
A61B
330
A61A
100
AcDbEntity
  8
0
 62
     7
370
     0
100
AcDbVertex
100
AcDb2dVertex
 10
86.04630619531958
 20
-4388.361615961299
 30
0.0
  0
VERTEX
  5
A61C
330
A61A
100
AcDbEntity
  8
0
 62
     7
370
     0
100
AcDbVertex
100
AcDb2dVertex
 10
78560.2775563268
 20
-4388.361615961299
 30
0.0
  0
SEQEND
  5
A61D
330
A61A
100
AcDbEntity
  8
0
 62
     7
370
     0
  0
POLYLINE
  5
A61E
330
A543
100
AcDbEntity
  8
0
 62
     7
370
     0
100
AcDb2dPolyline
 66
     1
 10
0.0
 20
0.0
 30
0.0
  0
VERTEX
  5
A61F
330
A61E
100
AcDbEntity
  8
0
 62
     7
370
     0
100
AcDbVertex
100
AcDb2dVertex
 10
86.04630619531958
 20
-22716.22483556437
 30
0.0
  0
VERTEX
  5
A620
330
A61E
100
AcDbEntity
  8
0
 62
     7
370
     0
100
AcDbVertex
100
AcDb2dVertex
 10
78560.2775563268
 20
-22716.22483556437
 30
0.0
  0
SEQEND
  5
A621
330
A61E
100
AcDbEntity
  8
0
 62
     7
370
     0
  0
POLYLINE
  5
A622
330
A543
100
AcDbEntity
  8
0
 62
     7
370
     0
100
AcDb2dPolyline
 66
     1
 10
0.0
 20
0.0
 30
0.0
  0
VERTEX
  5
A623
330
A622
100
AcDbEntity
  8
0
 62
     7
370
     0
100
AcDbVertex
100
AcDb2dVertex
 10
62985.89613497393
 20
-24179.0120408848
 30
0.0
  0
VERTEX
  5
A624
330
A622
100
AcDbEntity
  8
0
 62
     7
370
     0
100
AcDbVertex
100
AcDb2dVertex
 10
78560.2775563268
 20
-24179.0120408848
 30
0.0
  0
SEQEND
  5
A625
330
A622
100
AcDbEntity
  8
0
 62
     7
370
     0
  0
POLYLINE
  5
A626
330
A543
100
AcDbEntity
  8
0
 62
     7
370
     0
100
AcDb2dPolyline
 66
     1
 10
0.0
 20
0.0
 30
0.0
  0
VERTEX
  5
A627
330
A626
100
AcDbEntity
  8
0
 62
     7
370
     0
100
AcDbVertex
100
AcDb2dVertex
 10
86.04630619531958
 20
-27104.58645152567
 30
0.0
  0
VERTEX
  5
A628
330
A626
100
AcDbEntity
  8
0
 62
     7
370
     0
100
AcDbVertex
100
AcDb2dVertex
 10
78560.2775563268
 20
-27104.58645152567
 30
0.0
  0
SEQEND
  5
A629
330
A626
100
AcDbEntity
  8
0
 62
     7
370
     0
  0
POLYLINE
  5
A62A
330
A543
100
AcDbEntity
  8
0
 62
     7
370
     0
100
AcDb2dPolyline
 66
     1
 10
0.0
 20
0.0
 30
0.0
  0
VERTEX
  5
A62B
330
A62A
100
AcDbEntity
  8
0
 62
     7
370
     0
100
AcDbVertex
100
AcDb2dVertex
 10
86.04630619531958
 20
-45432.44967112874
 30
0.0
  0
VERTEX
  5
A62C
330
A62A
100
AcDbEntity
  8
0
 62
     7
370
     0
100
AcDbVertex
100
AcDb2dVertex
 10
78560.2775563268
 20
-45432.44967112874
 30
0.0
  0
SEQEND
  5
A62D
330
A62A
100
AcDbEntity
  8
0
 62
     7
370
     0
  0
POLYLINE
  5
A62E
330
A543
100
AcDbEntity
  8
0
 62
     7
370
     0
100
AcDb2dPolyline
 66
     1
 10
0.0
 20
0.0
 30
0.0
  0
VERTEX
  5
A62F
330
A62E
100
AcDbEntity
  8
0
 62
     7
370
     0
100
AcDbVertex
100
AcDb2dVertex
 10
62985.89613497393
 20
-46895.23687644918
 30
0.0
  0
VERTEX
  5
A630
330
A62E
100
AcDbEntity
  8
0
 62
     7
370
     0
100
AcDbVertex
100
AcDb2dVertex
 10
78560.2775563268
 20
-46895.23687644918
 30
0.0
  0
SEQEND
  5
A631
330
A62E
100
AcDbEntity
  8
0
 62
     7
370
     0
  0
POLYLINE
  5
A632
330
A543
100
AcDbEntity
  8
0
 62
     7
370
     0
100
AcDb2dPolyline
 66
     1
 10
0.0
 20
0.0
 30
0.0
  0
VERTEX
  5
A633
330
A632
100
AcDbEntity
  8
0
 62
     7
370
     0
100
AcDbVertex
100
AcDb2dVertex
 10
86.04630619531958
 20
-49820.81128709004
 30
0.0
  0
VERTEX
  5
A634
330
A632
100
AcDbEntity
  8
0
 62
     7
370
     0
100
AcDbVertex
100
AcDb2dVertex
 10
78560.2775563268
 20
-49820.81128709004
 30
0.0
  0
SEQEND
  5
A635
330
A632
100
AcDbEntity
  8
0
 62
     7
370
     0
  0
POLYLINE
  5
A636
330
A543
100
AcDbEntity
  8
0
 62
     7
370
     0
100
AcDb2dPolyline
 66
     1
 10
0.0
 20
0.0
 30
0.0
  0
VERTEX
  5
A637
330
A636
100
AcDbEntity
  8
0
 62
     7
370
     0
100
AcDbVertex
100
AcDb2dVertex
 10
86.04630619531958
 20
-68148.67450669312
 30
0.0
  0
VERTEX
  5
A638
330
A636
100
AcDbEntity
  8
0
 62
     7
370
     0
100
AcDbVertex
100
AcDb2dVertex
 10
78560.2775563268
 20
-68148.67450669312
 30
0.0
  0
SEQEND
  5
A639
330
A636
100
AcDbEntity
  8
0
 62
     7
370
     0
  0
POLYLINE
  5
A63A
330
A543
100
AcDbEntity
  8
0
 62
     7
370
     0
100
AcDb2dPolyline
 66
     1
 10
0.0
 20
0.0
 30
0.0
  0
VERTEX
  5
A63B
330
A63A
100
AcDbEntity
  8
0
 62
     7
370
     0
100
AcDbVertex
100
AcDb2dVertex
 10
62985.89613497393
 20
-69611.46171201355
 30
0.0
  0
VERTEX
  5
A63C
330
A63A
100
AcDbEntity
  8
0
 62
     7
370
     0
100
AcDbVertex
100
AcDb2dVertex
 10
78560.2775563268
 20
-69611.46171201355
 30
0.0
  0
SEQEND
  5
A63D
330
A63A
100
AcDbEntity
  8
0
 62
     7
370
     0
  0
POLYLINE
  5
A63E
330
A543
100
AcDbEntity
  8
0
 62
     7
370
     0
100
AcDb2dPolyline
 66
     1
 10
0.0
 20
0.0
 30
0.0
  0
VERTEX
  5
A63F
330
A63E
100
AcDbEntity
  8
0
 62
     7
370
     0
100
AcDbVertex
100
AcDb2dVertex
 10
86.04630619531958
 20
-72537.03612265442
 30
0.0
  0
VERTEX
  5
A640
330
A63E
100
AcDbEntity
  8
0
 62
     7
370
     0
100
AcDbVertex
100
AcDb2dVertex
 10
78560.2775563268
 20
-72537.03612265442
 30
0.0
  0
SEQEND
  5
A641
330
A63E
100
AcDbEntity
  8
0
 62
     7
370
     0
  0
POLYLINE
  5
A642
330
A543
100
AcDbEntity
  8
0
 62
     7
370
     0
100
AcDb2dPolyline
 66
     1
 10
0.0
 20
0.0
 30
0.0
  0
VERTEX
  5
A643
330
A642
100
AcDbEntity
  8
0
 62
     7
370
     0
100
AcDbVertex
100
AcDb2dVertex
 10
86.04630619531958
 20
-90864.89934225749
 30
0.0
  0
VERTEX
  5
A644
330
A642
100
AcDbEntity
  8
0
 62
     7
370
     0
100
AcDbVertex
100
AcDb2dVertex
 10
78560.2775563268
 20
-90864.89934225749
 30
0.0
  0
SEQEND
  5
A645
330
A642
100
AcDbEntity
  8
0
 62
     7
370
     0
  0
ENDBLK
  5
A646
330
A543
100
AcDbEntity
  8
0
 62
     7
370
     0
100
AcDbBlockEnd
  0
BLOCK
  5
1384F
330
1384E
100
AcDbEntity
  8
0
 62
     7
100
AcDbBlockBegin
  2
_Open
 70
     0
 10
0.0
 20
0.0
 30
0.0
  3
_Open
  1

  0
LINE
  5
13850
330
1384E
100
AcDbEntity
  8
0
  6
ByBlock
 62
     0
370
    -2
100
AcDbLine
 10
-1.0
 20
0.1666666666666666
 30
0.0
 11
0.0
 21
0.0
 31
0.0
  0
LINE
  5
13851
330
1384E
100
AcDbEntity
  8
0
  6
ByBlock
 62
     0
370
    -2
100
AcDbLine
 10
-1.0
 20
-0.1666666666666666
 30
0.0
 11
0.0
 21
0.0
 31
0.0
  0
LINE
  5
13852
330
1384E
100
AcDbEntity
  8
0
  6
ByBlock
 62
     0
370
    -2
100
AcDbLine
 10
0.0
 20
0.0
 30
0.0
 11
-1.0
 21
0.0
 31
0.0
  0
ENDBLK
  5
13853
330
1384E
100
AcDbEntity
  8
0
 62
     7
100
AcDbBlockEnd
  0
ENDSEC
  0
SECTION
  2
ENTITIES
  0
TEXT
  5
1261F
330
1F07
100
AcDbEntity
  8
0
 62
     7
100
AcDbText
 10
128469.2470799176
 20
5021.533192218339
 30
0.0
 40
299.9999947731441
  1
LEDﾃｰﾌﾟﾗｲﾄ
  7
WMF-ＭＳ Ｐゴシック0
100
AcDbText
  0
TEXT
  5
12620
330
1F07
100
AcDbEntity
  8
0
 62
     7
100
AcDbText
 10
128469.2470799176
 20
4531.14858537761
 30
0.0
 40
299.9999947731441
  1
BENSL-14084TLT
  7
WMF-ＭＳ Ｐゴシック0
100
AcDbText
  0
TEXT
  5
12621
330
1F07
100
AcDbEntity
  8
0
 62
     7
100
AcDbText
 10
129948.0590461728
 20
4040.76397853691
 30
0.0
 40
299.9999947731441
  1
LED10.8W/m  (2500K)
  7
WMF-ＭＳ Ｐゴシック0
100
AcDbText
  0
TEXT
  5
12622
330
1F07
100
AcDbEntity
  8
0
 62
     7
100
AcDbText
 10
128469.2470799176
 20
-1526.543616772411
 30
0.0
 40
299.9999947731441
  1
 
  7
WMF-ＭＳ Ｐゴシック0
100
AcDbText
  0
TEXT
  5
12743
330
1F07
100
AcDbEntity
  8
0
 62
     7
100
AcDbText
 10
128469.2470799176
 20
-1526.543616772411
 30
0.0
 40
299.9999947731441
  1
 
  7
WMF-ＭＳ Ｐゴシック0
100
AcDbText
  0
MTEXT
  5
128E6
330
1F07
100
AcDbEntity
  8
記号
 62
     2
100
AcDbMText
 10
132143.4307726355
 20
3348.132470049277
 30
0.0
 40
300.0001909587983
 41
2900.001845935049
 71
     5
 72
     5
  1
Re:ray
  7
スタイル1
 73
     1
 44
1.0
1001
ACAD
1000
MTEXTBEGIN
1070
    73
1070
     1
1070
    44
1040
1.0
1070
    74
1070
     0
1000
MTEXTEND
  0
MTEXT
  5
128E7
330
1F07
100
AcDbEntity
  8
記号
 62
     2
100
AcDbMText
 10
127312.0367111574
 20
-1725.42666326325
 30
0.0
 40
250.0
 41
6533.332686219465
 71
     4
 72
     5
  1
幅:15　高さ:7(mm)
  7
スタイル1
 73
     1
 44
1.0
1001
ACAD
1000
MTEXTBEGIN
1070
    73
1070
     1
1070
    44
1040
1.0
1070
    74
1070
     0
1000
MTEXTEND
  0
LINE
  5
129A5
330
1F07
100
AcDbEntity
  8
器具
100
AcDbLine
 10
132283.0368624027
 20
1786.320839387081
 30
0.0
 11
128141.4099724896
 21
-55.96820744704382
 31
0.0
  0
LINE
  5
129A6
330
1F07
100
AcDbEntity
  8
器具
100
AcDbLine
 10
132285.1265749528
 20
2025.684617422376
 30
0.0
 11
128118.700078829
 21
176.6757993469036
 31
0.0
  0
LINE
  5
129A7
330
1F07
100
AcDbEntity
  8
器具
100
AcDbLine
 10
132264.5948898983
 20
2037.658893152217
 30
0.0
 11
128110.6473789947
 21
194.1880951844796
 31
0.0
  0
LINE
  5
129A8
330
1F07
100
AcDbEntity
  8
器具
100
AcDbLine
 10
130585.0716181272
 20
1188.404127475362
 30
0.0
 11
130663.7496470129
 21
1222.188641147673
 31
0.0
  0
LINE
  5
129A9
330
1F07
100
AcDbEntity
  8
器具
100
AcDbLine
 10
130679.1467327364
 20
1211.015983370722
 30
0.0
 11
130663.7496470129
 21
1222.188641147673
 31
0.0
  0
LINE
  5
129AA
330
1F07
100
AcDbEntity
  8
器具
100
AcDbLine
 10
128649.698288683
 20
248.4929685929492
 30
0.0
 11
128645.8487375737
 21
331.0018756982754
 31
0.0
  0
LINE
  5
129AB
330
1F07
100
AcDbEntity
  8
器具
100
AcDbLine
 10
128645.8487375737
 20
331.0018756982754
 30
0.0
 11
128724.5267664592
 21
364.7863893703725
 31
0.0
  0
LINE
  5
129AC
330
1F07
100
AcDbEntity
  8
器具
100
AcDbLine
 10
128661.2458232972
 20
319.8292179213968
 30
0.0
 11
128645.8487375737
 21
331.0018756982754
 31
0.0
  0
LINE
  5
129AD
330
1F07
100
AcDbEntity
  8
器具
100
AcDbLine
 10
128407.7986093287
 20
218.0221251401999
 30
0.0
 11
128486.4766382144
 21
251.8066388125007
 31
0.0
  0
LINE
  5
129AE
330
1F07
100
AcDbEntity
  8
器具
100
AcDbLine
 10
128423.1956950521
 20
206.8494673632886
 30
0.0
 11
128501.8737239378
 21
240.6339810355967
 31
0.0
  0
LINE
  5
129AF
330
1F07
100
AcDbEntity
  8
器具
100
AcDbLine
 10
128502.8781563743
 20
158.5952372532665
 30
0.0
 11
128427.0452461614
 21
124.3405602578896
 31
0.0
  0
LINE
  5
129B0
330
1F07
100
AcDbEntity
  8
器具
100
AcDbLine
 10
128423.1956950521
 20
206.8494673632886
 30
0.0
 11
128407.7986093287
 21
218.0221251401999
 31
0.0
  0
LINE
  5
129B1
330
1F07
100
AcDbEntity
  8
器具
100
AcDbLine
 10
128251.909704573
 20
137.6693678452138
 30
0.0
 11
128256.9893613778
 21
59.05091299401465
 31
0.0
  0
LINE
  5
129B2
330
1F07
100
AcDbEntity
  8
器具
100
AcDbLine
 10
128251.909704573
 20
137.6693678452138
 30
0.0
 11
128236.5126188495
 21
148.8420256221543
 31
0.0
  0
LINE
  5
129B3
330
1F07
100
AcDbEntity
  8
器具
100
AcDbLine
 10
128427.0452461614
 20
124.3405602578896
 30
0.0
 11
128411.6481604379
 21
135.5132180348228
 31
0.0
  0
LINE
  5
129B4
330
1F07
100
AcDbEntity
  8
器具
100
AcDbLine
 10
128411.6481604379
 20
135.5132180348228
 30
0.0
 11
128407.7986093287
 21
218.0221251401999
 31
0.0
  0
LINE
  5
129B5
330
1F07
100
AcDbEntity
  8
器具
100
AcDbLine
 10
128427.0452461614
 20
124.3405602578896
 30
0.0
 11
128423.1956950521
 21
206.8494673632886
 31
0.0
  0
LINE
  5
129B6
330
1F07
100
AcDbEntity
  8
器具
100
AcDbLine
 10
128157.8345899639
 20
115.0575119498244
 30
0.0
 11
128236.5126188495
 21
148.8420256221543
 31
0.0
  0
LINE
  5
129B7
330
1F07
100
AcDbEntity
  8
器具
100
AcDbLine
 10
128173.2316756874
 20
103.8848541729239
 30
0.0
 11
128251.909704573
 21
137.6693678452029
 31
0.0
  0
LINE
  5
129B8
330
1F07
100
AcDbEntity
  8
器具
100
AcDbLine
 10
128501.8737239378
 20
240.6339810355967
 30
0.0
 11
128486.4766382144
 21
251.8066388125007
 31
0.0
  0
LINE
  5
129B9
330
1F07
100
AcDbEntity
  8
器具
100
AcDbLine
 10
128501.8737239378
 20
240.6339810355967
 30
0.0
 11
128506.9533807426
 21
162.0155261843611
 31
0.0
  0
LINE
  5
129BA
330
1F07
100
AcDbEntity
  8
器具
100
AcDbLine
 10
128740.9282846194
 20
271.5749878113966
 30
0.0
 11
128665.0953744065
 21
237.3203108159978
 31
0.0
  0
LINE
  5
129BB
330
1F07
100
AcDbEntity
  8
器具
100
AcDbLine
 10
128665.0953744065
 20
237.3203108159978
 30
0.0
 11
128661.2458232972
 21
319.8292179213968
 31
0.0
  0
LINE
  5
129BC
330
1F07
100
AcDbEntity
  8
器具
100
AcDbLine
 10
128661.2458232972
 20
319.8292179213968
 30
0.0
 11
128739.9238521827
 21
353.613731593472
 31
0.0
  0
LINE
  5
129BD
330
1F07
100
AcDbEntity
  8
器具
100
AcDbLine
 10
128739.9238521827
 20
353.613731593472
 30
0.0
 11
128745.0035089874
 21
274.9952767422656
 31
0.0
  0
LINE
  5
129BE
330
1F07
100
AcDbEntity
  8
器具
100
AcDbLine
 10
128665.0953744065
 20
237.3203108159978
 30
0.0
 11
128649.698288683
 21
248.4929685929492
 31
0.0
  0
LINE
  5
129BF
330
1F07
100
AcDbEntity
  8
器具
100
AcDbLine
 10
128739.9238521827
 20
353.613731593472
 30
0.0
 11
128724.5267664592
 21
364.7863893703725
 31
0.0
  0
LINE
  5
129C0
330
1F07
100
AcDbEntity
  8
器具
100
AcDbLine
 10
128990.2124090046
 20
461.7895677842025
 30
0.0
 11
128995.2920658093
 21
383.171112932996
 31
0.0
  0
LINE
  5
129C1
330
1F07
100
AcDbEntity
  8
器具
100
AcDbLine
 10
128896.1372943954
 20
439.1777118888349
 30
0.0
 11
128974.8153232812
 21
472.9622255611247
 31
0.0
  0
LINE
  5
129C2
330
1F07
100
AcDbEntity
  8
器具
100
AcDbLine
 10
128911.534380119
 20
428.0050541119053
 30
0.0
 11
128990.2124090046
 21
461.7895677842025
 31
0.0
  0
LINE
  5
129C3
330
1F07
100
AcDbEntity
  8
器具
100
AcDbLine
 10
128899.9868455047
 20
356.6688047834578
 30
0.0
 11
128896.1372943954
 21
439.1777118888349
 31
0.0
  0
LINE
  5
129C4
330
1F07
100
AcDbEntity
  8
器具
100
AcDbLine
 10
128915.3839312282
 20
345.4961470065246
 30
0.0
 11
128911.534380119
 21
428.0050541119053
 31
0.0
  0
LINE
  5
129C5
330
1F07
100
AcDbEntity
  8
器具
100
AcDbLine
 10
128915.3839312282
 20
345.4961470065246
 30
0.0
 11
128899.9868455047
 21
356.6688047834578
 31
0.0
  0
LINE
  5
129C6
330
1F07
100
AcDbEntity
  8
器具
100
AcDbLine
 10
128911.534380119
 20
428.0050541119053
 30
0.0
 11
128896.1372943954
 21
439.1777118888349
 31
0.0
  0
LINE
  5
129C7
330
1F07
100
AcDbEntity
  8
器具
100
AcDbLine
 10
128991.2168414411
 20
379.7508240018724
 30
0.0
 11
128915.3839312282
 21
345.4961470065246
 31
0.0
  0
LINE
  5
129C8
330
1F07
100
AcDbEntity
  8
器具
100
AcDbLine
 10
129626.2320309917
 20
681.5634992406667
 30
0.0
 11
129622.3824798825
 21
764.0724063460257
 31
0.0
  0
LINE
  5
129C9
330
1F07
100
AcDbEntity
  8
器具
100
AcDbLine
 10
129641.6291167152
 20
670.3908414637553
 30
0.0
 11
129637.779565606
 21
752.8997485690925
 31
0.0
  0
LINE
  5
129CA
330
1F07
100
AcDbEntity
  8
器具
100
AcDbLine
 10
129716.4575944916
 20
786.6842622414224
 30
0.0
 11
129721.5372512964
 21
708.0658073901941
 31
0.0
  0
LINE
  5
129CB
330
1F07
100
AcDbEntity
  8
器具
100
AcDbLine
 10
129717.4620269281
 20
704.645518459125
 30
0.0
 11
129641.6291167152
 21
670.3908414637553
 31
0.0
  0
LINE
  5
129CC
330
1F07
100
AcDbEntity
  8
器具
100
AcDbLine
 10
129397.3256233202
 20
571.5481563545363
 30
0.0
 11
129393.4760722109
 21
654.0570634599353
 31
0.0
  0
LINE
  5
129CD
330
1F07
100
AcDbEntity
  8
器具
100
AcDbLine
 10
129412.7227090437
 20
560.3754985776249
 30
0.0
 11
129408.8731579343
 21
642.8844056829802
 31
0.0
  0
LINE
  5
129CE
330
1F07
100
AcDbEntity
  8
器具
100
AcDbLine
 10
129487.55118682
 20
676.668919355292
 30
0.0
 11
129492.6308436247
 21
598.0504645040855
 31
0.0
  0
LINE
  5
129CF
330
1F07
100
AcDbEntity
  8
器具
100
AcDbLine
 10
129488.5556192565
 20
594.6301755729909
 30
0.0
 11
129412.7227090437
 21
560.3754985776249
 31
0.0
  0
LINE
  5
129D0
330
1F07
100
AcDbEntity
  8
器具
100
AcDbLine
 10
129412.7227090437
 20
560.3754985776249
 30
0.0
 11
129397.3256233202
 21
571.5481563545363
 31
0.0
  0
LINE
  5
129D1
330
1F07
100
AcDbEntity
  8
器具
100
AcDbLine
 10
129227.350035527
 20
568.9771116961019
 30
0.0
 11
129211.9529498035
 21
580.149769473035
 31
0.0
  0
LINE
  5
129D2
330
1F07
100
AcDbEntity
  8
器具
100
AcDbLine
 10
129393.4760722109
 20
654.0570634599353
 30
0.0
 11
129472.1541010966
 21
687.8415771322034
 31
0.0
  0
LINE
  5
129D3
330
1F07
100
AcDbEntity
  8
器具
100
AcDbLine
 10
129408.8731579343
 20
642.8844056829802
 30
0.0
 11
129487.55118682
 21
676.668919355292
 31
0.0
  0
LINE
  5
129D4
330
1F07
100
AcDbEntity
  8
器具
100
AcDbLine
 10
129408.8731579343
 20
642.8844056829802
 30
0.0
 11
129393.4760722109
 21
654.0570634599353
 31
0.0
  0
LINE
  5
129D5
330
1F07
100
AcDbEntity
  8
器具
100
AcDbLine
 10
129487.55118682
 20
676.668919355292
 30
0.0
 11
129472.1541010966
 21
687.8415771322034
 31
0.0
  0
LINE
  5
129D6
330
1F07
100
AcDbEntity
  8
器具
100
AcDbLine
 10
129641.6291167152
 20
670.3908414637553
 30
0.0
 11
129626.2320309917
 21
681.5634992406667
 31
0.0
  0
LINE
  5
129D7
330
1F07
100
AcDbEntity
  8
器具
100
AcDbLine
 10
129622.3824798825
 20
764.0724063460257
 30
0.0
 11
129701.0605087682
 21
797.8569200183556
 31
0.0
  0
LINE
  5
129D8
330
1F07
100
AcDbEntity
  8
器具
100
AcDbLine
 10
129637.779565606
 20
752.8997485690925
 30
0.0
 11
129716.4575944916
 21
786.6842622414224
 31
0.0
  0
LINE
  5
129D9
330
1F07
100
AcDbEntity
  8
器具
100
AcDbLine
 10
129637.779565606
 20
752.8997485690925
 30
0.0
 11
129622.3824798825
 21
764.0724063460257
 31
0.0
  0
LINE
  5
129DA
330
1F07
100
AcDbEntity
  8
器具
100
AcDbLine
 10
129716.4575944916
 20
786.6842622414224
 30
0.0
 11
129701.0605087682
 21
797.8569200183556
 31
0.0
  0
LINE
  5
129DB
330
1F07
100
AcDbEntity
  8
器具
100
AcDbLine
 10
128990.2124090046
 20
461.7895677842025
 30
0.0
 11
128974.8153232812
 21
472.9622255611247
 31
0.0
  0
LINE
  5
129DC
330
1F07
100
AcDbEntity
  8
器具
100
AcDbLine
 10
129137.1244720271
 20
463.856348695368
 30
0.0
 11
129133.2749209179
 21
546.3652558007233
 31
0.0
  0
LINE
  5
129DD
330
1F07
100
AcDbEntity
  8
器具
100
AcDbLine
 10
129228.3544679634
 20
486.9383679138227
 30
0.0
 11
129152.5215577506
 21
452.6836909184348
 31
0.0
  0
LINE
  5
129DE
330
1F07
100
AcDbEntity
  8
器具
100
AcDbLine
 10
129152.5215577506
 20
452.6836909184348
 30
0.0
 11
129148.6720066412
 21
535.1925980237938
 31
0.0
  0
LINE
  5
129DF
330
1F07
100
AcDbEntity
  8
器具
100
AcDbLine
 10
129152.5215577506
 20
452.6836909184348
 30
0.0
 11
129137.1244720271
 21
463.856348695368
 31
0.0
  0
LINE
  5
129E0
330
1F07
100
AcDbEntity
  8
器具
100
AcDbLine
 10
129148.6720066412
 20
535.1925980237938
 30
0.0
 11
129133.2749209179
 21
546.3652558007233
 31
0.0
  0
LINE
  5
129E1
330
1F07
100
AcDbEntity
  8
器具
100
AcDbLine
 10
129133.2749209179
 20
546.3652558007233
 30
0.0
 11
129211.9529498035
 21
580.149769473035
 31
0.0
  0
LINE
  5
129E2
330
1F07
100
AcDbEntity
  8
器具
100
AcDbLine
 10
129148.6720066412
 20
535.1925980237938
 30
0.0
 11
129227.350035527
 21
568.9771116961019
 31
0.0
  0
LINE
  5
129E3
330
1F07
100
AcDbEntity
  8
器具
100
AcDbLine
 10
129227.350035527
 20
568.9771116961019
 30
0.0
 11
129232.4296923316
 21
490.3586568446808
 31
0.0
  0
LINE
  5
129E4
330
1F07
100
AcDbEntity
  8
器具
100
AcDbLine
 10
130680.1511651728
 20
1128.977239588461
 30
0.0
 11
130604.31825496
 21
1094.722562593095
 31
0.0
  0
LINE
  5
129E5
330
1F07
100
AcDbEntity
  8
器具
100
AcDbLine
 10
130600.4687038507
 20
1177.23146969845
 30
0.0
 11
130679.1467327364
 21
1211.015983370722
 31
0.0
  0
LINE
  5
129E6
330
1F07
100
AcDbEntity
  8
器具
100
AcDbLine
 10
130588.9211692365
 20
1105.895220370024
 30
0.0
 11
130585.0716181272
 21
1188.404127475362
 31
0.0
  0
LINE
  5
129E7
330
1F07
100
AcDbEntity
  8
器具
100
AcDbLine
 10
130604.31825496
 20
1094.722562593095
 30
0.0
 11
130600.4687038507
 21
1177.23146969845
 31
0.0
  0
LINE
  5
129E8
330
1F07
100
AcDbEntity
  8
器具
100
AcDbLine
 10
130604.31825496
 20
1094.722562593095
 30
0.0
 11
130588.9211692365
 21
1105.895220370024
 31
0.0
  0
LINE
  5
129E9
330
1F07
100
AcDbEntity
  8
器具
100
AcDbLine
 10
130600.4687038507
 20
1177.23146969845
 30
0.0
 11
130585.0716181272
 21
1188.404127475362
 31
0.0
  0
LINE
  5
129EA
330
1F07
100
AcDbEntity
  8
器具
100
AcDbLine
 10
130679.1467327364
 20
1211.015983370722
 30
0.0
 11
130684.2263895409
 21
1132.397528519308
 31
0.0
  0
LINE
  5
129EB
330
1F07
100
AcDbEntity
  8
器具
100
AcDbLine
 10
130103.9650793202
 20
977.095249512291
 30
0.0
 11
130182.6431082059
 21
1010.879763184603
 31
0.0
  0
LINE
  5
129EC
330
1F07
100
AcDbEntity
  8
器具
100
AcDbLine
 10
130119.3621650437
 20
965.9225917353579
 30
0.0
 11
130103.9650793202
 21
977.095249512291
 31
0.0
  0
LINE
  5
129ED
330
1F07
100
AcDbEntity
  8
器具
100
AcDbLine
 10
130123.211716153
 20
883.4136846300024
 30
0.0
 11
130107.8146304295
 21
894.5863424069321
 31
0.0
  0
LINE
  5
129EE
330
1F07
100
AcDbEntity
  8
器具
100
AcDbLine
 10
129969.5792278376
 20
894.6543305601844
 30
0.0
 11
129974.6588846424
 21
816.0358757089779
 31
0.0
  0
LINE
  5
129EF
330
1F07
100
AcDbEntity
  8
器具
100
AcDbLine
 10
129969.5792278376
 20
894.6543305601844
 30
0.0
 11
129954.1821421141
 21
905.8269883370957
 31
0.0
  0
LINE
  5
129F0
330
1F07
100
AcDbEntity
  8
器具
100
AcDbLine
 10
129879.3536643378
 20
789.5335675594288
 30
0.0
 11
129875.5041132284
 21
872.0424746648276
 31
0.0
  0
LINE
  5
129F1
330
1F07
100
AcDbEntity
  8
器具
100
AcDbLine
 10
129894.7507500613
 20
778.3609097825173
 30
0.0
 11
129890.9011989519
 21
860.8698168878728
 31
0.0
  0
LINE
  5
129F2
330
1F07
100
AcDbEntity
  8
器具
100
AcDbLine
 10
129894.7507500613
 20
778.3609097825173
 30
0.0
 11
129879.3536643378
 21
789.5335675594288
 31
0.0
  0
LINE
  5
129F3
330
1F07
100
AcDbEntity
  8
器具
100
AcDbLine
 10
129890.9011989519
 20
860.8698168878728
 30
0.0
 11
129875.5041132284
 21
872.0424746648276
 31
0.0
  0
LINE
  5
129F4
330
1F07
100
AcDbEntity
  8
器具
100
AcDbLine
 10
129875.5041132284
 20
872.0424746648276
 30
0.0
 11
129954.1821421141
 21
905.8269883370957
 31
0.0
  0
LINE
  5
129F5
330
1F07
100
AcDbEntity
  8
器具
100
AcDbLine
 10
129970.5836602741
 20
812.6155867778834
 30
0.0
 11
129894.7507500613
 21
778.3609097825173
 31
0.0
  0
LINE
  5
129F6
330
1F07
100
AcDbEntity
  8
器具
100
AcDbLine
 10
129890.9011989519
 20
860.8698168878728
 30
0.0
 11
129969.5792278376
 21
894.6543305601844
 31
0.0
  0
LINE
  5
129F7
330
1F07
100
AcDbEntity
  8
器具
100
AcDbLine
 10
130107.8146304295
 20
894.5863424069321
 30
0.0
 11
130103.9650793202
 21
977.095249512291
 31
0.0
  0
LINE
  5
129F8
330
1F07
100
AcDbEntity
  8
器具
100
AcDbLine
 10
130119.3621650437
 20
965.9225917353579
 30
0.0
 11
130198.0401939294
 21
999.7071054076696
 31
0.0
  0
LINE
  5
129F9
330
1F07
100
AcDbEntity
  8
器具
100
AcDbLine
 10
130198.0401939294
 20
999.7071054076696
 30
0.0
 11
130182.6431082059
 21
1010.879763184603
 31
0.0
  0
LINE
  5
129FA
330
1F07
100
AcDbEntity
  8
器具
100
AcDbLine
 10
130349.1647749286
 20
998.2597954049051
 30
0.0
 11
130345.3152238194
 21
1080.7687025103
 31
0.0
  0
LINE
  5
129FB
330
1F07
100
AcDbEntity
  8
器具
100
AcDbLine
 10
130345.3152238194
 20
1080.7687025103
 30
0.0
 11
130423.993252705
 21
1114.55321618259
 31
0.0
  0
LINE
  5
129FC
330
1F07
100
AcDbEntity
  8
器具
100
AcDbLine
 10
130440.3947708649
 20
1021.341814623338
 30
0.0
 11
130364.5618606521
 21
987.0871376279902
 31
0.0
  0
LINE
  5
129FD
330
1F07
100
AcDbEntity
  8
器具
100
AcDbLine
 10
130364.5618606521
 20
987.0871376279902
 30
0.0
 11
130360.7123095428
 21
1069.596044733389
 31
0.0
  0
LINE
  5
129FE
330
1F07
100
AcDbEntity
  8
器具
100
AcDbLine
 10
130360.7123095428
 20
1069.596044733389
 30
0.0
 11
130439.3903384284
 21
1103.380558405661
 31
0.0
  0
LINE
  5
129FF
330
1F07
100
AcDbEntity
  8
器具
100
AcDbLine
 10
130364.5618606521
 20
987.0871376279902
 30
0.0
 11
130349.1647749286
 21
998.2597954049051
 31
0.0
  0
LINE
  5
12A00
330
1F07
100
AcDbEntity
  8
器具
100
AcDbLine
 10
130360.7123095428
 20
1069.596044733389
 30
0.0
 11
130345.3152238194
 21
1080.7687025103
 31
0.0
  0
LINE
  5
12A01
330
1F07
100
AcDbEntity
  8
器具
100
AcDbLine
 10
130439.3903384284
 20
1103.380558405661
 30
0.0
 11
130423.993252705
 21
1114.55321618259
 31
0.0
  0
LINE
  5
12A02
330
1F07
100
AcDbEntity
  8
器具
100
AcDbLine
 10
130199.0446263659
 20
917.6683616253903
 30
0.0
 11
130123.211716153
 21
883.4136846300024
 31
0.0
  0
LINE
  5
12A03
330
1F07
100
AcDbEntity
  8
器具
100
AcDbLine
 10
130123.211716153
 20
883.4136846300024
 30
0.0
 11
130119.3621650437
 21
965.9225917353579
 31
0.0
  0
LINE
  5
12A04
330
1F07
100
AcDbEntity
  8
器具
100
AcDbLine
 10
130198.0401939294
 20
999.7071054076696
 30
0.0
 11
130203.1198507342
 21
921.0886505564413
 31
0.0
  0
LINE
  5
12A05
330
1F07
100
AcDbEntity
  8
器具
100
AcDbLine
 10
130439.3903384284
 20
1103.380558405661
 30
0.0
 11
130444.4699952332
 21
1024.762103554451
 31
0.0
  0
LINE
  5
12A06
330
1F07
100
AcDbEntity
  8
器具
100
AcDbLine
 10
130928.7001512785
 20
1239.373977012525
 30
0.0
 11
130852.8672410657
 21
1205.119300017155
 31
0.0
  0
LINE
  5
12A07
330
1F07
100
AcDbEntity
  8
器具
100
AcDbLine
 10
130852.8672410657
 20
1205.119300017155
 30
0.0
 11
130849.0176899564
 21
1287.628207122536
 31
0.0
  0
LINE
  5
12A08
330
1F07
100
AcDbEntity
  8
器具
100
AcDbLine
 10
130852.8672410657
 20
1205.119300017155
 30
0.0
 11
130837.4701553421
 21
1216.291957794088
 31
0.0
  0
LINE
  5
12A09
330
1F07
100
AcDbEntity
  8
器具
100
AcDbLine
 10
132283.0368624027
 20
1786.320839387081
 30
0.0
 11
132285.1265749528
 21
2025.684617422376
 31
0.0
  0
LINE
  5
12A0A
330
1F07
100
AcDbEntity
  8
器具
100
AcDbLine
 10
131645.6539980644
 20
1554.340225055621
 30
0.0
 11
131569.8210878516
 21
1520.085548060273
 31
0.0
  0
LINE
  5
12A0B
330
1F07
100
AcDbEntity
  8
器具
100
AcDbLine
 10
131565.9715367423
 20
1602.594455165632
 30
0.0
 11
131644.649565628
 21
1636.378968837922
 31
0.0
  0
LINE
  5
12A0C
330
1F07
100
AcDbEntity
  8
器具
100
AcDbLine
 10
131550.5744510187
 20
1613.767112942565
 30
0.0
 11
131629.2524799045
 21
1647.551626614855
 31
0.0
  0
LINE
  5
12A0D
330
1F07
100
AcDbEntity
  8
器具
100
AcDbLine
 10
131309.6628195247
 20
1513.668639986812
 30
0.0
 11
131388.3408484104
 21
1547.453153659124
 31
0.0
  0
LINE
  5
12A0E
330
1F07
100
AcDbEntity
  8
器具
100
AcDbLine
 10
131325.0599052483
 20
1502.495982209883
 30
0.0
 11
131403.7379341339
 21
1536.280495882173
 31
0.0
  0
LINE
  5
12A0F
330
1F07
100
AcDbEntity
  8
器具
100
AcDbLine
 10
131403.7379341339
 20
1536.280495882173
 30
0.0
 11
131408.8175909386
 21
1457.662041030962
 31
0.0
  0
LINE
  5
12A10
330
1F07
100
AcDbEntity
  8
器具
100
AcDbLine
 10
131569.8210878516
 20
1520.085548060273
 30
0.0
 11
131565.9715367423
 21
1602.594455165632
 31
0.0
  0
LINE
  5
12A11
330
1F07
100
AcDbEntity
  8
器具
100
AcDbLine
 10
131569.8210878516
 20
1520.085548060273
 30
0.0
 11
131554.4240021281
 21
1531.258205837184
 31
0.0
  0
LINE
  5
12A12
330
1F07
100
AcDbEntity
  8
器具
100
AcDbLine
 10
131084.9740804701
 20
1389.87522754756
 30
0.0
 11
131163.6521093556
 21
1423.65974121989
 31
0.0
  0
LINE
  5
12A13
330
1F07
100
AcDbEntity
  8
器具
100
AcDbLine
 10
131163.6521093556
 20
1423.65974121989
 30
0.0
 11
131148.2550236322
 21
1434.832398996783
 31
0.0
  0
LINE
  5
12A14
330
1F07
100
AcDbEntity
  8
器具
100
AcDbLine
 10
131313.5123706341
 20
1431.159732881435
 30
0.0
 11
131309.6628195247
 21
1513.668639986812
 31
0.0
  0
LINE
  5
12A15
330
1F07
100
AcDbEntity
  8
器具
100
AcDbLine
 10
131404.7423665704
 20
1454.241752099893
 30
0.0
 11
131328.9094563576
 21
1419.987075104502
 31
0.0
  0
LINE
  5
12A16
330
1F07
100
AcDbEntity
  8
器具
100
AcDbLine
 10
131328.9094563576
 20
1419.987075104502
 30
0.0
 11
131325.0599052483
 21
1502.495982209883
 31
0.0
  0
LINE
  5
12A17
330
1F07
100
AcDbEntity
  8
器具
100
AcDbLine
 10
131328.9094563576
 20
1419.987075104502
 30
0.0
 11
131313.5123706341
 21
1431.159732881435
 31
0.0
  0
LINE
  5
12A18
330
1F07
100
AcDbEntity
  8
器具
100
AcDbLine
 10
131325.0599052483
 20
1502.495982209883
 30
0.0
 11
131309.6628195247
 21
1513.668639986812
 31
0.0
  0
LINE
  5
12A19
330
1F07
100
AcDbEntity
  8
器具
100
AcDbLine
 10
131069.5769947465
 20
1401.047885324493
 30
0.0
 11
131148.2550236322
 21
1434.832398996783
 31
0.0
  0
LINE
  5
12A1A
330
1F07
100
AcDbEntity
  8
器具
100
AcDbLine
 10
131084.9740804701
 20
1389.87522754756
 30
0.0
 11
131069.5769947465
 21
1401.047885324493
 31
0.0
  0
LINE
  5
12A1B
330
1F07
100
AcDbEntity
  8
器具
100
AcDbLine
 10
131403.7379341339
 20
1536.280495882173
 30
0.0
 11
131388.3408484104
 21
1547.453153659124
 31
0.0
  0
LINE
  5
12A1C
330
1F07
100
AcDbEntity
  8
器具
100
AcDbLine
 10
131554.4240021281
 20
1531.258205837184
 30
0.0
 11
131550.5744510187
 21
1613.767112942565
 31
0.0
  0
LINE
  5
12A1D
330
1F07
100
AcDbEntity
  8
器具
100
AcDbLine
 10
131565.9715367423
 20
1602.594455165632
 30
0.0
 11
131550.5744510187
 21
1613.767112942565
 31
0.0
  0
LINE
  5
12A1E
330
1F07
100
AcDbEntity
  8
器具
100
AcDbLine
 10
131644.649565628
 20
1636.378968837922
 30
0.0
 11
131629.2524799045
 21
1647.551626614855
 31
0.0
  0
LINE
  5
12A1F
330
1F07
100
AcDbEntity
  8
器具
100
AcDbLine
 10
131644.649565628
 20
1636.378968837922
 30
0.0
 11
131649.7292224325
 21
1557.76051398649
 31
0.0
  0
LINE
  5
12A20
330
1F07
100
AcDbEntity
  8
器具
100
AcDbLine
 10
130837.4701553421
 20
1216.291957794088
 30
0.0
 11
130833.6206042329
 21
1298.800864899465
 31
0.0
  0
LINE
  5
12A21
330
1F07
100
AcDbEntity
  8
器具
100
AcDbLine
 10
130833.6206042329
 20
1298.800864899465
 30
0.0
 11
130912.2986331186
 21
1332.585378571755
 31
0.0
  0
LINE
  5
12A22
330
1F07
100
AcDbEntity
  8
器具
100
AcDbLine
 10
130849.0176899564
 20
1287.628207122536
 30
0.0
 11
130927.695718842
 21
1321.412720794844
 31
0.0
  0
LINE
  5
12A23
330
1F07
100
AcDbEntity
  8
器具
100
AcDbLine
 10
130927.695718842
 20
1321.412720794844
 30
0.0
 11
130932.7753756468
 21
1242.794265943637
 31
0.0
  0
LINE
  5
12A24
330
1F07
100
AcDbEntity
  8
器具
100
AcDbLine
 10
130849.0176899564
 20
1287.628207122536
 30
0.0
 11
130833.6206042329
 21
1298.800864899465
 31
0.0
  0
LINE
  5
12A25
330
1F07
100
AcDbEntity
  8
器具
100
AcDbLine
 10
130927.695718842
 20
1321.412720794844
 30
0.0
 11
130912.2986331186
 21
1332.585378571755
 31
0.0
  0
LINE
  5
12A26
330
1F07
100
AcDbEntity
  8
器具
100
AcDbLine
 10
131164.6565417922
 20
1341.620997437589
 30
0.0
 11
131088.8236315793
 21
1307.366320442201
 31
0.0
  0
LINE
  5
12A27
330
1F07
100
AcDbEntity
  8
器具
100
AcDbLine
 10
131088.8236315793
 20
1307.366320442201
 30
0.0
 11
131073.4265458558
 21
1318.538978219156
 31
0.0
  0
LINE
  5
12A28
330
1F07
100
AcDbEntity
  8
器具
100
AcDbLine
 10
131088.8236315793
 20
1307.366320442201
 30
0.0
 11
131084.9740804701
 21
1389.87522754756
 31
0.0
  0
LINE
  5
12A29
330
1F07
100
AcDbEntity
  8
器具
100
AcDbLine
 10
131163.6521093556
 20
1423.65974121989
 30
0.0
 11
131168.7317661603
 21
1345.04128636844
 31
0.0
  0
LINE
  5
12A2A
330
1F07
100
AcDbEntity
  8
器具
100
AcDbLine
 10
131073.4265458558
 20
1318.538978219156
 30
0.0
 11
131069.5769947465
 21
1401.047885324493
 31
0.0
  0
LINE
  5
12A2B
330
1F07
100
AcDbEntity
  8
器具
100
AcDbLine
 10
132131.2369418951
 20
1852.245258108403
 30
0.0
 11
132136.3165986999
 21
1773.626803257197
 31
0.0
  0
LINE
  5
12A2C
330
1F07
100
AcDbEntity
  8
器具
100
AcDbLine
 10
132037.1618272861
 20
1829.633402213047
 30
0.0
 11
132115.8398561718
 21
1863.417915885358
 31
0.0
  0
LINE
  5
12A2D
330
1F07
100
AcDbEntity
  8
器具
100
AcDbLine
 10
132041.0113783953
 20
1747.124495107648
 30
0.0
 11
132037.1618272861
 21
1829.633402213047
 31
0.0
  0
LINE
  5
12A2E
330
1F07
100
AcDbEntity
  8
器具
100
AcDbLine
 10
132056.4084641188
 20
1735.951837330736
 30
0.0
 11
132052.5589130095
 21
1818.460744436114
 31
0.0
  0
LINE
  5
12A2F
330
1F07
100
AcDbEntity
  8
器具
100
AcDbLine
 10
132056.4084641188
 20
1735.951837330736
 30
0.0
 11
132041.0113783953
 21
1747.124495107648
 31
0.0
  0
LINE
  5
12A30
330
1F07
100
AcDbEntity
  8
器具
100
AcDbLine
 10
132052.5589130095
 20
1818.460744436114
 30
0.0
 11
132037.1618272861
 21
1829.633402213047
 31
0.0
  0
LINE
  5
12A31
330
1F07
100
AcDbEntity
  8
器具
100
AcDbLine
 10
132132.2413743317
 20
1770.206514326106
 30
0.0
 11
132056.4084641188
 21
1735.951837330736
 31
0.0
  0
LINE
  5
12A32
330
1F07
100
AcDbEntity
  8
器具
100
AcDbLine
 10
132052.5589130095
 20
1818.460744436114
 30
0.0
 11
132131.2369418951
 21
1852.245258108403
 31
0.0
  0
LINE
  5
12A33
330
1F07
100
AcDbEntity
  8
器具
100
AcDbLine
 10
132131.2369418951
 20
1852.245258108403
 30
0.0
 11
132115.8398561718
 21
1863.417915885358
 31
0.0
  0
LINE
  5
12A34
330
1F07
100
AcDbEntity
  8
器具
100
AcDbLine
 10
131797.8988478958
 20
1725.424789823133
 30
0.0
 11
131876.5768767815
 21
1759.209303495423
 31
0.0
  0
LINE
  5
12A35
330
1F07
100
AcDbEntity
  8
器具
100
AcDbLine
 10
131891.973962505
 20
1748.036645718494
 30
0.0
 11
131876.5768767815
 21
1759.209303495423
 31
0.0
  0
LINE
  5
12A36
330
1F07
100
AcDbEntity
  8
器具
100
AcDbLine
 10
131813.2959336193
 20
1714.252132046222
 30
0.0
 11
131891.973962505
 21
1748.036645718494
 31
0.0
  0
LINE
  5
12A37
330
1F07
100
AcDbEntity
  8
器具
100
AcDbLine
 10
131813.2959336193
 20
1714.252132046222
 30
0.0
 11
131797.8988478958
 21
1725.424789823133
 31
0.0
  0
LINE
  5
12A38
330
1F07
100
AcDbEntity
  8
器具
100
AcDbLine
 10
131892.9783949415
 20
1665.997901936193
 30
0.0
 11
131817.1454847286
 21
1631.743224940823
 31
0.0
  0
LINE
  5
12A39
330
1F07
100
AcDbEntity
  8
器具
100
AcDbLine
 10
131817.1454847286
 20
1631.743224940823
 30
0.0
 11
131801.7483990051
 21
1642.915882717756
 31
0.0
  0
LINE
  5
12A3A
330
1F07
100
AcDbEntity
  8
器具
100
AcDbLine
 10
131817.1454847286
 20
1631.743224940823
 30
0.0
 11
131813.2959336193
 21
1714.252132046222
 31
0.0
  0
LINE
  5
12A3B
330
1F07
100
AcDbEntity
  8
器具
100
AcDbLine
 10
131801.7483990051
 20
1642.915882717756
 30
0.0
 11
131797.8988478958
 21
1725.424789823133
 31
0.0
  0
LINE
  5
12A3C
330
1F07
100
AcDbEntity
  8
器具
100
AcDbLine
 10
131891.973962505
 20
1748.036645718494
 30
0.0
 11
131897.0536193097
 21
1669.418190867283
 31
0.0
  0
LINE
  5
12A3D
330
1F07
100
AcDbEntity
  8
器具
100
AcDbLine
 10
132285.1265749528
 20
2025.684617422376
 30
0.0
 11
132264.5948898983
 21
2037.658893152217
 31
0.0
  0
ENDSEC
  0
SECTION
  2
OBJECTS
  0
DICTIONARY
  5
1EF5
330
0
100
AcDbDictionary
281
     1
  3
ACAD_COLOR
350
8C47
  3
ACAD_GROUP
350
1EF6
  3
ACAD_LAYOUT
350
1F02
  3
ACAD_MATERIAL
350
8C46
  3
ACAD_MLINESTYLE
350
1EFF
  3
ACAD_PLOTSETTINGS
350
1F01
  3
ACAD_PLOTSTYLENAME
350
1EF7
  3
ACAD_TABLESTYLE
350
8C48
  3
ACDBHEADERROUNDTRIPXREC
350
1525D
  3
AcDbVariableDictionary
350
4454
  0
DICTIONARY
  5
9A3A
330
1EEB
100
AcDbDictionary
280
     1
281
     1
  3
ACAD_LAYERFILTERS
360
A52F
  3
ACAD_LAYERSTATES
360
9A3B
  0
DICTIONARY
  5
980C
330
1F07
100
AcDbDictionary
280
     1
281
     1
  3
ACAD_SORTENTS
360
980D
  0
DICTIONARY
  5
8C47
102
{ACAD_REACTORS
330
1EF5
102
}
330
1EF5
100
AcDbDictionary
281
     1
  0
DICTIONARY
  5
1EF6
102
{ACAD_REACTORS
330
1EF5
102
}
330
1EF5
100
AcDbDictionary
281
     1
  0
DICTIONARY
  5
1F02
102
{ACAD_REACTORS
330
1EF5
102
}
330
1EF5
100
AcDbDictionary
281
     1
  3
Model
350
1F0A
  3
ﾚｲｱｳﾄ1
350
1F06
  0
DICTIONARY
  5
8C46
102
{ACAD_REACTORS
330
1EF5
102
}
330
1EF5
100
AcDbDictionary
281
     1
  0
DICTIONARY
  5
1EFF
102
{ACAD_REACTORS
330
1EF5
102
}
330
1EF5
100
AcDbDictionary
281
     1
  3
Standard
350
1F00
  0
DICTIONARY
  5
1F01
102
{ACAD_REACTORS
330
1EF5
102
}
330
1EF5
100
AcDbDictionary
281
     1
  0
ACDBDICTIONARYWDFLT
  5
1EF7
102
{ACAD_REACTORS
330
1EF5
102
}
330
1EF5
100
AcDbDictionary
281
     1
  3
Normal
350
1EF8
100
AcDbDictionaryWithDefault
340
1EF8
  0
DICTIONARY
  5
8C48
102
{ACAD_REACTORS
330
1EF5
102
}
330
1EF5
100
AcDbDictionary
281
     1
  3
Standard
350
8C49
  0
DICTIONARY
  5
1525D
102
{ACAD_REACTORS
330
1EF5
102
}
330
1EF5
100
AcDbDictionary
281
     1
  0
DICTIONARY
  5
4454
102
{ACAD_REACTORS
330
1EF5
102
}
330
1EF5
100
AcDbDictionary
281
     1
  3
CTABLESTYLE
350
8CAE
  3
DIMASSOC
350
8CAF
  3
PROJECTNAME
350
8CB0
  3
SORTENTS
350
4455
  0
DICTIONARY
  5
A52F
102
{ACAD_REACTORS
330
9A3A
102
}
330
9A3A
100
AcDbDictionary
280
     1
281
     1
  0
DICTIONARY
  5
9A3B
102
{ACAD_REACTORS
330
9A3A
102
}
330
9A3A
100
AcDbDictionary
281
     1
  0
SORTENTSTABLE
  5
980D
102
{ACAD_REACTORS
330
980C
102
}
330
980C
100
AcDbSortentsTable
330
1F07
331
129BE
  5
129C6
331
12A34
  5
12A3C
331
129C6
  5
129CE
331
1261F
  5
12629
331
129FD
  5
12A05
331
12A3C
  5
12A51
331
129CE
  5
129D6
331
12A05
  5
12A0D
331
129D6
  5
129DE
331
12A0D
  5
12A15
331
128E7
  5
1291B
331
129DE
  5
129E6
331
12A15
  5
12A1D
331
129A7
  5
129AF
331
129E6
  5
129EE
331
12A1D
  5
12A25
331
129AF
  5
129B7
331
129EE
  5
129F6
331
12A25
  5
12A2D
331
129B7
  5
129BF
331
129F6
  5
129FE
331
12A2D
  5
12A35
331
129BF
  5
129C7
331
12A35
  5
12A3D
331
129C7
  5
129CF
331
12620
  5
1262A
331
129FE
  5
12A06
331
12A3D
  5
12A52
331
129CF
  5
129D7
331
12A06
  5
12A0E
331
129D7
  5
129DF
331
12A0E
  5
12A16
331
129DF
  5
129E7
331
12A16
  5
12A1E
331
129A8
  5
129B0
331
129E7
  5
129EF
331
12A1E
  5
12A26
331
129EF
  5
129F7
331
129B0
  5
129B8
331
12A26
  5
12A2E
331
129B8
  5
129C0
331
129F7
  5
129FF
331
12A2E
  5
12A36
331
12A36
  5
12A4A
331
129C0
  5
129C8
331
129C8
  5
129D0
331
12621
  5
1262E
331
129FF
  5
12A07
331
129D0
  5
129D8
331
12A07
  5
12A0F
331
129D8
  5
129E0
331
12A0F
  5
12A17
331
12A17
  5
12A1F
331
129E0
  5
129E8
331
129A9
  5
129B1
331
129E8
  5
129F0
331
12A1F
  5
12A27
331
129F0
  5
129F8
331
129B1
  5
129B9
331
12A27
  5
12A2F
331
129B9
  5
129C1
331
12A2F
  5
12A37
331
12A37
  5
12A4B
331
129C1
  5
129C9
331
129F8
  5
12A00
331
12A00
  5
12A08
331
12622
  5
12632
331
129C9
  5
129D1
331
129D1
  5
129D9
331
12A08
  5
12A10
331
12A10
  5
12A18
331
129D9
  5
129E1
331
129E1
  5
129E9
331
12A18
  5
12A20
331
129AA
  5
129B2
331
129E9
  5
129F1
331
12A20
  5
12A28
331
129F1
  5
129F9
331
129B2
  5
129BA
331
12A28
  5
12A30
331
129BA
  5
129C2
331
12A30
  5
12A38
331
129C2
  5
129CA
331
129F9
  5
12A01
331
12A38
  5
12A4C
331
12A01
  5
12A09
331
129CA
  5
129D2
331
12743
  5
1274B
331
129D2
  5
129DA
331
12A09
  5
12A11
331
12A11
  5
12A19
331
129DA
  5
129E2
331
12A19
  5
12A21
331
129E2
  5
129EA
331
129AB
  5
129B3
331
129EA
  5
129F2
331
12A21
  5
12A29
331
12A29
  5
12A31
331
129B3
  5
129BB
331
129F2
  5
129FA
331
129BB
  5
129C3
331
12A31
  5
12A39
331
129C3
  5
129CB
331
129FA
  5
12A02
331
12A39
  5
12A4D
331
12A02
  5
12A0A
331
129CB
  5
129D3
331
129D3
  5
129DB
331
12A0A
  5
12A12
331
12A12
  5
12A1A
331
129DB
  5
129E3
331
12A1A
  5
12A22
331
129E3
  5
129EB
331
129AC
  5
129B4
331
129EB
  5
129F3
331
12A22
  5
12A2A
331
12A2A
  5
12A32
331
129B4
  5
129BC
331
129F3
  5
129FB
331
129BC
  5
129C4
331
12A32
  5
12A3A
331
129C4
  5
129CC
331
129FB
  5
12A03
331
12A3A
  5
12A4E
331
129CC
  5
129D4
331
12A03
  5
12A0B
331
129D4
  5
129DC
331
12A0B
  5
12A13
331
12A13
  5
12A1B
331
129DC
  5
129E4
331
12A1B
  5
12A23
331
129A5
  5
129AD
331
129E4
  5
129EC
331
129AD
  5
129B5
331
129EC
  5
129F4
331
12A23
  5
12A2B
331
12A2B
  5
12A33
331
129B5
  5
129BD
331
129F4
  5
129FC
331
129BD
  5
129C5
331
12A33
  5
12A3B
331
129C5
  5
129CD
331
129FC
  5
12A04
331
12A3B
  5
12A50
331
129CD
  5
129D5
331
12A04
  5
12A0C
331
129D5
  5
129DD
331
12A0C
  5
12A14
331
128E6
  5
1291A
331
129DD
  5
129E5
331
12A14
  5
12A1C
331
129A6
  5
129AE
331
129E5
  5
129ED
331
12A1C
  5
12A24
331
129AE
  5
129B6
331
129ED
  5
129F5
331
12A24
  5
12A2C
331
12A2C
  5
12A34
331
129B6
  5
129BE
331
129F5
  5
129FD
  0
LAYOUT
  5
1F0A
102
{ACAD_XDICTIONARY
360
15260
102
}
102
{ACAD_REACTORS
330
1F02
102
}
330
1F02
100
AcDbPlotSettings
  1

  2
DocuWorks Printer
  4
A4
  6

 40
5.408083438873291
 41
5.408078670501708
 42
5.408096313476562
 43
5.4080810546875
 44
210.0156707763672
 45
297.0106506347656
 46
0.0
 47
0.0
 48
124320.2324672828
 49
-2296.823102027058
140
136993.7725900888
141
6871.14444347586
142
1.0
143
40.0
 70
 11936
 72
     1
 73
     1
 74
     4
  7
aclt.ctb
 75
     0
147
0.01
148
-124320.2324672828
149
2296.823102027058
100
AcDbLayout
  1
Model
 70
     1
 71
     0
 10
0.0
 20
0.0
 11
12.0
 21
9.0
 12
0.0
 22
0.0
 32
0.0
 14
0.0
 24
0.0
 34
0.0
 15
0.0
 25
0.0
 35
0.0
146
0.0
 13
0.0
 23
0.0
 33
0.0
 16
1.0
 26
0.0
 36
0.0
 17
0.0
 27
1.0
 37
0.0
 76
     0
330
1F07
1001
ACAD_PSEXT
1000
DocuWorks Printer
1000
DocuWorks Printer Driver
1000
DocuWorks Port
1000

1070
     0
  0
LAYOUT
  5
1F06
102
{ACAD_XDICTIONARY
360
1525E
102
}
102
{ACAD_REACTORS
330
1F02
102
}
330
1F02
100
AcDbPlotSettings
  1

  2
HP DesignJet 430 (D / A1)
  4

  6

 40
0.0
 41
0.0
 42
0.0
 43
0.0
 44
0.0
 45
0.0
 46
0.0
 47
0.0
 48
0.0
 49
0.0
140
0.0
141
0.0
142
1.0
143
1.0
 70
   688
 72
     0
 73
     0
 74
     5
  7
aclt.ctb
 75
    16
147
1.0
148
0.0
149
0.0
100
AcDbLayout
  1
ﾚｲｱｳﾄ1
 70
     0
 71
     1
 10
0.0
 20
0.0
 11
12.0
 21
9.0
 12
0.0
 22
0.0
 32
0.0
 14
1.000000000000000E+20
 24
1.000000000000000E+20
 34
1.000000000000000E+20
 15
-1.000000000000000E+20
 25
-1.000000000000000E+20
 35
-1.000000000000000E+20
146
0.0
 13
0.0
 23
0.0
 33
0.0
 16
1.0
 26
0.0
 36
0.0
 17
0.0
 27
1.0
 37
0.0
 76
     0
330
1F03
  0
MLINESTYLE
  5
1F00
102
{ACAD_REACTORS
330
1EFF
102
}
330
1EFF
100
AcDbMlineStyle
  2
STANDARD
 70
     0
  3

 62
   256
 51
90.0
 52
90.0
 71
     2
 49
0.5
 62
   256
  6
BYLAYER
 49
-0.5
 62
   256
  6
BYLAYER
  0
ACDBPLACEHOLDER
  5
1EF8
102
{ACAD_REACTORS
330
1EF7
102
}
330
1EF7
  0
TABLESTYLE
  5
8C49
102
{ACAD_REACTORS
330
8C48
102
}
330
8C48
100
AcDbTableStyle
  3
Standard
 70
     0
 71
     0
 40
0.06
 41
0.06
280
     0
281
     0
  7
STANDARD
140
0.18
170
     2
 62
     0
 63
     7
283
     0
274
    -2
284
     1
 64
     0
275
    -2
285
     1
 65
     0
276
    -2
286
     1
 66
     0
277
    -2
287
     1
 67
     0
278
    -2
288
     1
 68
     0
279
    -2
289
     1
 69
     0
  7
STANDARD
140
0.25
170
     5
 62
     0
 63
     7
283
     0
274
    -2
284
     1
 64
     0
275
    -2
285
     1
 65
     0
276
    -2
286
     1
 66
     0
277
    -2
287
     1
 67
     0
278
    -2
288
     1
 68
     0
279
    -2
289
     1
 69
     0
  7
STANDARD
140
0.18
170
     5
 62
     0
 63
     7
283
     0
274
    -2
284
     1
 64
     0
275
    -2
285
     1
 65
     0
276
    -2
286
     1
 66
     0
277
    -2
287
     1
 67
     0
278
    -2
288
     1
 68
     0
279
    -2
289
     1
 69
     0
  0
DICTIONARYVAR
  5
8CAE
102
{ACAD_REACTORS
330
4454
102
}
330
4454
100
DictionaryVariables
280
     0
  1
STANDARD
  0
DICTIONARYVAR
  5
8CAF
102
{ACAD_REACTORS
330
4454
102
}
330
4454
100
DictionaryVariables
280
     0
  1
1
  0
DICTIONARYVAR
  5
8CB0
102
{ACAD_REACTORS
330
4454
102
}
330
4454
100
DictionaryVariables
280
     0
  1

  0
DICTIONARYVAR
  5
4455
102
{ACAD_REACTORS
330
4454
102
}
330
4454
100
DictionaryVariables
280
     0
  1
96
  0
DICTIONARY
  5
15260
330
1F0A
100
AcDbDictionary
280
     1
281
     1
  3
ACAD_XREC_ROUNDTRIP
360
15261
  0
DICTIONARY
  5
1525E
330
1F06
100
AcDbDictionary
280
     1
281
     1
  3
ACAD_XREC_ROUNDTRIP
360
1525F
  0
XRECORD
  5
15261
102
{ACAD_REACTORS
330
15260
102
}
330
15260
100
AcDbXrecord
280
     1
102
SHADEPLOT
 70
     0
102
SHADEPLOTRESLEVEL
 70
     2
102
SHADEPLOTCUSTOMDPI
 70
   300
  0
XRECORD
  5
1525F
102
{ACAD_REACTORS
330
1525E
102
}
330
1525E
100
AcDbXrecord
280
     1
102
SHADEPLOT
 70
     0
102
SHADEPLOTRESLEVEL
 70
     2
102
SHADEPLOTCUSTOMDPI
 70
   300
  0
ENDSEC
  0
EOF
