  0
SECTION
  2
HEADER
  9
$ACADVER
  1
AC1015
  9
$ACADMAINTVER
 70
    20
  9
$DWGCODEPAGE
  3
ANSI_932
  9
$INSBASE
 10
0.0
 20
0.0
 30
0.0
  9
$EXTMIN
 10
1719.449971256603
 20
-32859.39555367082
 30
-0.0015258207003583
  9
$EXTMAX
 10
9623.854190107202
 20
-25570.3666812859
 30
0.0000000349246037
  9
$LIMMIN
 10
0.0
 20
0.0
  9
$LIMMAX
 10
59400.0
 20
42000.0
  9
$ORTHOMODE
 70
     1
  9
$REGENMODE
 70
     1
  9
$FILLMODE
 70
     1
  9
$QTEXTMODE
 70
     0
  9
$MIRRTEXT
 70
     1
  9
$LTSCALE
 40
100.0
  9
$ATTMODE
 70
     1
  9
$TEXTSIZE
 40
300.0
  9
$TRACEWID
 40
0.05
  9
$TEXTSTYLE
  7
スタイル1
  9
$CLAYER
  8
下書き
  9
$CELTYPE
  6
ByLayer
  9
$CECOLOR
 62
   256
  9
$CELTSCALE
 40
1.0
  9
$DISPSILH
 70
     0
  9
$DIMSCALE
 40
100.0
  9
$DIMASZ
 40
2.0
  9
$DIMEXO
 40
2.0
  9
$DIMDLI
 40
0.38
  9
$DIMRND
 40
0.0
  9
$DIMDLE
 40
0.0
  9
$DIMEXE
 40
0.18
  9
$DIMTP
 40
0.0
  9
$DIMTM
 40
0.0
  9
$DIMTXT
 40
2.0
  9
$DIMCEN
 40
0.09
  9
$DIMTSZ
 40
0.0
  9
$DIMTOL
 70
     0
  9
$DIMLIM
 70
     0
  9
$DIMTIH
 70
     0
  9
$DIMTOH
 70
     1
  9
$DIMSE1
 70
     0
  9
$DIMSE2
 70
     0
  9
$DIMTAD
 70
     1
  9
$DIMZIN
 70
     0
  9
$DIMBLK
  1
Open30
  9
$DIMASO
 70
     1
  9
$DIMSHO
 70
     1
  9
$DIMPOST
  1

  9
$DIMAPOST
  1

  9
$DIMALT
 70
     0
  9
$DIMALTD
 70
     2
  9
$DIMALTF
 40
25.4
  9
$DIMLFAC
 40
1.0
  9
$DIMTOFL
 70
     0
  9
$DIMTVP
 40
0.0
  9
$DIMTIX
 70
     0
  9
$DIMSOXD
 70
     0
  9
$DIMSAH
 70
     0
  9
$DIMBLK1
  1

  9
$DIMBLK2
  1

  9
$DIMSTYLE
  2
STANDARD
  9
$DIMCLRD
 70
     0
  9
$DIMCLRE
 70
     0
  9
$DIMCLRT
 70
     0
  9
$DIMTFAC
 40
1.0
  9
$DIMGAP
 40
1.0
  9
$DIMJUST
 70
     0
  9
$DIMSD1
 70
     0
  9
$DIMSD2
 70
     0
  9
$DIMTOLJ
 70
     1
  9
$DIMTZIN
 70
     0
  9
$DIMALTZ
 70
     0
  9
$DIMALTTZ
 70
     0
  9
$DIMUPT
 70
     0
  9
$DIMDEC
 70
     1
  9
$DIMTDEC
 70
     1
  9
$DIMALTU
 70
     2
  9
$DIMALTTD
 70
     2
  9
$DIMTXSTY
  7
STANDARD
  9
$DIMAUNIT
 70
     0
  9
$DIMADEC
 70
     0
  9
$DIMALTRND
 40
0.0
  9
$DIMAZIN
 70
     0
  9
$DIMDSEP
 70
    46
  9
$DIMATFIT
 70
     3
  9
$DIMFRAC
 70
     0
  9
$DIMLDRBLK
  1
Open30
  9
$DIMLUNIT
 70
     2
  9
$DIMLWD
 70
    -2
  9
$DIMLWE
 70
    -2
  9
$DIMTMOVE
 70
     0
  9
$LUNITS
 70
     2
  9
$LUPREC
 70
     4
  9
$SKETCHINC
 40
0.1
  9
$FILLETRAD
 40
0.0
  9
$AUNITS
 70
     0
  9
$AUPREC
 70
     0
  9
$MENU
  1
acad
  9
$ELEVATION
 40
0.0
  9
$PELEVATION
 40
0.0
  9
$THICKNESS
 40
0.0
  9
$LIMCHECK
 70
     0
  9
$CHAMFERA
 40
0.0
  9
$CHAMFERB
 40
0.0
  9
$CHAMFERC
 40
0.0
  9
$CHAMFERD
 40
0.0
  9
$SKPOLY
 70
     0
  9
$TDCREATE
 40
2426945.499536991
  9
$TDUCREATE
 40
2426945.124536991
  9
$TDUPDATE
 40
2456231.689720232
  9
$TDUUPDATE
 40
2456231.314720232
  9
$TDINDWG
 40
1.7094446991
  9
$TDUSRTIMER
 40
1.7094428472
  9
$USRTIMER
 70
     1
  9
$ANGBASE
 50
0.0
  9
$ANGDIR
 70
     0
  9
$PDMODE
 70
     0
  9
$PDSIZE
 40
0.0
  9
$PLINEWID
 40
0.0
  9
$SPLFRAME
 70
     0
  9
$SPLINETYPE
 70
     6
  9
$SPLINESEGS
 70
     8
  9
$HANDSEED
  5
15221
  9
$SURFTAB1
 70
     6
  9
$SURFTAB2
 70
     6
  9
$SURFTYPE
 70
     6
  9
$SURFU
 70
     6
  9
$SURFV
 70
     6
  9
$UCSBASE
  2

  9
$UCSNAME
  2

  9
$UCSORG
 10
0.0
 20
0.0
 30
0.0
  9
$UCSXDIR
 10
1.0
 20
0.0
 30
0.0
  9
$UCSYDIR
 10
0.0
 20
1.0
 30
0.0
  9
$UCSORTHOREF
  2

  9
$UCSORTHOVIEW
 70
     0
  9
$UCSORGTOP
 10
0.0
 20
0.0
 30
0.0
  9
$UCSORGBOTTOM
 10
0.0
 20
0.0
 30
0.0
  9
$UCSORGLEFT
 10
0.0
 20
0.0
 30
0.0
  9
$UCSORGRIGHT
 10
0.0
 20
0.0
 30
0.0
  9
$UCSORGFRONT
 10
0.0
 20
0.0
 30
0.0
  9
$UCSORGBACK
 10
0.0
 20
0.0
 30
0.0
  9
$PUCSBASE
  2

  9
$PUCSNAME
  2

  9
$PUCSORG
 10
0.0
 20
0.0
 30
0.0
  9
$PUCSXDIR
 10
1.0
 20
0.0
 30
0.0
  9
$PUCSYDIR
 10
0.0
 20
1.0
 30
0.0
  9
$PUCSORTHOREF
  2

  9
$PUCSORTHOVIEW
 70
     0
  9
$PUCSORGTOP
 10
0.0
 20
0.0
 30
0.0
  9
$PUCSORGBOTTOM
 10
0.0
 20
0.0
 30
0.0
  9
$PUCSORGLEFT
 10
0.0
 20
0.0
 30
0.0
  9
$PUCSORGRIGHT
 10
0.0
 20
0.0
 30
0.0
  9
$PUCSORGFRONT
 10
0.0
 20
0.0
 30
0.0
  9
$PUCSORGBACK
 10
0.0
 20
0.0
 30
0.0
  9
$USERI1
 70
     0
  9
$USERI2
 70
     0
  9
$USERI3
 70
     0
  9
$USERI4
 70
     0
  9
$USERI5
 70
     0
  9
$USERR1
 40
0.0
  9
$USERR2
 40
0.0
  9
$USERR3
 40
0.0
  9
$USERR4
 40
0.0
  9
$USERR5
 40
0.0
  9
$WORLDVIEW
 70
     1
  9
$SHADEDGE
 70
     3
  9
$SHADEDIF
 70
    70
  9
$TILEMODE
 70
     1
  9
$MAXACTVP
 70
    16
  9
$PINSBASE
 10
0.0
 20
0.0
 30
0.0
  9
$PLIMCHECK
 70
     0
  9
$PEXTMIN
 10
1.000000000000000E+20
 20
1.000000000000000E+20
 30
1.000000000000000E+20
  9
$PEXTMAX
 10
-1.000000000000000E+20
 20
-1.000000000000000E+20
 30
-1.000000000000000E+20
  9
$PLIMMIN
 10
0.0
 20
0.0
  9
$PLIMMAX
 10
12.0
 20
9.0
  9
$UNITMODE
 70
     0
  9
$VISRETAIN
 70
     0
  9
$PLINEGEN
 70
     1
  9
$PSLTSCALE
 70
     0
  9
$TREEDEPTH
 70
  3020
  9
$CMLSTYLE
  2
Standard
  9
$CMLJUST
 70
     0
  9
$CMLSCALE
 40
1.0
  9
$PROXYGRAPHICS
 70
     1
  9
$MEASUREMENT
 70
     0
  9
$CELWEIGHT
370
    -1
  9
$ENDCAPS
280
     0
  9
$JOINSTYLE
280
     0
  9
$LWDISPLAY
290
     0
  9
$INSUNITS
 70
     0
  9
$HYPERLINKBASE
  1

  9
$STYLESHEET
  1

  9
$XEDIT
290
     1
  9
$CEPSNTYPE
380
     0
  9
$PSTYLEMODE
290
     1
  9
$FINGERPRINTGUID
  2
{8637CE02-3222-11D7-99D2-0040267E6A47}
  9
$VERSIONGUID
  2
{7E60DD92-5520-431D-AE21-F49F0B1A2FC5}
  9
$EXTNAMES
290
     1
  9
$PSVPSCALE
 40
0.0
  9
$OLESTARTUP
290
     0
  0
ENDSEC
  0
SECTION
  2
CLASSES
  0
CLASS
  1
ACDBDICTIONARYWDFLT
  2
AcDbDictionaryWithDefault
  3
ObjectDBX Classes
 90
        0
280
     0
281
     0
  0
CLASS
  1
ACDBPLACEHOLDER
  2
AcDbPlaceHolder
  3
ObjectDBX Classes
 90
        0
280
     0
281
     0
  0
CLASS
  1
LAYOUT
  2
AcDbLayout
  3
ObjectDBX Classes
 90
        0
280
     0
281
     0
  0
CLASS
  1
DICTIONARYVAR
  2
AcDbDictionaryVar
  3
ObjectDBX Classes
 90
        0
280
     0
281
     0
  0
CLASS
  1
TABLESTYLE
  2
AcDbTableStyle
  3
ObjectDBX Classes
 90
     2047
280
     0
281
     0
  0
CLASS
  1
SORTENTSTABLE
  2
AcDbSortentsTable
  3
ObjectDBX Classes
 90
        0
280
     0
281
     0
  0
ENDSEC
  0
SECTION
  2
TABLES
  0
TABLE
  2
VPORT
  5
1EF1
330
0
100
AcDbSymbolTable
 70
     3
  0
VPORT
  5
1521B
330
1EF1
100
AcDbSymbolTableRecord
100
AcDbViewportTableRecord
  2
*Active
 70
     0
 10
0.0
 20
0.0
 11
1.0
 21
1.0
 12
5671.652080681903
 22
-29214.88111747836
 13
0.0
 23
0.0
 14
1000.0
 24
1000.0
 15
1000.0
 25
1000.0
 16
0.0
 26
0.0
 36
1.0
 17
0.0
 27
0.0
 37
0.0
 40
7350.713178780279
 41
1.384180790960451
 42
50.0
 43
0.0
 44
0.0
 50
0.0
 51
0.0
 71
     0
 72
   100
 73
     1
 74
     1
 75
     0
 76
     0
 77
     0
 78
     0
281
     0
 65
     1
110
0.0
120
0.0
130
0.0
111
1.0
121
0.0
131
0.0
112
0.0
122
1.0
132
0.0
 79
     0
146
0.0
  0
ENDTAB
  0
TABLE
  2
LTYPE
  5
1EEE
330
0
100
AcDbSymbolTable
 70
     8
  0
LTYPE
  5
1EFC
330
1EEE
100
AcDbSymbolTableRecord
100
AcDbLinetypeTableRecord
  2
ByBlock
 70
     0
  3

 72
    65
 73
     0
 40
0.0
  0
LTYPE
  5
1EFD
330
1EEE
100
AcDbSymbolTableRecord
100
AcDbLinetypeTableRecord
  2
ByLayer
 70
     0
  3

 72
    65
 73
     0
 40
0.0
  0
LTYPE
  5
1EFE
330
1EEE
100
AcDbSymbolTableRecord
100
AcDbLinetypeTableRecord
  2
CONTINUOUS
 70
     0
  3
Solid line
 72
    65
 73
     0
 40
0.0
  0
LTYPE
  5
1F0C
330
1EEE
100
AcDbSymbolTableRecord
100
AcDbLinetypeTableRecord
  2
HIDDEN
 70
     0
  3
__ __ __ __ __ __ __ __ __ __ __ __ __ __ __ __
 72
    65
 73
     5
 40
8.0
 49
1.0
 74
     0
 49
-2.0
 74
     0
 49
2.0
 74
     0
 49
-2.0
 74
     0
 49
1.0
 74
     0
  0
LTYPE
  5
1F0D
330
1EEE
100
AcDbSymbolTableRecord
100
AcDbLinetypeTableRecord
  2
DOT
 70
     0
  3
. . . . . . . . . . . . . . . . . . . . . . . .
 72
    65
 73
     3
 40
1.6
 49
0.4
 74
     0
 49
-0.8
 74
     0
 49
0.4
 74
     0
  0
LTYPE
  5
1F0E
330
1EEE
100
AcDbSymbolTableRecord
100
AcDbLinetypeTableRecord
  2
CENTER
 70
     0
  3
____ _ ____ _ ____ _ ____ _ ____ _ ____ _ ____ 
 72
    65
 73
     5
 40
12.0
 49
5.0
 74
     0
 49
-0.8
 74
     0
 49
0.4
 74
     0
 49
-0.8
 74
     0
 49
5.0
 74
     0
  0
LTYPE
  5
1F0F
330
1EEE
100
AcDbSymbolTableRecord
100
AcDbLinetypeTableRecord
  2
DIVIDE
 70
     0
  3
____ . . ____ . . ____ . . ____ . . ____ . . __
 72
    65
 73
     7
 40
13.2
 49
5.0
 74
     0
 49
-0.8
 74
     0
 49
0.4
 74
     0
 49
-0.8
 74
     0
 49
0.4
 74
     0
 49
-0.8
 74
     0
 49
5.0
 74
     0
  0
LTYPE
  5
BC93
330
1EEE
100
AcDbSymbolTableRecord
100
AcDbLinetypeTableRecord
  2
DASH_CENTER
 70
     0
  3
Dash_Center
 72
    65
 73
     4
 40
36.0
 49
24.0
 74
     0
 49
-3.0
 74
     0
 49
6.0
 74
     0
 49
-3.0
 74
     0
  0
LTYPE
  5
CA49
330
1EEE
100
AcDbSymbolTableRecord
100
AcDbLinetypeTableRecord
  2
STYLE_01
 70
     0
  3

 72
    65
 73
     2
 40
0.125
 49
0.0625
 74
     0
 49
-0.0625
 74
     0
  0
LTYPE
  5
CA4A
330
1EEE
100
AcDbSymbolTableRecord
100
AcDbLinetypeTableRecord
  2
STYLE_07
 70
     0
  3

 72
    65
 73
     2
 40
0.125
 49
0.03125
 74
     0
 49
-0.09375
 74
     0
  0
ENDTAB
  0
TABLE
  2
LAYER
  5
1EEB
102
{ACAD_XDICTIONARY
360
9A3A
102
}
330
0
100
AcDbSymbolTable
 70
    13
  0
LAYER
  5
1EF9
330
1EEB
100
AcDbSymbolTableRecord
100
AcDbLayerTableRecord
  2
0
 70
     0
 62
     7
  6
CONTINUOUS
370
    -3
390
1EF8
  0
LAYER
  5
4075
330
1EEB
100
AcDbSymbolTableRecord
100
AcDbLayerTableRecord
  2
記号
 70
     0
 62
     4
  6
CONTINUOUS
370
    -3
390
1EF8
  0
LAYER
  5
42A3
330
1EEB
100
AcDbSymbolTableRecord
100
AcDbLayerTableRecord
  2
Defpoints
 70
     4
 62
     7
  6
CONTINUOUS
290
     0
370
    -3
390
1EF8
  0
LAYER
  5
58FC
330
1EEB
100
AcDbSymbolTableRecord
100
AcDbLayerTableRecord
  2
リスト
 70
     0
 62
     8
  6
CONTINUOUS
370
    13
390
1EF8
  0
LAYER
  5
8CB6
330
1EEB
100
AcDbSymbolTableRecord
100
AcDbLayerTableRecord
  2
器具
 70
     0
 62
     4
  6
CONTINUOUS
370
    -3
390
1EF8
  0
LAYER
  5
8CB7
330
1EEB
100
AcDbSymbolTableRecord
100
AcDbLayerTableRecord
  2
レイヤー_1
 70
     0
 62
   160
  6
CONTINUOUS
370
    -3
390
1EF8
  0
LAYER
  5
9466
330
1EEB
100
AcDbSymbolTableRecord
100
AcDbLayerTableRecord
  2
画層1
 70
     4
 62
   160
  6
CONTINUOUS
370
    -3
390
1EF8
1001
AcAecLayerStandard
1000

1000

  0
LAYER
  5
9F35
330
1EEB
100
AcDbSymbolTableRecord
100
AcDbLayerTableRecord
  2
下書き
 70
     0
 62
     6
  6
CONTINUOUS
370
    -3
390
1EF8
1001
AcAecLayerStandard
1000

1000

  0
LAYER
  5
A81A
330
1EEB
100
AcDbSymbolTableRecord
100
AcDbLayerTableRecord
  2
007
 70
     0
 62
     1
  6
CONTINUOUS
370
    -3
390
1EF8
  0
LAYER
  5
BC94
330
1EEB
100
AcDbSymbolTableRecord
100
AcDbLayerTableRecord
  2
図面
 70
     0
 62
     5
  6
CONTINUOUS
370
    -3
390
1EF8
  0
LAYER
  5
CA4B
330
1EEB
100
AcDbSymbolTableRecord
100
AcDbLayerTableRecord
  2
1
 70
     0
 62
     8
  6
CONTINUOUS
370
    -3
390
1EF8
1001
AcAecLayerStandard
1000

1000

  0
LAYER
  5
1246F
330
1EEB
100
AcDbSymbolTableRecord
100
AcDbLayerTableRecord
  2
寸法・文字
 70
     0
 62
     4
  6
CONTINUOUS
370
    13
390
1EF8
1001
AcAecLayerStandard
1000

1000

  0
LAYER
  5
13854
330
1EEB
100
AcDbSymbolTableRecord
100
AcDbLayerTableRecord
  2
製品
 70
     0
 62
     1
  6
CONTINUOUS
370
    -3
390
1EF8
1001
AcAecLayerStandard
1000

1000

  0
ENDTAB
  0
TABLE
  2
STYLE
  5
1EEC
330
0
100
AcDbSymbolTable
 70
    12
  0
STYLE
  5
1EFA
330
1EEC
100
AcDbSymbolTableRecord
100
AcDbTextStyleTableRecord
  2
STANDARD
 70
     0
 40
280.0
 41
1.0
 50
0.0
 71
     0
 42
280.0
  3
MS Gothic.ttf
  4

1001
ACAD
1000
MS Gothic
1071
    32817
  0
STYLE
  5
1F2D
330
1EEC
100
AcDbSymbolTableRecord
100
AcDbTextStyleTableRecord
  2
ＤＨＰ平成ゴシックW5
 70
     0
 40
1000.0
 41
1.0
 50
0.0
 71
     0
 42
1000.0
  3
txt
  4
extfont
  0
STYLE
  5
1F2E
330
1EEC
100
AcDbSymbolTableRecord
100
AcDbTextStyleTableRecord
  2
TATEDRACAD
 70
     4
 40
1000.0
 41
1.0
 50
0.0
 71
     0
 42
1000.0
  3
txt
  4
extfont
  0
STYLE
  5
1F2F
330
1EEC
100
AcDbSymbolTableRecord
100
AcDbTextStyleTableRecord
  2
ＤＨＰ平成ゴシックW51
 70
     0
 40
1000.0
 41
1.0
 50
0.0
 71
     0
 42
1000.0
  3
txt
  4
extfont
  0
STYLE
  5
1F30
330
1EEC
100
AcDbSymbolTableRecord
100
AcDbTextStyleTableRecord
  2
ＪＳＰゴシック
 70
     0
 40
1000.0
 41
1.0
 50
0.0
 71
     0
 42
1000.0
  3
txt
  4
extfont
  0
STYLE
  5
1F31
330
1EEC
100
AcDbSymbolTableRecord
100
AcDbTextStyleTableRecord
  2
ＭＳ_ゴシック
 70
     0
 40
1000.0
 41
1.0
 50
0.0
 71
     0
 42
1000.0
  3
txt
  4
extfont
  0
STYLE
  5
A258
330
1EEC
100
AcDbSymbolTableRecord
100
AcDbTextStyleTableRecord
  2
スタイル1
 70
     0
 40
300.0
 41
1.0
 50
0.0
 71
     0
 42
300.0
  3
MS Gothic.ttf
  4

1001
ACAD
1000
MS Gothic
1071
    32817
  0
STYLE
  5
A547
330
1EEC
100
AcDbSymbolTableRecord
100
AcDbTextStyleTableRecord
  2
WMF-ＭＳ Ｐゴシック0
 70
     0
 40
0.0
 41
1.0
 50
0.0
 71
     0
 42
280.0
  3
MS PGothic.ttf
  4

1001
ACAD
1000
MS PGothic
1071
    32816
  0
STYLE
  5
A58D
330
1EEC
100
AcDbSymbolTableRecord
100
AcDbTextStyleTableRecord
  2
WMF-System0
 70
     0
 40
0.0
 41
1.0
 50
0.0
 71
     0
 42
280.0
  3

  4

  0
STYLE
  5
A81B
330
1EEC
100
AcDbSymbolTableRecord
100
AcDbTextStyleTableRecord
  2
ＭＳ ゴシック
 70
     0
 40
450.0
 41
0.85
 50
0.0
 71
     0
 42
450.0
  3
MS Gothic.ttf
  4

1001
ACAD
1000
MS Gothic
1071
    32817
  0
STYLE
  5
CA4C
330
1EEC
100
AcDbSymbolTableRecord
100
AcDbTextStyleTableRecord
  2
_______
 70
     0
 40
0.0
 41
1.0
 50
0.0
 71
     0
 42
0.0
  3
MS Gothic.ttf
  4
ＭＳ ゴシック
1001
ACAD
1000
ＭＳ ゴシック
1071
        0
  0
STYLE
  5
14676
330
1EEC
100
AcDbSymbolTableRecord
100
AcDbTextStyleTableRecord
  2
ヒラギノ角ゴ Pro W3
 70
     0
 40
0.0
 41
1.0
 50
0.0
 71
     0
 42
0.0
  3
MS Gothic.ttf
  4

1001
ACAD
1000
MS Gothic
1071
    32817
  0
ENDTAB
  0
TABLE
  2
VIEW
  5
1EEF
330
0
100
AcDbSymbolTable
 70
     0
  0
ENDTAB
  0
TABLE
  2
UCS
  5
1EF0
330
0
100
AcDbSymbolTable
 70
     0
  0
ENDTAB
  0
TABLE
  2
APPID
  5
1EF2
330
0
100
AcDbSymbolTable
 70
     3
  0
APPID
  5
1EFB
330
1EF2
100
AcDbSymbolTableRecord
100
AcDbRegAppTableRecord
  2
ACAD
 70
     0
  0
APPID
  5
9467
330
1EF2
100
AcDbSymbolTableRecord
100
AcDbRegAppTableRecord
  2
AcAecLayerStandard
 70
     0
  0
APPID
  5
9D2E
330
1EF2
100
AcDbSymbolTableRecord
100
AcDbRegAppTableRecord
  2
ACAD_PSEXT
 70
     0
  0
ENDTAB
  0
TABLE
  2
DIMSTYLE
  5
1EF3
330
0
100
AcDbSymbolTable
 70
     1
100
AcDbDimStyleTable
 71
     1
340
1F32
  0
DIMSTYLE
105
1F32
330
1EF3
100
AcDbSymbolTableRecord
100
AcDbDimStyleTableRecord
  2
STANDARD
 70
     0
279
     2
340
1EFA
  0
ENDTAB
  0
TABLE
  2
BLOCK_RECORD
  5
1EEA
330
0
100
AcDbSymbolTable
 70
     3
  0
BLOCK_RECORD
  5
1F07
102
{ACAD_XDICTIONARY
360
980C
102
}
330
1EEA
100
AcDbSymbolTableRecord
100
AcDbBlockTableRecord
  2
*Model_Space
340
1F0A
  0
BLOCK_RECORD
  5
1F03
330
1EEA
100
AcDbSymbolTableRecord
100
AcDbBlockTableRecord
  2
*Paper_Space
340
1F06
  0
BLOCK_RECORD
  5
429C
330
1EEA
100
AcDbSymbolTableRecord
100
AcDbBlockTableRecord
  2
_Open30
340
0
  0
BLOCK_RECORD
  5
A543
330
1EEA
100
AcDbSymbolTableRecord
100
AcDbBlockTableRecord
  2
WMF0
340
0
  0
BLOCK_RECORD
  5
1384E
330
1EEA
100
AcDbSymbolTableRecord
100
AcDbBlockTableRecord
  2
_Open
340
0
  0
ENDTAB
  0
ENDSEC
  0
SECTION
  2
BLOCKS
  0
BLOCK
  5
1F08
330
1F07
100
AcDbEntity
  8
0
100
AcDbBlockBegin
  2
*Model_Space
 70
     0
 10
0.0
 20
0.0
 30
0.0
  3
*Model_Space
  1

  0
ENDBLK
  5
1F09
330
1F07
100
AcDbEntity
  8
0
100
AcDbBlockEnd
  0
BLOCK
  5
1F04
330
1F03
100
AcDbEntity
 67
     1
  8
0
100
AcDbBlockBegin
  2
*Paper_Space
 70
     0
 10
0.0
 20
0.0
 30
0.0
  3
*Paper_Space
  1

  0
ENDBLK
  5
1F05
330
1F03
100
AcDbEntity
 67
     1
  8
0
100
AcDbBlockEnd
  0
BLOCK
  5
42A0
330
429C
100
AcDbEntity
  8
0
100
AcDbBlockBegin
  2
_Open30
 70
     0
 10
0.0
 20
0.0
 30
0.0
  3
_Open30
  1

  0
LINE
  5
429D
330
429C
100
AcDbEntity
  8
記号
  6
DOT
 62
     0
370
    -2
100
AcDbLine
 10
-1.0
 20
0.26794919
 30
0.0
 11
0.0
 21
0.0
 31
0.0
  0
LINE
  5
429E
330
429C
100
AcDbEntity
  8
記号
  6
DOT
 62
     0
370
    -2
100
AcDbLine
 10
0.0
 20
0.0
 30
0.0
 11
-1.0
 21
-0.26794919
 31
0.0
  0
LINE
  5
429F
330
429C
100
AcDbEntity
  8
記号
  6
DOT
 62
     0
370
    -2
100
AcDbLine
 10
0.0
 20
0.0
 30
0.0
 11
-1.0
 21
0.0
 31
0.0
  0
ENDBLK
  5
42A1
330
429C
100
AcDbEntity
  8
0
100
AcDbBlockEnd
  0
BLOCK
  5
A546
330
A543
100
AcDbEntity
  8
0
 62
     7
370
     0
100
AcDbBlockBegin
  2
WMF0
 70
     0
 10
0.0
 20
0.0
 30
0.0
  3
WMF0
  1

  0
TEXT
  5
A548
330
A543
100
AcDbEntity
  8
0
 62
     7
370
     0
100
AcDbText
 10
4302.31530976598
 20
-1290.694592929794
 30
0.0
 40
894.8815844313239
  1
LEDﾀﾞｳﾝﾗｲﾄ
  7
WMF-ＭＳ Ｐゴシック0
100
AcDbText
  0
TEXT
  5
A54A
330
A543
100
AcDbEntity
  8
0
 62
     7
370
     0
100
AcDbText
 10
23920.87312229885
 20
-1290.694592929794
 30
0.0
 40
894.8815844313239
  1
LEDﾀﾞｳﾝﾗｲﾄ
  7
WMF-ＭＳ Ｐゴシック0
100
AcDbText
  0
TEXT
  5
A54B
330
A543
100
AcDbEntity
  8
0
 62
     7
370
     0
100
AcDbText
 10
43539.43093483171
 20
-1290.694592929794
 30
0.0
 40
894.8815844313239
  1
LEDﾀﾞｳﾝﾗｲﾄ
  7
WMF-ＭＳ Ｐゴシック0
100
AcDbText
  0
TEXT
  5
A54C
330
A543
100
AcDbEntity
  8
0
 62
     7
370
     0
100
AcDbText
 10
63157.98874736458
 20
-1290.694592929794
 30
0.0
 40
894.8815844313239
  1
LEDﾀﾞｳﾝﾗｲﾄ
  7
WMF-ＭＳ Ｐゴシック0
100
AcDbText
  0
TEXT
  5
A54D
330
A543
100
AcDbEntity
  8
0
 62
     7
370
     0
100
AcDbText
 10
1290.694592929794
 20
-2753.481798250227
 30
0.0
 40
894.8815844313239
  1
D1
  7
WMF-ＭＳ Ｐゴシック0
100
AcDbText
  0
TEXT
  5
A54E
330
A543
100
AcDbEntity
  8
0
 62
     7
370
     0
100
AcDbText
 10
4302.31530976598
 20
-2753.481798250227
 30
0.0
 40
894.8815844313239
  1
BML-26181WW-110
  7
WMF-ＭＳ Ｐゴシック0
100
AcDbText
  0
TEXT
  5
A54F
330
A543
100
AcDbEntity
  8
0
 62
     7
370
     0
100
AcDbText
 10
20909.25240546266
 20
-2753.481798250227
 30
0.0
 40
894.8815844313239
  1
D2
  7
WMF-ＭＳ Ｐゴシック0
100
AcDbText
  0
TEXT
  5
A550
330
A543
100
AcDbEntity
  8
0
 62
     7
370
     0
100
AcDbText
 10
23920.87312229885
 20
-2753.481798250227
 30
0.0
 40
894.8815844313239
  1
BML-26187WW-110
  7
WMF-ＭＳ Ｐゴシック0
100
AcDbText
  0
TEXT
  5
A551
330
A543
100
AcDbEntity
  8
0
 62
     7
370
     0
100
AcDbText
 10
40527.81021799553
 20
-2753.481798250227
 30
0.0
 40
894.8815844313239
  1
D3
  7
WMF-ＭＳ Ｐゴシック0
100
AcDbText
  0
TEXT
  5
A552
330
A543
100
AcDbEntity
  8
0
 62
     7
370
     0
100
AcDbText
 10
43539.43093483171
 20
-2753.481798250227
 30
0.0
 40
894.8815844313239
  1
BML-26199WW-110
  7
WMF-ＭＳ Ｐゴシック0
100
AcDbText
  0
TEXT
  5
A553
330
A543
100
AcDbEntity
  8
0
 62
     7
370
     0
100
AcDbText
 10
60146.36803052839
 20
-2753.481798250227
 30
0.0
 40
894.8815844313239
  1
D4
  7
WMF-ＭＳ Ｐゴシック0
100
AcDbText
  0
TEXT
  5
A554
330
A543
100
AcDbEntity
  8
0
 62
     7
370
     0
100
AcDbText
 10
63157.98874736458
 20
-2753.481798250227
 30
0.0
 40
894.8815844313239
  1
BML-26213WL-110
  7
WMF-ＭＳ Ｐゴシック0
100
AcDbText
  0
TEXT
  5
A555
330
A543
100
AcDbEntity
  8
0
 62
     7
370
     0
100
AcDbText
 10
9637.186293875796
 20
-4216.26900357066
 30
0.0
 40
894.8815844313239
  1
LED76W  (4500K)
  7
WMF-ＭＳ Ｐゴシック0
100
AcDbText
  0
TEXT
  5
A556
330
A543
100
AcDbEntity
  8
0
 62
     7
370
     0
100
AcDbText
 10
29255.74410640866
 20
-4216.26900357066
 30
0.0
 40
894.8815844313239
  1
LED54W  (4500K)
  7
WMF-ＭＳ Ｐゴシック0
100
AcDbText
  0
TEXT
  5
A557
330
A543
100
AcDbEntity
  8
0
 62
     7
370
     0
100
AcDbText
 10
48874.30191894153
 20
-4216.26900357066
 30
0.0
 40
894.8815844313239
  1
LED32W  (4500K)
  7
WMF-ＭＳ Ｐゴシック0
100
AcDbText
  0
TEXT
  5
A558
330
A543
100
AcDbEntity
  8
0
 62
     7
370
     0
100
AcDbText
 10
68492.8597314744
 20
-4216.26900357066
 30
0.0
 40
894.8815844313239
  1
LED17W  (2900K)
  7
WMF-ＭＳ Ｐゴシック0
100
AcDbText
  0
TEXT
  5
A559
330
A543
100
AcDbEntity
  8
0
 62
     7
370
     0
100
AcDbText
 10
4302.31530976598
 20
-20823.20609926735
 30
0.0
 40
894.8815844313239
  1
 
  7
WMF-ＭＳ Ｐゴシック0
100
AcDbText
  0
TEXT
  5
A55A
330
A543
100
AcDbEntity
  8
0
 62
     7
370
     0
100
AcDbText
 10
23920.87312229885
 20
-20823.20609926735
 30
0.0
 40
894.8815844313239
  1
 
  7
WMF-ＭＳ Ｐゴシック0
100
AcDbText
  0
TEXT
  5
A55B
330
A543
100
AcDbEntity
  8
0
 62
     7
370
     0
100
AcDbText
 10
43539.43093483171
 20
-20823.20609926735
 30
0.0
 40
894.8815844313239
  1
 
  7
WMF-ＭＳ Ｐゴシック0
100
AcDbText
  0
TEXT
  5
A55C
330
A543
100
AcDbEntity
  8
0
 62
     7
370
     0
100
AcDbText
 10
63157.98874736458
 20
-20823.20609926735
 30
0.0
 40
894.8815844313239
  1
 
  7
WMF-ＭＳ Ｐゴシック0
100
AcDbText
  0
TEXT
  5
A55D
330
A543
100
AcDbEntity
  8
0
 62
     7
370
     0
100
AcDbText
 10
4302.31530976598
 20
-24006.91942849417
 30
0.0
 40
894.8815844313239
  1
LED直管型ﾗｲﾄ
  7
WMF-ＭＳ Ｐゴシック0
100
AcDbText
  0
TEXT
  5
A55E
330
A543
100
AcDbEntity
  8
0
 62
     7
370
     0
100
AcDbText
 10
23920.87312229885
 20
-24006.91942849417
 30
0.0
 40
894.8815844313239
  1
LED軒下用ﾀﾞｳﾝﾗｲﾄ
  7
WMF-ＭＳ Ｐゴシック0
100
AcDbText
  0
TEXT
  5
A55F
330
A543
100
AcDbEntity
  8
0
 62
     7
370
     0
100
AcDbText
 10
43539.43093483171
 20
-24006.91942849417
 30
0.0
 40
894.8815844313239
  1
LEDｱｳﾄﾄﾞｱｽﾎﾟｯﾄﾗｲﾄ
  7
WMF-ＭＳ Ｐゴシック0
100
AcDbText
  0
TEXT
  5
A560
330
A543
100
AcDbEntity
  8
0
 62
     7
370
     0
100
AcDbText
 10
63157.98874736458
 20
-24006.91942849417
 30
0.0
 40
894.8815844313239
  1
LEDﾀﾞｳﾝﾗｲﾄ
  7
WMF-ＭＳ Ｐゴシック0
100
AcDbText
  0
TEXT
  5
A561
330
A543
100
AcDbEntity
  8
0
 62
     7
370
     0
100
AcDbText
 10
1376.740899125113
 20
-25469.7066338146
 30
0.0
 40
894.8815844313239
  1
F1
  7
WMF-ＭＳ Ｐゴシック0
100
AcDbText
  0
TEXT
  5
A562
330
A543
100
AcDbEntity
  8
0
 62
     7
370
     0
100
AcDbText
 10
4302.31530976598
 20
-25469.7066338146
 30
0.0
 40
894.8815844313239
  1
TBJKL-22006W
  7
WMF-ＭＳ Ｐゴシック0
100
AcDbText
  0
TEXT
  5
A563
330
A543
100
AcDbEntity
  8
0
 62
     7
370
     0
100
AcDbText
 10
20479.02087448607
 20
-25469.7066338146
 30
0.0
 40
894.8815844313239
  1
OD1
  7
WMF-ＭＳ Ｐゴシック0
100
AcDbText
  0
TEXT
  5
A564
330
A543
100
AcDbEntity
  8
0
 62
     7
370
     0
100
AcDbText
 10
23920.87312229885
 20
-25469.7066338146
 30
0.0
 40
894.8815844313239
  1
BML-26187WSW-110
  7
WMF-ＭＳ Ｐゴシック0
100
AcDbText
  0
TEXT
  5
A565
330
A543
100
AcDbEntity
  8
0
 62
     7
370
     0
100
AcDbText
 10
40097.57868701893
 20
-25469.7066338146
 30
0.0
 40
894.8815844313239
  1
OS1
  7
WMF-ＭＳ Ｐゴシック0
100
AcDbText
  0
TEXT
  5
A566
330
A543
100
AcDbEntity
  8
0
 62
     7
370
     0
100
AcDbText
 10
43539.43093483171
 20
-25469.7066338146
 30
0.0
 40
894.8815844313239
  1
BGSL-20045GW-20
  7
WMF-ＭＳ Ｐゴシック0
100
AcDbText
  0
TEXT
  5
A567
330
A543
100
AcDbEntity
  8
0
 62
     7
370
     0
100
AcDbText
 10
60576.59956150499
 20
-25469.7066338146
 30
0.0
 40
894.8815844313239
  1
0
  7
WMF-ＭＳ Ｐゴシック0
100
AcDbText
  0
TEXT
  5
A568
330
A543
100
AcDbEntity
  8
0
 62
     7
370
     0
100
AcDbText
 10
63157.98874736458
 20
-25469.7066338146
 30
0.0
 40
894.8815844313239
  1
BML-26160WW-120
  7
WMF-ＭＳ Ｐゴシック0
100
AcDbText
  0
TEXT
  5
A569
330
A543
100
AcDbEntity
  8
0
 62
     7
370
     0
100
AcDbText
 10
9637.186293875796
 20
-26932.49383913503
 30
0.0
 40
894.8815844313239
  1
LED38W  (4000K)
  7
WMF-ＭＳ Ｐゴシック0
100
AcDbText
  0
TEXT
  5
A56A
330
A543
100
AcDbEntity
  8
0
 62
     7
370
     0
100
AcDbText
 10
29255.74410640866
 20
-26932.49383913503
 30
0.0
 40
894.8815844313239
  1
LED54W  (4500K)
  7
WMF-ＭＳ Ｐゴシック0
100
AcDbText
  0
TEXT
  5
A56B
330
A543
100
AcDbEntity
  8
0
 62
     7
370
     0
100
AcDbText
 10
48874.30191894153
 20
-26932.49383913503
 30
0.0
 40
894.8815844313239
  1
LED68W  (4500K)
  7
WMF-ＭＳ Ｐゴシック0
100
AcDbText
  0
TEXT
  5
A56C
330
A543
100
AcDbEntity
  8
0
 62
     7
370
     0
100
AcDbText
 10
77613.76818817828
 20
-26932.49383913503
 30
0.0
 40
894.8815844313239
  1
0
  7
WMF-ＭＳ Ｐゴシック0
100
AcDbText
  0
TEXT
  5
A56D
330
A543
100
AcDbEntity
  8
0
 62
     7
370
     0
100
AcDbText
 10
4302.31530976598
 20
-46723.14426405853
 30
0.0
 40
894.8815844313239
  1
LEDﾀﾞｳﾝﾗｲﾄ
  7
WMF-ＭＳ Ｐゴシック0
100
AcDbText
  0
TEXT
  5
A56E
330
A543
100
AcDbEntity
  8
0
 62
     7
370
     0
100
AcDbText
 10
23920.87312229885
 20
-46723.14426405853
 30
0.0
 40
894.8815844313239
  1
LEDﾀﾞｳﾝﾗｲﾄ
  7
WMF-ＭＳ Ｐゴシック0
100
AcDbText
  0
TEXT
  5
A56F
330
A543
100
AcDbEntity
  8
0
 62
     7
370
     0
100
AcDbText
 10
43539.43093483171
 20
-46723.14426405853
 30
0.0
 40
894.8815844313239
  1
LEDﾀﾞｳﾝﾗｲﾄ
  7
WMF-ＭＳ Ｐゴシック0
100
AcDbText
  0
TEXT
  5
A570
330
A543
100
AcDbEntity
  8
0
 62
     7
370
     0
100
AcDbText
 10
63157.98874736458
 20
-46723.14426405853
 30
0.0
 40
894.8815844313239
  1
LEDﾀﾞｳﾝﾗｲﾄ
  7
WMF-ＭＳ Ｐゴシック0
100
AcDbText
  0
TEXT
  5
A571
330
A543
100
AcDbEntity
  8
0
 62
     7
370
     0
100
AcDbText
 10
1720.926123906392
 20
-48185.93146937897
 30
0.0
 40
894.8815844313239
  1
0
  7
WMF-ＭＳ Ｐゴシック0
100
AcDbText
  0
TEXT
  5
A572
330
A543
100
AcDbEntity
  8
0
 62
     7
370
     0
100
AcDbText
 10
4302.31530976598
 20
-48185.93146937897
 30
0.0
 40
894.8815844313239
  1
BML-26160WW-124
  7
WMF-ＭＳ Ｐゴシック0
100
AcDbText
  0
TEXT
  5
A573
330
A543
100
AcDbEntity
  8
0
 62
     7
370
     0
100
AcDbText
 10
21339.48393643926
 20
-48185.93146937897
 30
0.0
 40
894.8815844313239
  1
0
  7
WMF-ＭＳ Ｐゴシック0
100
AcDbText
  0
TEXT
  5
A574
330
A543
100
AcDbEntity
  8
0
 62
     7
370
     0
100
AcDbText
 10
23920.87312229885
 20
-48185.93146937897
 30
0.0
 40
894.8815844313239
  1
BML-26160WW-125
  7
WMF-ＭＳ Ｐゴシック0
100
AcDbText
  0
TEXT
  5
A575
330
A543
100
AcDbEntity
  8
0
 62
     7
370
     0
100
AcDbText
 10
40958.04174897213
 20
-48185.93146937897
 30
0.0
 40
894.8815844313239
  1
0
  7
WMF-ＭＳ Ｐゴシック0
100
AcDbText
  0
TEXT
  5
A576
330
A543
100
AcDbEntity
  8
0
 62
     7
370
     0
100
AcDbText
 10
43539.43093483171
 20
-48185.93146937897
 30
0.0
 40
894.8815844313239
  1
BML-26160WW-126
  7
WMF-ＭＳ Ｐゴシック0
100
AcDbText
  0
TEXT
  5
A577
330
A543
100
AcDbEntity
  8
0
 62
     7
370
     0
100
AcDbText
 10
60576.59956150499
 20
-48185.93146937897
 30
0.0
 40
894.8815844313239
  1
0
  7
WMF-ＭＳ Ｐゴシック0
100
AcDbText
  0
TEXT
  5
A578
330
A543
100
AcDbEntity
  8
0
 62
     7
370
     0
100
AcDbText
 10
63157.98874736458
 20
-48185.93146937897
 30
0.0
 40
894.8815844313239
  1
BML-26160WW-127
  7
WMF-ＭＳ Ｐゴシック0
100
AcDbText
  0
TEXT
  5
A579
330
A543
100
AcDbEntity
  8
0
 62
     7
370
     0
100
AcDbText
 10
18758.09475057967
 20
-49648.7186746994
 30
0.0
 40
894.8815844313239
  1
0
  7
WMF-ＭＳ Ｐゴシック0
100
AcDbText
  0
TEXT
  5
A57A
330
A543
100
AcDbEntity
  8
0
 62
     7
370
     0
100
AcDbText
 10
38376.65256311254
 20
-49648.7186746994
 30
0.0
 40
894.8815844313239
  1
0
  7
WMF-ＭＳ Ｐゴシック0
100
AcDbText
  0
TEXT
  5
A57B
330
A543
100
AcDbEntity
  8
0
 62
     7
370
     0
100
AcDbText
 10
57995.21037564541
 20
-49648.7186746994
 30
0.0
 40
894.8815844313239
  1
0
  7
WMF-ＭＳ Ｐゴシック0
100
AcDbText
  0
TEXT
  5
A57C
330
A543
100
AcDbEntity
  8
0
 62
     7
370
     0
100
AcDbText
 10
77613.76818817828
 20
-49648.7186746994
 30
0.0
 40
894.8815844313239
  1
0
  7
WMF-ＭＳ Ｐゴシック0
100
AcDbText
  0
TEXT
  5
A57D
330
A543
100
AcDbEntity
  8
0
 62
     7
370
     0
100
AcDbText
 10
4302.31530976598
 20
-69439.36909962291
 30
0.0
 40
894.8815844313239
  1
LEDﾀﾞｳﾝﾗｲﾄ
  7
WMF-ＭＳ Ｐゴシック0
100
AcDbText
  0
TEXT
  5
A57E
330
A543
100
AcDbEntity
  8
0
 62
     7
370
     0
100
AcDbText
 10
23920.87312229885
 20
-69439.36909962291
 30
0.0
 40
894.8815844313239
  1
LEDﾀﾞｳﾝﾗｲﾄ
  7
WMF-ＭＳ Ｐゴシック0
100
AcDbText
  0
TEXT
  5
A57F
330
A543
100
AcDbEntity
  8
0
 62
     7
370
     0
100
AcDbText
 10
43539.43093483171
 20
-69439.36909962291
 30
0.0
 40
894.8815844313239
  1
LEDﾀﾞｳﾝﾗｲﾄ
  7
WMF-ＭＳ Ｐゴシック0
100
AcDbText
  0
TEXT
  5
A580
330
A543
100
AcDbEntity
  8
0
 62
     7
370
     0
100
AcDbText
 10
63157.98874736458
 20
-69439.36909962291
 30
0.0
 40
894.8815844313239
  1
LEDﾀﾞｳﾝﾗｲﾄ
  7
WMF-ＭＳ Ｐゴシック0
100
AcDbText
  0
TEXT
  5
A581
330
A543
100
AcDbEntity
  8
0
 62
     7
370
     0
100
AcDbText
 10
1720.926123906392
 20
-70902.15630494334
 30
0.0
 40
894.8815844313239
  1
0
  7
WMF-ＭＳ Ｐゴシック0
100
AcDbText
  0
TEXT
  5
A582
330
A543
100
AcDbEntity
  8
0
 62
     7
370
     0
100
AcDbText
 10
18758.09475057967
 20
-70902.15630494334
 30
0.0
 40
894.8815844313239
  1
0
  7
WMF-ＭＳ Ｐゴシック0
100
AcDbText
  0
TEXT
  5
A583
330
A543
100
AcDbEntity
  8
0
 62
     7
370
     0
100
AcDbText
 10
21339.48393643926
 20
-70902.15630494334
 30
0.0
 40
894.8815844313239
  1
0
  7
WMF-ＭＳ Ｐゴシック0
100
AcDbText
  0
TEXT
  5
A584
330
A543
100
AcDbEntity
  8
0
 62
     7
370
     0
100
AcDbText
 10
38376.65256311254
 20
-70902.15630494334
 30
0.0
 40
894.8815844313239
  1
0
  7
WMF-ＭＳ Ｐゴシック0
100
AcDbText
  0
TEXT
  5
A585
330
A543
100
AcDbEntity
  8
0
 62
     7
370
     0
100
AcDbText
 10
40958.04174897213
 20
-70902.15630494334
 30
0.0
 40
894.8815844313239
  1
0
  7
WMF-ＭＳ Ｐゴシック0
100
AcDbText
  0
TEXT
  5
A586
330
A543
100
AcDbEntity
  8
0
 62
     7
370
     0
100
AcDbText
 10
57995.21037564541
 20
-70902.15630494334
 30
0.0
 40
894.8815844313239
  1
0
  7
WMF-ＭＳ Ｐゴシック0
100
AcDbText
  0
TEXT
  5
A587
330
A543
100
AcDbEntity
  8
0
 62
     7
370
     0
100
AcDbText
 10
60576.59956150499
 20
-70902.15630494334
 30
0.0
 40
894.8815844313239
  1
0
  7
WMF-ＭＳ Ｐゴシック0
100
AcDbText
  0
TEXT
  5
A588
330
A543
100
AcDbEntity
  8
0
 62
     7
370
     0
100
AcDbText
 10
77613.76818817828
 20
-70902.15630494334
 30
0.0
 40
894.8815844313239
  1
0
  7
WMF-ＭＳ Ｐゴシック0
100
AcDbText
  0
TEXT
  5
A589
330
A543
100
AcDbEntity
  8
0
 62
     7
370
     0
100
AcDbText
 10
18758.09475057967
 20
-72364.94351026378
 30
0.0
 40
894.8815844313239
  1
0
  7
WMF-ＭＳ Ｐゴシック0
100
AcDbText
  0
TEXT
  5
A58A
330
A543
100
AcDbEntity
  8
0
 62
     7
370
     0
100
AcDbText
 10
38376.65256311254
 20
-72364.94351026378
 30
0.0
 40
894.8815844313239
  1
0
  7
WMF-ＭＳ Ｐゴシック0
100
AcDbText
  0
TEXT
  5
A58B
330
A543
100
AcDbEntity
  8
0
 62
     7
370
     0
100
AcDbText
 10
57995.21037564541
 20
-72364.94351026378
 30
0.0
 40
894.8815844313239
  1
0
  7
WMF-ＭＳ Ｐゴシック0
100
AcDbText
  0
TEXT
  5
A58C
330
A543
100
AcDbEntity
  8
0
 62
     7
370
     0
100
AcDbText
 10
77613.76818817828
 20
-72364.94351026378
 30
0.0
 40
894.8815844313239
  1
0
  7
WMF-ＭＳ Ｐゴシック0
100
AcDbText
  0
POLYLINE
  5
A58E
330
A543
100
AcDbEntity
  8
0
 62
     7
370
     0
100
AcDb2dPolyline
 66
     1
 10
0.0
 20
0.0
 30
0.0
  0
VERTEX
  5
A58F
330
A58E
100
AcDbEntity
  8
0
 62
     7
370
     0
100
AcDbVertex
100
AcDb2dVertex
 10
4130.22269737534
 20
-1462.787205320433
 30
0.0
  0
VERTEX
  5
A590
330
A58E
100
AcDbEntity
  8
0
 62
     7
370
     0
100
AcDbVertex
100
AcDb2dVertex
 10
19704.60411872819
 20
-1462.787205320433
 30
0.0
  0
SEQEND
  5
A591
330
A58E
100
AcDbEntity
  8
0
 62
     7
370
     0
  0
POLYLINE
  5
A592
330
A543
100
AcDbEntity
  8
0
 62
     7
370
     0
100
AcDb2dPolyline
 66
     1
 10
0.0
 20
0.0
 30
0.0
  0
VERTEX
  5
A593
330
A592
100
AcDbEntity
  8
0
 62
     7
370
     0
100
AcDbVertex
100
AcDb2dVertex
 10
23748.78050990821
 20
-1462.787205320433
 30
0.0
  0
VERTEX
  5
A594
330
A592
100
AcDbEntity
  8
0
 62
     7
370
     0
100
AcDbVertex
100
AcDb2dVertex
 10
39323.16193126106
 20
-1462.787205320433
 30
0.0
  0
SEQEND
  5
A595
330
A592
100
AcDbEntity
  8
0
 62
     7
370
     0
  0
POLYLINE
  5
A596
330
A543
100
AcDbEntity
  8
0
 62
     7
370
     0
100
AcDb2dPolyline
 66
     1
 10
0.0
 20
0.0
 30
0.0
  0
VERTEX
  5
A597
330
A596
100
AcDbEntity
  8
0
 62
     7
370
     0
100
AcDbVertex
100
AcDb2dVertex
 10
43367.33832244107
 20
-1462.787205320433
 30
0.0
  0
VERTEX
  5
A598
330
A596
100
AcDbEntity
  8
0
 62
     7
370
     0
100
AcDbVertex
100
AcDb2dVertex
 10
58941.71974379392
 20
-1462.787205320433
 30
0.0
  0
SEQEND
  5
A599
330
A596
100
AcDbEntity
  8
0
 62
     7
370
     0
  0
POLYLINE
  5
A59A
330
A543
100
AcDbEntity
  8
0
 62
     7
370
     0
100
AcDb2dPolyline
 66
     1
 10
0.0
 20
0.0
 30
0.0
  0
VERTEX
  5
A59B
330
A59A
100
AcDbEntity
  8
0
 62
     7
370
     0
100
AcDbVertex
100
AcDb2dVertex
 10
4044.176391180021
 20
-86.04630619531958
 30
0.0
  0
VERTEX
  5
A59C
330
A59A
100
AcDbEntity
  8
0
 62
     7
370
     0
100
AcDbVertex
100
AcDb2dVertex
 10
4044.176391180021
 20
-4474.407922156618
 30
0.0
  0
SEQEND
  5
A59D
330
A59A
100
AcDbEntity
  8
0
 62
     7
370
     0
  0
POLYLINE
  5
A59E
330
A543
100
AcDbEntity
  8
0
 62
     7
370
     0
100
AcDb2dPolyline
 66
     1
 10
0.0
 20
0.0
 30
0.0
  0
VERTEX
  5
A59F
330
A59E
100
AcDbEntity
  8
0
 62
     7
370
     0
100
AcDbVertex
100
AcDb2dVertex
 10
23662.73420371289
 20
-86.04630619531958
 30
0.0
  0
VERTEX
  5
A5A0
330
A59E
100
AcDbEntity
  8
0
 62
     7
370
     0
100
AcDbVertex
100
AcDb2dVertex
 10
23662.73420371289
 20
-4474.407922156618
 30
0.0
  0
SEQEND
  5
A5A1
330
A59E
100
AcDbEntity
  8
0
 62
     7
370
     0
  0
POLYLINE
  5
A5A2
330
A543
100
AcDbEntity
  8
0
 62
     7
370
     0
100
AcDb2dPolyline
 66
     1
 10
0.0
 20
0.0
 30
0.0
  0
VERTEX
  5
A5A3
330
A5A2
100
AcDbEntity
  8
0
 62
     7
370
     0
100
AcDbVertex
100
AcDb2dVertex
 10
43281.29201624575
 20
-86.04630619531958
 30
0.0
  0
VERTEX
  5
A5A4
330
A5A2
100
AcDbEntity
  8
0
 62
     7
370
     0
100
AcDbVertex
100
AcDb2dVertex
 10
43281.29201624575
 20
-4474.407922156618
 30
0.0
  0
SEQEND
  5
A5A5
330
A5A2
100
AcDbEntity
  8
0
 62
     7
370
     0
  0
POLYLINE
  5
A5A6
330
A543
100
AcDbEntity
  8
0
 62
     7
370
     0
100
AcDb2dPolyline
 66
     1
 10
0.0
 20
0.0
 30
0.0
  0
VERTEX
  5
A5A7
330
A5A6
100
AcDbEntity
  8
0
 62
     7
370
     0
100
AcDbVertex
100
AcDb2dVertex
 10
62899.84982877862
 20
-86.04630619531958
 30
0.0
  0
VERTEX
  5
A5A8
330
A5A6
100
AcDbEntity
  8
0
 62
     7
370
     0
100
AcDbVertex
100
AcDb2dVertex
 10
62899.84982877862
 20
-4474.407922156618
 30
0.0
  0
SEQEND
  5
A5A9
330
A5A6
100
AcDbEntity
  8
0
 62
     7
370
     0
  0
POLYLINE
  5
A5AA
330
A543
100
AcDbEntity
  8
0
 62
     7
370
     0
100
AcDb2dPolyline
 66
     1
 10
0.0
 20
0.0
 30
0.0
  0
VERTEX
  5
A5AB
330
A5AA
100
AcDbEntity
  8
0
 62
     7
370
     0
100
AcDbVertex
100
AcDb2dVertex
 10
4130.22269737534
 20
-24179.0120408848
 30
0.0
  0
VERTEX
  5
A5AC
330
A5AA
100
AcDbEntity
  8
0
 62
     7
370
     0
100
AcDbVertex
100
AcDb2dVertex
 10
19704.60411872819
 20
-24179.0120408848
 30
0.0
  0
SEQEND
  5
A5AD
330
A5AA
100
AcDbEntity
  8
0
 62
     7
370
     0
  0
POLYLINE
  5
A5AE
330
A543
100
AcDbEntity
  8
0
 62
     7
370
     0
100
AcDb2dPolyline
 66
     1
 10
0.0
 20
0.0
 30
0.0
  0
VERTEX
  5
A5AF
330
A5AE
100
AcDbEntity
  8
0
 62
     7
370
     0
100
AcDbVertex
100
AcDb2dVertex
 10
23748.78050990821
 20
-24179.0120408848
 30
0.0
  0
VERTEX
  5
A5B0
330
A5AE
100
AcDbEntity
  8
0
 62
     7
370
     0
100
AcDbVertex
100
AcDb2dVertex
 10
39323.16193126106
 20
-24179.0120408848
 30
0.0
  0
SEQEND
  5
A5B1
330
A5AE
100
AcDbEntity
  8
0
 62
     7
370
     0
  0
POLYLINE
  5
A5B2
330
A543
100
AcDbEntity
  8
0
 62
     7
370
     0
100
AcDb2dPolyline
 66
     1
 10
0.0
 20
0.0
 30
0.0
  0
VERTEX
  5
A5B3
330
A5B2
100
AcDbEntity
  8
0
 62
     7
370
     0
100
AcDbVertex
100
AcDb2dVertex
 10
43367.33832244107
 20
-24179.0120408848
 30
0.0
  0
VERTEX
  5
A5B4
330
A5B2
100
AcDbEntity
  8
0
 62
     7
370
     0
100
AcDbVertex
100
AcDb2dVertex
 10
58941.71974379392
 20
-24179.0120408848
 30
0.0
  0
SEQEND
  5
A5B5
330
A5B2
100
AcDbEntity
  8
0
 62
     7
370
     0
  0
POLYLINE
  5
A5B6
330
A543
100
AcDbEntity
  8
0
 62
     7
370
     0
100
AcDb2dPolyline
 66
     1
 10
0.0
 20
0.0
 30
0.0
  0
VERTEX
  5
A5B7
330
A5B6
100
AcDbEntity
  8
0
 62
     7
370
     0
100
AcDbVertex
100
AcDb2dVertex
 10
4044.176391180021
 20
-22802.27114175969
 30
0.0
  0
VERTEX
  5
A5B8
330
A5B6
100
AcDbEntity
  8
0
 62
     7
370
     0
100
AcDbVertex
100
AcDb2dVertex
 10
4044.176391180021
 20
-27190.63275772099
 30
0.0
  0
SEQEND
  5
A5B9
330
A5B6
100
AcDbEntity
  8
0
 62
     7
370
     0
  0
POLYLINE
  5
A5BA
330
A543
100
AcDbEntity
  8
0
 62
     7
370
     0
100
AcDb2dPolyline
 66
     1
 10
0.0
 20
0.0
 30
0.0
  0
VERTEX
  5
A5BB
330
A5BA
100
AcDbEntity
  8
0
 62
     7
370
     0
100
AcDbVertex
100
AcDb2dVertex
 10
23662.73420371289
 20
-22802.27114175969
 30
0.0
  0
VERTEX
  5
A5BC
330
A5BA
100
AcDbEntity
  8
0
 62
     7
370
     0
100
AcDbVertex
100
AcDb2dVertex
 10
23662.73420371289
 20
-27190.63275772099
 30
0.0
  0
SEQEND
  5
A5BD
330
A5BA
100
AcDbEntity
  8
0
 62
     7
370
     0
  0
POLYLINE
  5
A5BE
330
A543
100
AcDbEntity
  8
0
 62
     7
370
     0
100
AcDb2dPolyline
 66
     1
 10
0.0
 20
0.0
 30
0.0
  0
VERTEX
  5
A5BF
330
A5BE
100
AcDbEntity
  8
0
 62
     7
370
     0
100
AcDbVertex
100
AcDb2dVertex
 10
43281.29201624575
 20
-22802.27114175969
 30
0.0
  0
VERTEX
  5
A5C0
330
A5BE
100
AcDbEntity
  8
0
 62
     7
370
     0
100
AcDbVertex
100
AcDb2dVertex
 10
43281.29201624575
 20
-27190.63275772099
 30
0.0
  0
SEQEND
  5
A5C1
330
A5BE
100
AcDbEntity
  8
0
 62
     7
370
     0
  0
POLYLINE
  5
A5C2
330
A543
100
AcDbEntity
  8
0
 62
     7
370
     0
100
AcDb2dPolyline
 66
     1
 10
0.0
 20
0.0
 30
0.0
  0
VERTEX
  5
A5C3
330
A5C2
100
AcDbEntity
  8
0
 62
     7
370
     0
100
AcDbVertex
100
AcDb2dVertex
 10
62899.84982877862
 20
-22802.27114175969
 30
0.0
  0
VERTEX
  5
A5C4
330
A5C2
100
AcDbEntity
  8
0
 62
     7
370
     0
100
AcDbVertex
100
AcDb2dVertex
 10
62899.84982877862
 20
-27190.63275772099
 30
0.0
  0
SEQEND
  5
A5C5
330
A5C2
100
AcDbEntity
  8
0
 62
     7
370
     0
  0
POLYLINE
  5
A5C6
330
A543
100
AcDbEntity
  8
0
 62
     7
370
     0
100
AcDb2dPolyline
 66
     1
 10
0.0
 20
0.0
 30
0.0
  0
VERTEX
  5
A5C7
330
A5C6
100
AcDbEntity
  8
0
 62
     7
370
     0
100
AcDbVertex
100
AcDb2dVertex
 10
4130.22269737534
 20
-46895.23687644918
 30
0.0
  0
VERTEX
  5
A5C8
330
A5C6
100
AcDbEntity
  8
0
 62
     7
370
     0
100
AcDbVertex
100
AcDb2dVertex
 10
19704.60411872819
 20
-46895.23687644918
 30
0.0
  0
SEQEND
  5
A5C9
330
A5C6
100
AcDbEntity
  8
0
 62
     7
370
     0
  0
POLYLINE
  5
A5CA
330
A543
100
AcDbEntity
  8
0
 62
     7
370
     0
100
AcDb2dPolyline
 66
     1
 10
0.0
 20
0.0
 30
0.0
  0
VERTEX
  5
A5CB
330
A5CA
100
AcDbEntity
  8
0
 62
     7
370
     0
100
AcDbVertex
100
AcDb2dVertex
 10
23748.78050990821
 20
-46895.23687644918
 30
0.0
  0
VERTEX
  5
A5CC
330
A5CA
100
AcDbEntity
  8
0
 62
     7
370
     0
100
AcDbVertex
100
AcDb2dVertex
 10
39323.16193126106
 20
-46895.23687644918
 30
0.0
  0
SEQEND
  5
A5CD
330
A5CA
100
AcDbEntity
  8
0
 62
     7
370
     0
  0
POLYLINE
  5
A5CE
330
A543
100
AcDbEntity
  8
0
 62
     7
370
     0
100
AcDb2dPolyline
 66
     1
 10
0.0
 20
0.0
 30
0.0
  0
VERTEX
  5
A5CF
330
A5CE
100
AcDbEntity
  8
0
 62
     7
370
     0
100
AcDbVertex
100
AcDb2dVertex
 10
43367.33832244107
 20
-46895.23687644918
 30
0.0
  0
VERTEX
  5
A5D0
330
A5CE
100
AcDbEntity
  8
0
 62
     7
370
     0
100
AcDbVertex
100
AcDb2dVertex
 10
58941.71974379392
 20
-46895.23687644918
 30
0.0
  0
SEQEND
  5
A5D1
330
A5CE
100
AcDbEntity
  8
0
 62
     7
370
     0
  0
POLYLINE
  5
A5D2
330
A543
100
AcDbEntity
  8
0
 62
     7
370
     0
100
AcDb2dPolyline
 66
     1
 10
0.0
 20
0.0
 30
0.0
  0
VERTEX
  5
A5D3
330
A5D2
100
AcDbEntity
  8
0
 62
     7
370
     0
100
AcDbVertex
100
AcDb2dVertex
 10
4044.176391180021
 20
-45518.49597732406
 30
0.0
  0
VERTEX
  5
A5D4
330
A5D2
100
AcDbEntity
  8
0
 62
     7
370
     0
100
AcDbVertex
100
AcDb2dVertex
 10
4044.176391180021
 20
-49906.85759328536
 30
0.0
  0
SEQEND
  5
A5D5
330
A5D2
100
AcDbEntity
  8
0
 62
     7
370
     0
  0
POLYLINE
  5
A5D6
330
A543
100
AcDbEntity
  8
0
 62
     7
370
     0
100
AcDb2dPolyline
 66
     1
 10
0.0
 20
0.0
 30
0.0
  0
VERTEX
  5
A5D7
330
A5D6
100
AcDbEntity
  8
0
 62
     7
370
     0
100
AcDbVertex
100
AcDb2dVertex
 10
23662.73420371289
 20
-45518.49597732406
 30
0.0
  0
VERTEX
  5
A5D8
330
A5D6
100
AcDbEntity
  8
0
 62
     7
370
     0
100
AcDbVertex
100
AcDb2dVertex
 10
23662.73420371289
 20
-49906.85759328536
 30
0.0
  0
SEQEND
  5
A5D9
330
A5D6
100
AcDbEntity
  8
0
 62
     7
370
     0
  0
POLYLINE
  5
A5DA
330
A543
100
AcDbEntity
  8
0
 62
     7
370
     0
100
AcDb2dPolyline
 66
     1
 10
0.0
 20
0.0
 30
0.0
  0
VERTEX
  5
A5DB
330
A5DA
100
AcDbEntity
  8
0
 62
     7
370
     0
100
AcDbVertex
100
AcDb2dVertex
 10
43281.29201624575
 20
-45518.49597732406
 30
0.0
  0
VERTEX
  5
A5DC
330
A5DA
100
AcDbEntity
  8
0
 62
     7
370
     0
100
AcDbVertex
100
AcDb2dVertex
 10
43281.29201624575
 20
-49906.85759328536
 30
0.0
  0
SEQEND
  5
A5DD
330
A5DA
100
AcDbEntity
  8
0
 62
     7
370
     0
  0
POLYLINE
  5
A5DE
330
A543
100
AcDbEntity
  8
0
 62
     7
370
     0
100
AcDb2dPolyline
 66
     1
 10
0.0
 20
0.0
 30
0.0
  0
VERTEX
  5
A5DF
330
A5DE
100
AcDbEntity
  8
0
 62
     7
370
     0
100
AcDbVertex
100
AcDb2dVertex
 10
62899.84982877862
 20
-45518.49597732406
 30
0.0
  0
VERTEX
  5
A5E0
330
A5DE
100
AcDbEntity
  8
0
 62
     7
370
     0
100
AcDbVertex
100
AcDb2dVertex
 10
62899.84982877862
 20
-49906.85759328536
 30
0.0
  0
SEQEND
  5
A5E1
330
A5DE
100
AcDbEntity
  8
0
 62
     7
370
     0
  0
POLYLINE
  5
A5E2
330
A543
100
AcDbEntity
  8
0
 62
     7
370
     0
100
AcDb2dPolyline
 66
     1
 10
0.0
 20
0.0
 30
0.0
  0
VERTEX
  5
A5E3
330
A5E2
100
AcDbEntity
  8
0
 62
     7
370
     0
100
AcDbVertex
100
AcDb2dVertex
 10
4130.22269737534
 20
-69611.46171201355
 30
0.0
  0
VERTEX
  5
A5E4
330
A5E2
100
AcDbEntity
  8
0
 62
     7
370
     0
100
AcDbVertex
100
AcDb2dVertex
 10
19704.60411872819
 20
-69611.46171201355
 30
0.0
  0
SEQEND
  5
A5E5
330
A5E2
100
AcDbEntity
  8
0
 62
     7
370
     0
  0
POLYLINE
  5
A5E6
330
A543
100
AcDbEntity
  8
0
 62
     7
370
     0
100
AcDb2dPolyline
 66
     1
 10
0.0
 20
0.0
 30
0.0
  0
VERTEX
  5
A5E7
330
A5E6
100
AcDbEntity
  8
0
 62
     7
370
     0
100
AcDbVertex
100
AcDb2dVertex
 10
23748.78050990821
 20
-69611.46171201355
 30
0.0
  0
VERTEX
  5
A5E8
330
A5E6
100
AcDbEntity
  8
0
 62
     7
370
     0
100
AcDbVertex
100
AcDb2dVertex
 10
39323.16193126106
 20
-69611.46171201355
 30
0.0
  0
SEQEND
  5
A5E9
330
A5E6
100
AcDbEntity
  8
0
 62
     7
370
     0
  0
POLYLINE
  5
A5EA
330
A543
100
AcDbEntity
  8
0
 62
     7
370
     0
100
AcDb2dPolyline
 66
     1
 10
0.0
 20
0.0
 30
0.0
  0
VERTEX
  5
A5EB
330
A5EA
100
AcDbEntity
  8
0
 62
     7
370
     0
100
AcDbVertex
100
AcDb2dVertex
 10
43367.33832244107
 20
-69611.46171201355
 30
0.0
  0
VERTEX
  5
A5EC
330
A5EA
100
AcDbEntity
  8
0
 62
     7
370
     0
100
AcDbVertex
100
AcDb2dVertex
 10
58941.71974379392
 20
-69611.46171201355
 30
0.0
  0
SEQEND
  5
A5ED
330
A5EA
100
AcDbEntity
  8
0
 62
     7
370
     0
  0
POLYLINE
  5
A5EE
330
A543
100
AcDbEntity
  8
0
 62
     7
370
     0
100
AcDb2dPolyline
 66
     1
 10
0.0
 20
0.0
 30
0.0
  0
VERTEX
  5
A5EF
330
A5EE
100
AcDbEntity
  8
0
 62
     7
370
     0
100
AcDbVertex
100
AcDb2dVertex
 10
0.0
 20
0.0
 30
0.0
  0
VERTEX
  5
A5F0
330
A5EE
100
AcDbEntity
  8
0
 62
     7
370
     0
100
AcDbVertex
100
AcDb2dVertex
 10
0.0
 20
-90950.94564845281
 30
0.0
  0
SEQEND
  5
A5F1
330
A5EE
100
AcDbEntity
  8
0
 62
     7
370
     0
  0
POLYLINE
  5
A5F2
330
A543
100
AcDbEntity
  8
0
 62
     7
370
     0
100
AcDb2dPolyline
 66
     1
 10
0.0
 20
0.0
 30
0.0
  0
VERTEX
  5
A5F3
330
A5F2
100
AcDbEntity
  8
0
 62
     7
370
     0
100
AcDbVertex
100
AcDb2dVertex
 10
4044.176391180021
 20
-68234.72081288843
 30
0.0
  0
VERTEX
  5
A5F4
330
A5F2
100
AcDbEntity
  8
0
 62
     7
370
     0
100
AcDbVertex
100
AcDb2dVertex
 10
4044.176391180021
 20
-72623.08242884974
 30
0.0
  0
SEQEND
  5
A5F5
330
A5F2
100
AcDbEntity
  8
0
 62
     7
370
     0
  0
POLYLINE
  5
A5F6
330
A543
100
AcDbEntity
  8
0
 62
     7
370
     0
100
AcDb2dPolyline
 66
     1
 10
0.0
 20
0.0
 30
0.0
  0
VERTEX
  5
A5F7
330
A5F6
100
AcDbEntity
  8
0
 62
     7
370
     0
100
AcDbVertex
100
AcDb2dVertex
 10
19618.55781253287
 20
-86.04630619531958
 30
0.0
  0
VERTEX
  5
A5F8
330
A5F6
100
AcDbEntity
  8
0
 62
     7
370
     0
100
AcDbVertex
100
AcDb2dVertex
 10
19618.55781253287
 20
-90950.94564845281
 30
0.0
  0
SEQEND
  5
A5F9
330
A5F6
100
AcDbEntity
  8
0
 62
     7
370
     0
  0
POLYLINE
  5
A5FA
330
A543
100
AcDbEntity
  8
0
 62
     7
370
     0
100
AcDb2dPolyline
 66
     1
 10
0.0
 20
0.0
 30
0.0
  0
VERTEX
  5
A5FB
330
A5FA
100
AcDbEntity
  8
0
 62
     7
370
     0
100
AcDbVertex
100
AcDb2dVertex
 10
23662.73420371289
 20
-68234.72081288843
 30
0.0
  0
VERTEX
  5
A5FC
330
A5FA
100
AcDbEntity
  8
0
 62
     7
370
     0
100
AcDbVertex
100
AcDb2dVertex
 10
23662.73420371289
 20
-72623.08242884974
 30
0.0
  0
SEQEND
  5
A5FD
330
A5FA
100
AcDbEntity
  8
0
 62
     7
370
     0
  0
POLYLINE
  5
A5FE
330
A543
100
AcDbEntity
  8
0
 62
     7
370
     0
100
AcDb2dPolyline
 66
     1
 10
0.0
 20
0.0
 30
0.0
  0
VERTEX
  5
A5FF
330
A5FE
100
AcDbEntity
  8
0
 62
     7
370
     0
100
AcDbVertex
100
AcDb2dVertex
 10
39237.11562506574
 20
-86.04630619531958
 30
0.0
  0
VERTEX
  5
A600
330
A5FE
100
AcDbEntity
  8
0
 62
     7
370
     0
100
AcDbVertex
100
AcDb2dVertex
 10
39237.11562506574
 20
-90950.94564845281
 30
0.0
  0
SEQEND
  5
A601
330
A5FE
100
AcDbEntity
  8
0
 62
     7
370
     0
  0
POLYLINE
  5
A602
330
A543
100
AcDbEntity
  8
0
 62
     7
370
     0
100
AcDb2dPolyline
 66
     1
 10
0.0
 20
0.0
 30
0.0
  0
VERTEX
  5
A603
330
A602
100
AcDbEntity
  8
0
 62
     7
370
     0
100
AcDbVertex
100
AcDb2dVertex
 10
43281.29201624575
 20
-68234.72081288843
 30
0.0
  0
VERTEX
  5
A604
330
A602
100
AcDbEntity
  8
0
 62
     7
370
     0
100
AcDbVertex
100
AcDb2dVertex
 10
43281.29201624575
 20
-72623.08242884974
 30
0.0
  0
SEQEND
  5
A605
330
A602
100
AcDbEntity
  8
0
 62
     7
370
     0
  0
POLYLINE
  5
A606
330
A543
100
AcDbEntity
  8
0
 62
     7
370
     0
100
AcDb2dPolyline
 66
     1
 10
0.0
 20
0.0
 30
0.0
  0
VERTEX
  5
A607
330
A606
100
AcDbEntity
  8
0
 62
     7
370
     0
100
AcDbVertex
100
AcDb2dVertex
 10
58855.6734375986
 20
-86.04630619531958
 30
0.0
  0
VERTEX
  5
A608
330
A606
100
AcDbEntity
  8
0
 62
     7
370
     0
100
AcDbVertex
100
AcDb2dVertex
 10
58855.6734375986
 20
-90950.94564845281
 30
0.0
  0
SEQEND
  5
A609
330
A606
100
AcDbEntity
  8
0
 62
     7
370
     0
  0
POLYLINE
  5
A60A
330
A543
100
AcDbEntity
  8
0
 62
     7
370
     0
100
AcDb2dPolyline
 66
     1
 10
0.0
 20
0.0
 30
0.0
  0
VERTEX
  5
A60B
330
A60A
100
AcDbEntity
  8
0
 62
     7
370
     0
100
AcDbVertex
100
AcDb2dVertex
 10
62899.84982877862
 20
-68234.72081288843
 30
0.0
  0
VERTEX
  5
A60C
330
A60A
100
AcDbEntity
  8
0
 62
     7
370
     0
100
AcDbVertex
100
AcDb2dVertex
 10
62899.84982877862
 20
-72623.08242884974
 30
0.0
  0
SEQEND
  5
A60D
330
A60A
100
AcDbEntity
  8
0
 62
     7
370
     0
  0
POLYLINE
  5
A60E
330
A543
100
AcDbEntity
  8
0
 62
     7
370
     0
100
AcDb2dPolyline
 66
     1
 10
0.0
 20
0.0
 30
0.0
  0
VERTEX
  5
A60F
330
A60E
100
AcDbEntity
  8
0
 62
     7
370
     0
100
AcDbVertex
100
AcDb2dVertex
 10
78474.23125013147
 20
-86.04630619531958
 30
0.0
  0
VERTEX
  5
A610
330
A60E
100
AcDbEntity
  8
0
 62
     7
370
     0
100
AcDbVertex
100
AcDb2dVertex
 10
78474.23125013147
 20
-90950.94564845281
 30
0.0
  0
SEQEND
  5
A611
330
A60E
100
AcDbEntity
  8
0
 62
     7
370
     0
  0
POLYLINE
  5
A612
330
A543
100
AcDbEntity
  8
0
 62
     7
370
     0
100
AcDb2dPolyline
 66
     1
 10
0.0
 20
0.0
 30
0.0
  0
VERTEX
  5
A613
330
A612
100
AcDbEntity
  8
0
 62
     7
370
     0
100
AcDbVertex
100
AcDb2dVertex
 10
86.04630619531958
 20
0.0
 30
0.0
  0
VERTEX
  5
A614
330
A612
100
AcDbEntity
  8
0
 62
     7
370
     0
100
AcDbVertex
100
AcDb2dVertex
 10
78560.2775563268
 20
0.0
 30
0.0
  0
SEQEND
  5
A615
330
A612
100
AcDbEntity
  8
0
 62
     7
370
     0
  0
POLYLINE
  5
A616
330
A543
100
AcDbEntity
  8
0
 62
     7
370
     0
100
AcDb2dPolyline
 66
     1
 10
0.0
 20
0.0
 30
0.0
  0
VERTEX
  5
A617
330
A616
100
AcDbEntity
  8
0
 62
     7
370
     0
100
AcDbVertex
100
AcDb2dVertex
 10
62985.89613497393
 20
-1462.787205320433
 30
0.0
  0
VERTEX
  5
A618
330
A616
100
AcDbEntity
  8
0
 62
     7
370
     0
100
AcDbVertex
100
AcDb2dVertex
 10
78560.2775563268
 20
-1462.787205320433
 30
0.0
  0
SEQEND
  5
A619
330
A616
100
AcDbEntity
  8
0
 62
     7
370
     0
  0
POLYLINE
  5
A61A
330
A543
100
AcDbEntity
  8
0
 62
     7
370
     0
100
AcDb2dPolyline
 66
     1
 10
0.0
 20
0.0
 30
0.0
  0
VERTEX
  5
A61B
330
A61A
100
AcDbEntity
  8
0
 62
     7
370
     0
100
AcDbVertex
100
AcDb2dVertex
 10
86.04630619531958
 20
-4388.361615961299
 30
0.0
  0
VERTEX
  5
A61C
330
A61A
100
AcDbEntity
  8
0
 62
     7
370
     0
100
AcDbVertex
100
AcDb2dVertex
 10
78560.2775563268
 20
-4388.361615961299
 30
0.0
  0
SEQEND
  5
A61D
330
A61A
100
AcDbEntity
  8
0
 62
     7
370
     0
  0
POLYLINE
  5
A61E
330
A543
100
AcDbEntity
  8
0
 62
     7
370
     0
100
AcDb2dPolyline
 66
     1
 10
0.0
 20
0.0
 30
0.0
  0
VERTEX
  5
A61F
330
A61E
100
AcDbEntity
  8
0
 62
     7
370
     0
100
AcDbVertex
100
AcDb2dVertex
 10
86.04630619531958
 20
-22716.22483556437
 30
0.0
  0
VERTEX
  5
A620
330
A61E
100
AcDbEntity
  8
0
 62
     7
370
     0
100
AcDbVertex
100
AcDb2dVertex
 10
78560.2775563268
 20
-22716.22483556437
 30
0.0
  0
SEQEND
  5
A621
330
A61E
100
AcDbEntity
  8
0
 62
     7
370
     0
  0
POLYLINE
  5
A622
330
A543
100
AcDbEntity
  8
0
 62
     7
370
     0
100
AcDb2dPolyline
 66
     1
 10
0.0
 20
0.0
 30
0.0
  0
VERTEX
  5
A623
330
A622
100
AcDbEntity
  8
0
 62
     7
370
     0
100
AcDbVertex
100
AcDb2dVertex
 10
62985.89613497393
 20
-24179.0120408848
 30
0.0
  0
VERTEX
  5
A624
330
A622
100
AcDbEntity
  8
0
 62
     7
370
     0
100
AcDbVertex
100
AcDb2dVertex
 10
78560.2775563268
 20
-24179.0120408848
 30
0.0
  0
SEQEND
  5
A625
330
A622
100
AcDbEntity
  8
0
 62
     7
370
     0
  0
POLYLINE
  5
A626
330
A543
100
AcDbEntity
  8
0
 62
     7
370
     0
100
AcDb2dPolyline
 66
     1
 10
0.0
 20
0.0
 30
0.0
  0
VERTEX
  5
A627
330
A626
100
AcDbEntity
  8
0
 62
     7
370
     0
100
AcDbVertex
100
AcDb2dVertex
 10
86.04630619531958
 20
-27104.58645152567
 30
0.0
  0
VERTEX
  5
A628
330
A626
100
AcDbEntity
  8
0
 62
     7
370
     0
100
AcDbVertex
100
AcDb2dVertex
 10
78560.2775563268
 20
-27104.58645152567
 30
0.0
  0
SEQEND
  5
A629
330
A626
100
AcDbEntity
  8
0
 62
     7
370
     0
  0
POLYLINE
  5
A62A
330
A543
100
AcDbEntity
  8
0
 62
     7
370
     0
100
AcDb2dPolyline
 66
     1
 10
0.0
 20
0.0
 30
0.0
  0
VERTEX
  5
A62B
330
A62A
100
AcDbEntity
  8
0
 62
     7
370
     0
100
AcDbVertex
100
AcDb2dVertex
 10
86.04630619531958
 20
-45432.44967112874
 30
0.0
  0
VERTEX
  5
A62C
330
A62A
100
AcDbEntity
  8
0
 62
     7
370
     0
100
AcDbVertex
100
AcDb2dVertex
 10
78560.2775563268
 20
-45432.44967112874
 30
0.0
  0
SEQEND
  5
A62D
330
A62A
100
AcDbEntity
  8
0
 62
     7
370
     0
  0
POLYLINE
  5
A62E
330
A543
100
AcDbEntity
  8
0
 62
     7
370
     0
100
AcDb2dPolyline
 66
     1
 10
0.0
 20
0.0
 30
0.0
  0
VERTEX
  5
A62F
330
A62E
100
AcDbEntity
  8
0
 62
     7
370
     0
100
AcDbVertex
100
AcDb2dVertex
 10
62985.89613497393
 20
-46895.23687644918
 30
0.0
  0
VERTEX
  5
A630
330
A62E
100
AcDbEntity
  8
0
 62
     7
370
     0
100
AcDbVertex
100
AcDb2dVertex
 10
78560.2775563268
 20
-46895.23687644918
 30
0.0
  0
SEQEND
  5
A631
330
A62E
100
AcDbEntity
  8
0
 62
     7
370
     0
  0
POLYLINE
  5
A632
330
A543
100
AcDbEntity
  8
0
 62
     7
370
     0
100
AcDb2dPolyline
 66
     1
 10
0.0
 20
0.0
 30
0.0
  0
VERTEX
  5
A633
330
A632
100
AcDbEntity
  8
0
 62
     7
370
     0
100
AcDbVertex
100
AcDb2dVertex
 10
86.04630619531958
 20
-49820.81128709004
 30
0.0
  0
VERTEX
  5
A634
330
A632
100
AcDbEntity
  8
0
 62
     7
370
     0
100
AcDbVertex
100
AcDb2dVertex
 10
78560.2775563268
 20
-49820.81128709004
 30
0.0
  0
SEQEND
  5
A635
330
A632
100
AcDbEntity
  8
0
 62
     7
370
     0
  0
POLYLINE
  5
A636
330
A543
100
AcDbEntity
  8
0
 62
     7
370
     0
100
AcDb2dPolyline
 66
     1
 10
0.0
 20
0.0
 30
0.0
  0
VERTEX
  5
A637
330
A636
100
AcDbEntity
  8
0
 62
     7
370
     0
100
AcDbVertex
100
AcDb2dVertex
 10
86.04630619531958
 20
-68148.67450669312
 30
0.0
  0
VERTEX
  5
A638
330
A636
100
AcDbEntity
  8
0
 62
     7
370
     0
100
AcDbVertex
100
AcDb2dVertex
 10
78560.2775563268
 20
-68148.67450669312
 30
0.0
  0
SEQEND
  5
A639
330
A636
100
AcDbEntity
  8
0
 62
     7
370
     0
  0
POLYLINE
  5
A63A
330
A543
100
AcDbEntity
  8
0
 62
     7
370
     0
100
AcDb2dPolyline
 66
     1
 10
0.0
 20
0.0
 30
0.0
  0
VERTEX
  5
A63B
330
A63A
100
AcDbEntity
  8
0
 62
     7
370
     0
100
AcDbVertex
100
AcDb2dVertex
 10
62985.89613497393
 20
-69611.46171201355
 30
0.0
  0
VERTEX
  5
A63C
330
A63A
100
AcDbEntity
  8
0
 62
     7
370
     0
100
AcDbVertex
100
AcDb2dVertex
 10
78560.2775563268
 20
-69611.46171201355
 30
0.0
  0
SEQEND
  5
A63D
330
A63A
100
AcDbEntity
  8
0
 62
     7
370
     0
  0
POLYLINE
  5
A63E
330
A543
100
AcDbEntity
  8
0
 62
     7
370
     0
100
AcDb2dPolyline
 66
     1
 10
0.0
 20
0.0
 30
0.0
  0
VERTEX
  5
A63F
330
A63E
100
AcDbEntity
  8
0
 62
     7
370
     0
100
AcDbVertex
100
AcDb2dVertex
 10
86.04630619531958
 20
-72537.03612265442
 30
0.0
  0
VERTEX
  5
A640
330
A63E
100
AcDbEntity
  8
0
 62
     7
370
     0
100
AcDbVertex
100
AcDb2dVertex
 10
78560.2775563268
 20
-72537.03612265442
 30
0.0
  0
SEQEND
  5
A641
330
A63E
100
AcDbEntity
  8
0
 62
     7
370
     0
  0
POLYLINE
  5
A642
330
A543
100
AcDbEntity
  8
0
 62
     7
370
     0
100
AcDb2dPolyline
 66
     1
 10
0.0
 20
0.0
 30
0.0
  0
VERTEX
  5
A643
330
A642
100
AcDbEntity
  8
0
 62
     7
370
     0
100
AcDbVertex
100
AcDb2dVertex
 10
86.04630619531958
 20
-90864.89934225749
 30
0.0
  0
VERTEX
  5
A644
330
A642
100
AcDbEntity
  8
0
 62
     7
370
     0
100
AcDbVertex
100
AcDb2dVertex
 10
78560.2775563268
 20
-90864.89934225749
 30
0.0
  0
SEQEND
  5
A645
330
A642
100
AcDbEntity
  8
0
 62
     7
370
     0
  0
ENDBLK
  5
A646
330
A543
100
AcDbEntity
  8
0
 62
     7
370
     0
100
AcDbBlockEnd
  0
BLOCK
  5
1384F
330
1384E
100
AcDbEntity
  8
0
 62
     7
100
AcDbBlockBegin
  2
_Open
 70
     0
 10
0.0
 20
0.0
 30
0.0
  3
_Open
  1

  0
LINE
  5
13850
330
1384E
100
AcDbEntity
  8
0
  6
ByBlock
 62
     0
370
    -2
100
AcDbLine
 10
-1.0
 20
0.1666666666666666
 30
0.0
 11
0.0
 21
0.0
 31
0.0
  0
LINE
  5
13851
330
1384E
100
AcDbEntity
  8
0
  6
ByBlock
 62
     0
370
    -2
100
AcDbLine
 10
-1.0
 20
-0.1666666666666666
 30
0.0
 11
0.0
 21
0.0
 31
0.0
  0
LINE
  5
13852
330
1384E
100
AcDbEntity
  8
0
  6
ByBlock
 62
     0
370
    -2
100
AcDbLine
 10
0.0
 20
0.0
 30
0.0
 11
-1.0
 21
0.0
 31
0.0
  0
ENDBLK
  5
13853
330
1384E
100
AcDbEntity
  8
0
 62
     7
100
AcDbBlockEnd
  0
ENDSEC
  0
SECTION
  2
ENTITIES
  0
TEXT
  5
10127
330
1F07
100
AcDbEntity
  8
0
 62
     7
100
AcDbText
 10
9484.11852929061
 20
-32495.15837839885
 30
0.0
 40
299.9999947731441
  1
 
  7
WMF-ＭＳ Ｐゴシック0
100
AcDbText
  0
TEXT
  5
1015E
330
1F07
100
AcDbEntity
  8
0
 62
     7
100
AcDbText
 10
9354.310854694494
 20
-32567.27375513635
 30
0.0
 40
299.9999983045655
  1
 
  7
WMF-ＭＳ Ｐゴシック0
100
AcDbText
  0
TEXT
  5
1015F
330
1F07
100
AcDbEntity
  8
0
 62
     7
100
AcDbText
 10
9354.310854694523
 20
-32540.48804100203
 30
0.0
 40
299.9999983045655
  1
 
  7
WMF-ＭＳ Ｐゴシック0
100
AcDbText
  0
TEXT
  5
10160
330
1F07
100
AcDbEntity
  8
0
 62
     7
100
AcDbText
 10
9444.777613635562
 20
-32392.0375704842
 30
0.0
 40
278.5714109022594
  1
 
  7
WMF-ＭＳ Ｐゴシック0
100
AcDbText
  0
TEXT
  5
101D9
330
1F07
100
AcDbEntity
  8
0
 62
     7
100
AcDbText
 10
2907.19556695631
 20
-32495.15837839885
 30
0.0
 40
299.9999947731441
  1
 
  7
WMF-ＭＳ Ｐゴシック0
100
AcDbText
  0
TEXT
  5
101E2
330
1F07
100
AcDbEntity
  8
0
 62
     7
100
AcDbText
 10
2777.387892360196
 20
-32567.27375513635
 30
0.0
 40
299.9999983045655
  1
 
  7
WMF-ＭＳ Ｐゴシック0
100
AcDbText
  0
TEXT
  5
101E3
330
1F07
100
AcDbEntity
  8
0
 62
     7
100
AcDbText
 10
2777.387892360224
 20
-32540.48804100203
 30
0.0
 40
299.9999983045655
  1
 
  7
WMF-ＭＳ Ｐゴシック0
100
AcDbText
  0
TEXT
  5
101E4
330
1F07
100
AcDbEntity
  8
0
 62
     7
100
AcDbText
 10
2867.854651301263
 20
-32392.0375704842
 30
0.0
 40
278.5714109022594
  1
 
  7
WMF-ＭＳ Ｐゴシック0
100
AcDbText
  0
ELLIPSE
  5
12149
330
1F07
100
AcDbEntity
  8
器具
  6
Continuous
370
     0
100
AcDbEllipse
 10
4879.731620643983
 20
-28075.66457695456
 30
0.0
 11
-363.7354723977472
 21
0.0
 31
0.0
210
0.0
220
0.0
230
1.0
 40
0.3160623040689143
 41
3.077390246190348
 42
6.34738771457907
  0
LINE
  5
1214A
330
1F07
100
AcDbEntity
  8
器具
  6
Continuous
370
     0
100
AcDbLine
 10
4515.996148246289
 20
-28075.66457695454
 30
0.0
 11
4576.055557366574
 21
-28666.79488295758
 31
0.0
  0
LINE
  5
1214B
330
1F07
100
AcDbEntity
  8
器具
  6
Continuous
370
     0
100
AcDbLine
 10
5243.467093041736
 20
-28075.66457695454
 30
0.0
 11
5183.407683921451
 21
-28666.79488295758
 31
0.0
  0
ELLIPSE
  5
1214C
330
1F07
100
AcDbEntity
  8
器具
  6
Continuous
370
     0
100
AcDbEllipse
 10
4879.731620643983
 20
-28666.79488295763
 30
0.0
 11
-303.6760632775073
 21
0.0
 31
0.0
210
0.0
220
0.0
230
1.0
 40
0.2032614850177823
 41
1.834591643708957
 42
7.590186317060424
  0
ELLIPSE
  5
1214D
330
1F07
100
AcDbEntity
  8
器具
  6
Continuous
370
     0
100
AcDbEllipse
 10
4881.116394853878
 20
-28660.18694665365
 30
0.0
 11
-80.92101101764825
 21
0.0
 31
0.0
210
0.0
220
0.0
230
1.0
 40
0.2571886850084046
 41
3.117324795143265
 42
6.283185307179586
  0
LINE
  5
1214E
330
1F07
100
AcDbEntity
  8
器具
  6
Continuous
370
     0
100
AcDbLine
 10
4797.425835416542
 20
-28660.18694665363
 30
0.0
 11
4808.618909411294
 21
-28897.42178186674
 31
0.0
  0
LINE
  5
1214F
330
1F07
100
AcDbEntity
  8
器具
  6
Continuous
370
     0
100
AcDbLine
 10
4962.037405871482
 20
-28660.18694665363
 30
0.0
 11
4950.844331876867
 21
-28897.42178186674
 31
0.0
  0
ELLIPSE
  5
12150
330
1F07
100
AcDbEntity
  8
器具
  6
Continuous
370
     0
100
AcDbEllipse
 10
4879.731620643983
 20
-28897.4217818669
 30
0.0
 11
-71.11271123277759
 21
0.0
 31
0.0
210
0.0
220
0.0
230
1.0
 40
0.1456467589275459
 41
3.141592653589793
 42
6.283185307179586
  0
LINE
  5
12151
330
1F07
100
AcDbEntity
  8
器具
  6
Continuous
370
     0
100
AcDbLine
 10
4808.618909411294
 20
-28897.42178186674
 30
0.0
 11
4808.618909411294
 21
-29458.03927832512
 31
0.0
  0
LINE
  5
12152
330
1F07
100
AcDbEntity
  8
器具
  6
Continuous
370
     0
100
AcDbLine
 10
4808.618909411294
 20
-29527.74647642129
 30
0.0
 11
4808.618909411294
 21
-30210.55411752638
 31
0.0
  0
LINE
  5
12153
330
1F07
100
AcDbEntity
  8
器具
  6
Continuous
370
     0
100
AcDbLine
 10
4950.844331876867
 20
-28897.42178186674
 30
0.0
 11
4950.844331876867
 21
-29414.3671087339
 31
0.0
  0
LINE
  5
12154
330
1F07
100
AcDbEntity
  8
器具
  6
Continuous
370
     0
100
AcDbLine
 10
4950.844331876867
 20
-29484.07430683034
 30
0.0
 11
4950.844331876867
 21
-30210.55411752638
 31
0.0
  0
LINE
  5
12155
330
1F07
100
AcDbEntity
  8
器具
  6
Continuous
370
     0
100
AcDbLine
 10
5146.929671461808
 20
-30550.49750622442
 30
0.0
 11
5146.929671461808
 21
-31379.33723843798
 31
0.0
  0
LINE
  5
12156
330
1F07
100
AcDbEntity
  8
器具
  6
Continuous
370
     0
100
AcDbLine
 10
4612.533569826218
 20
-30550.49750622442
 30
0.0
 11
4612.533569826218
 21
-31379.33723843798
 31
0.0
  0
ELLIPSE
  5
12157
330
1F07
100
AcDbEntity
  8
器具
  6
Continuous
370
     0
100
AcDbEllipse
 10
4879.731620643983
 20
-30550.49750622444
 30
0.0
 11
-267.1980508177477
 21
0.0
 31
0.0
210
0.0
220
0.0
230
1.0
 40
0.2982309177215146
 41
3.141592653589793
 42
6.283185307179586
  0
LINE
  5
12159
330
1F07
100
AcDbEntity
  8
器具
  6
Continuous
370
     0
100
AcDbLine
 10
4795.091926343678
 20
-30474.91439967031
 30
0.0
 11
4808.618909411294
 21
-30210.55411752638
 31
0.0
  0
ELLIPSE
  5
1215A
330
1F07
100
AcDbEntity
  8
器具
  6
Continuous
370
     0
100
AcDbEllipse
 10
4879.731620643983
 20
-30210.55411752652
 30
0.0
 11
-71.11271123277759
 21
0.0
 31
0.0
210
0.0
220
0.0
230
-1.0
 40
0.1456467589275459
 41
6.283185307179586
 42
9.424777960769379
  0
LINE
  5
1215B
330
1F07
100
AcDbEntity
  8
器具
  6
Continuous
370
     0
100
AcDbLine
 10
4964.371314944347
 20
-30474.91439967031
 30
0.0
 11
4950.844331876867
 21
-30210.55411752638
 31
0.0
  0
LINE
  5
1215C
330
1F07
100
AcDbEntity
  8
器具
100
AcDbLine
 10
5023.753237967551
 20
-31393.04868858465
 30
0.0
 11
4993.683456806123
 21
-31371.34163642902
 31
0.0
  0
LINE
  5
1215D
330
1F07
100
AcDbEntity
  8
器具
100
AcDbLine
 10
4758.676937350855
 20
-31373.05363990506
 30
0.0
 11
4728.926599082592
 21
-31395.19647679103
 31
0.0
  0
LINE
  5
1215E
330
1F07
100
AcDbEntity
  8
器具
100
AcDbLine
 10
5024.393502618329
 20
-31393.51352702451
 30
0.0
 11
5023.801330959716
 21
-31312.22619187152
 31
0.0
  0
LINE
  5
1215F
330
1F07
100
AcDbEntity
  8
器具
100
AcDbLine
 10
4727.69680992236
 20
-31313.80767702481
 30
0.0
 11
4728.293174647481
 21
-31395.67059395212
 31
0.0
  0
LINE
  5
12164
330
1F07
100
AcDbEntity
  8
器具
100
AcDbLine
 10
4662.971528313614
 20
-31744.09999141807
 30
0.0
 11
4663.000881481301
 21
-31748.12929736389
 31
0.0
  0
LINE
  5
12165
330
1F07
100
AcDbEntity
  8
器具
100
AcDbLine
 10
5094.813859771992
 20
-31744.9835747614
 30
0.0
 11
5094.784506604179
 21
-31740.95426881532
 31
0.0
  0
LINE
  5
12166
330
1F07
100
AcDbEntity
  8
器具
100
AcDbLine
 10
4971.96467500983
 20
-31595.02244438973
 30
0.0
 11
4971.225361847753
 21
-31594.07319831159
 31
0.0
  0
LINE
  5
12167
330
1F07
100
AcDbEntity
  8
器具
100
AcDbLine
 10
4848.549695125729
 20
-31581.93270631423
 30
0.0
 11
4848.182439483234
 21
-31582.41868958267
 31
0.0
  0
LWPOLYLINE
  5
12168
330
1F07
100
AcDbEntity
  8
器具
100
AcDbPolyline
 90
       48
 70
   128
 43
0.0
 10
4573.137532656243
 20
-31771.544466517
 10
4573.847361730974
 20
-31774.44663594212
 10
4577.709966036159
 20
-31785.39489488498
 10
4582.715038953511
 20
-31796.17811689764
 10
4588.84821668303
 20
-31806.75771958775
 10
4596.090180866332
 20
-31817.09324928855
 10
4604.415684839239
 20
-31827.14325586896
 10
4613.79335484507
 20
-31836.86652057431
 10
4624.186131216766
 20
-31846.22319284409
 10
4635.552042024307
 20
-31855.17558009926
 10
4647.845018830601
 20
-31863.6885470139
 10
4661.015581104648
 20
-31871.72961514787
 10
4675.011079897624
 20
-31879.26876328669
 10
4689.776069397566
 20
-31886.27838861873
 10
4705.253442464605
 20
-31892.73358192484
 10
4721.383889875072
 20
-31898.61160459655
 10
4738.106034653656
 20
-31903.89185565412
 10
4755.356574657545
 20
-31908.55587392728
 10
4773.070442798506
 20
-31912.5873643472
 10
4791.180988053107
 20
-31915.97223821891
 10
4809.620176832829
 20
-31918.69865922275
 10
4828.318812455903
 20
-31920.75708896365
 10
4847.206769718215
 20
-31922.1403276595
 10
4866.213241356895
 20
-31922.84354690294
 10
4885.266993265762
 20
-31922.86431247092
 10
4904.296625474183
 20
-31922.20259586464
 10
4923.230621816976
 20
-31920.86079287308
 10
4941.997985386937
 20
-31918.8437033916
 10
4960.528416514158
 20
-31916.15849191747
 10
4978.752503558271
 20
-31912.81465016461
 10
4996.601971797314
 20
-31908.82394672859
 10
5014.009921178329
 20
-31904.20036596457
 10
5030.911049371367
 20
-31898.96003797469
 10
5047.241856282562
 20
-31893.12116270715
 10
5062.940826018215
 20
-31886.7039328644
 10
5077.948582518114
 20
-31879.73046266566
 10
5092.208016157574
 20
-31872.22473269166
 10
5105.664381294925
 20
-31864.2125649999
 10
5118.265370159171
 20
-31855.72164684735
 10
5129.960987095623
 20
-31846.78178004931
 10
5140.703341311434
 20
-31837.42544950369
 10
5150.447925529158
 20
-31827.68729463184
 10
5159.15342766943
 20
-31817.60478031335
 10
5166.782323171063
 20
-31807.21847000352
 10
5173.301722406414
 20
-31796.57208697892
 10
5178.684393130396
 20
-31785.71215566214
 10
5182.909719330226
 20
-31774.68705766981
 10
5185.084392471151
 20
-31766.75476661346
  0
LINE
  5
12169
330
1F07
100
AcDbEntity
  8
器具
100
AcDbLine
 10
4569.089008344538
 20
-31728.6658388555
 30
0.0
 11
4569.199082723631
 21
-31743.77573615042
 31
0.0
  0
LINE
  5
1216A
330
1F07
100
AcDbEntity
  8
器具
100
AcDbLine
 10
5188.542275610444
 20
-31739.26387110993
 30
0.0
 11
5188.432201231361
 21
-31724.15397381422
 31
0.0
  0
ARC
  5
1216B
330
1F07
100
AcDbEntity
  8
器具
100
AcDbCircle
 10
4779.089068624915
 20
-31765.45035818938
 30
0.0
 40
120.7095891012174
100
AcDbArc
 50
116.8610417134366
 51
158.9536986302773
  0
LWPOLYLINE
  5
1216C
330
1F07
100
AcDbEntity
  8
器具
100
AcDbPolyline
 90
       32
 70
   128
 43
0.0
 10
4724.549069036185
 20
-31657.76473544552
 10
4730.483408957836
 20
-31654.40992807891
 10
4742.399791678335
 20
-31648.38003076426
 10
4755.064084013676
 20
-31642.85352449694
 10
4768.406037264648
 20
-31637.86399512156
 10
4782.353658151119
 20
-31633.44068186799
 10
4796.831169128553
 20
-31629.60957968306
 10
4811.759554258775
 20
-31626.39321937579
 10
4827.05709689775
 20
-31623.81050912165
 10
4842.639904759782
 20
-31621.87662091406
 10
4858.422423111865
 20
-31620.60291004378
 10
4874.317938234624
 20
-31619.99685964465
 10
4890.239073458058
 20
-31620.06204522968
 10
4906.098180364496
 20
-31620.79810924836
 10
4921.807762682815
 20
-31622.20072864863
 10
4937.281408740631
 20
-31624.26165681056
 10
4952.434006167002
 20
-31626.96875285787
 10
4967.182230421347
 20
-31630.30602077443
 10
4981.445039163701
 20
-31634.25366502639
 10
4995.144176131248
 20
-31638.78816684806
 10
5008.20468909265
 20
-31643.882388687
 10
5020.555466524292
 20
-31649.5057195148
 10
5032.129795789723
 20
-31655.62428144458
 10
5042.865939673264
 20
-31662.2012286147
 10
5052.707714524469
 20
-31669.19718176733
 10
5061.604461709861
 20
-31676.57034501269
 10
5069.512012672326
 20
-31684.27749755892
 10
5076.393473925762
 20
-31692.27564951315
 10
5082.218556245255
 20
-31700.52313108244
 10
5086.96264065567
 20
-31708.98097055738
 10
5090.604993995982
 20
-31717.61366289417
 10
5091.531137764356
 20
-31720.83664995722
  0
LINE
  5
1216D
330
1F07
100
AcDbEntity
  8
器具
100
AcDbLine
 10
4833.57950607364
 20
-31393.60195551597
 30
0.0
 11
4833.498544465195
 21
-31394.46811277469
 31
0.0
  0
LWPOLYLINE
  5
1216E
330
1F07
100
AcDbEntity
  8
器具
100
AcDbPolyline
 90
        3
 70
   128
 43
0.0
 10
4919.14797775445
 20
-31393.84827149759
 10
4919.147085680062
 20
-31393.83913016617
 10
4919.048918934731
 20
-31392.93658926062
  0
ARC
  5
1216F
330
1F07
100
AcDbEntity
  8
器具
100
AcDbCircle
 10
5745.734446509128
 20
-31561.96735777619
 30
0.0
 40
963.4959651439263
100
AcDbArc
 50
170.1453748318551
 51
179.7248402317559
  0
ARC
  5
12170
330
1F07
100
AcDbEntity
  8
器具
100
AcDbCircle
 10
4022.110876026327
 20
-31573.24529624756
 30
0.0
 40
950.8034031061368
100
AcDbArc
 50
1.040710065857298
 51
10.75471972677491
  0
ARC
  5
12171
330
1F07
100
AcDbEntity
  8
器具
100
AcDbCircle
 10
5429.075761217456
 20
-31576.30810897719
 30
0.0
 40
689.4874426733015
100
AcDbArc
 50
165.5301975518517
 51
179.2894846129757
  0
ARC
  5
12172
330
1F07
100
AcDbEntity
  8
器具
100
AcDbCircle
 10
4334.348061146416
 20
-31583.09882181397
 30
0.0
 40
681.3889200370584
100
AcDbArc
 50
1.462371460812427
 51
15.38636342661013
  0
ARC
  5
12173
330
1F07
100
AcDbEntity
  8
器具
100
AcDbCircle
 10
5269.239342372929
 20
-31594.01178463275
 30
0.0
 40
569.0265194649225
100
AcDbArc
 50
161.7342169277973
 51
178.7443265894645
  0
ARC
  5
12174
330
1F07
100
AcDbEntity
  8
器具
100
AcDbCircle
 10
4491.686172998885
 20
-31598.66880997436
 30
0.0
 40
563.6658528809589
100
AcDbArc
 50
2.014813927526535
 51
19.18275820746153
  0
ARC
  5
12175
330
1F07
100
AcDbEntity
  8
器具
100
AcDbCircle
 10
5174.34793491282
 20
-31615.06924603085
 30
0.0
 40
509.2685500354706
100
AcDbArc
 50
158.54674416546
 51
178.1047182399358
  0
LINE
  5
12176
330
1F07
100
AcDbEntity
  8
器具
100
AcDbLine
 10
4701.162088456278
 20
-31426.83139226516
 30
0.0
 11
4700.363412384978
 21
-31428.80833102387
 31
0.0
  0
LINE
  5
12177
330
1F07
100
AcDbEntity
  8
器具
100
AcDbLine
 10
5052.783597421189
 20
-31426.23018214479
 30
0.0
 11
5051.816098646015
 21
-31423.94273119399
 31
0.0
  0
ARC
  5
12178
330
1F07
100
AcDbEntity
  8
器具
100
AcDbCircle
 10
4585.214474395293
 20
-31618.52546640279
 30
0.0
 40
505.5673655953999
100
AcDbArc
 50
2.67301780609858
 51
22.35569950588541
  0
ARC
  5
12179
330
1F07
100
AcDbEntity
  8
器具
100
AcDbCircle
 10
5117.178833939238
 20
-31639.31884015416
 30
0.0
 40
482.1400907796101
100
AcDbArc
 50
156.2072462816741
 51
177.4075284640999
  0
LINE
  5
1217A
330
1F07
100
AcDbEntity
  8
器具
100
AcDbLine
 10
4676.575392007077
 20
-31443.55091181648
 30
0.0
 11
4676.01549318025
 21
-31444.80926736342
 31
0.0
  0
LINE
  5
1217B
330
1F07
100
AcDbEntity
  8
器具
100
AcDbLine
 10
5077.37784464238
 20
-31441.89988476105
 30
0.0
 11
5076.60935764841
 21
-31440.24429019232
 31
0.0
  0
ARC
  5
1217C
330
1F07
100
AcDbEntity
  8
器具
100
AcDbCircle
 10
4641.672295653656
 20
-31642.08558815517
 30
0.0
 40
479.493108670905
100
AcDbArc
 50
3.435624288447294
 51
24.67650131357808
  0
LINE
  5
1217D
330
1F07
100
AcDbEntity
  8
器具
100
AcDbLine
 10
4658.390330952482
 20
-31460.83631188836
 30
0.0
 11
4657.9972664497
 21
-31461.2919624642
 31
0.0
  0
ARC
  5
1217E
330
1F07
100
AcDbEntity
  8
器具
100
AcDbCircle
 10
4723.782097181215
 20
-31522.70173564938
 30
0.0
 40
89.93336558236178
100
AcDbArc
 50
138.396355599306
 51
151.8857649018444
  0
ARC
  5
1217F
330
1F07
100
AcDbEntity
  8
器具
100
AcDbCircle
 10
5016.792578602022
 20
-31530.5749702304
 30
0.0
 40
107.1814902521788
100
AcDbArc
 50
30.06452847727149
 51
43.14995703555349
  0
LINE
  5
12180
330
1F07
100
AcDbEntity
  8
器具
100
AcDbLine
 10
5083.822630095069
 20
-31445.94359279701
 30
0.0
 11
5038.545245517246
 21
-31404.76362640926
 31
0.0
  0
LINE
  5
12181
330
1F07
100
AcDbEntity
  8
器具
100
AcDbLine
 10
4714.306837164784
 20
-31407.12567697538
 30
0.0
 11
4669.634211683574
 21
-31448.96092190701
 31
0.0
  0
LWPOLYLINE
  5
12182
330
1F07
100
AcDbEntity
  8
器具
100
AcDbPolyline
 90
        3
 70
   128
 43
0.0
 10
4613.822508664088
 20
-31614.54906509264
 10
4612.336548058926
 20
-31627.91192704315
 10
4611.672627990949
 20
-31637.95748959818
  0
LWPOLYLINE
  5
12183
330
1F07
100
AcDbEntity
  8
器具
100
AcDbPolyline
 90
        3
 70
   128
 43
0.0
 10
5144.454997304459
 20
-31633.42416756693
 10
5143.59864767128
 20
-31623.04777563337
 10
5142.001376609891
 20
-31610.55386507302
  0
LINE
  5
12184
330
1F07
100
AcDbEntity
  8
器具
100
AcDbLine
 10
5122.572736135769
 20
-31824.27090462938
 30
0.0
 11
5122.320385446061
 21
-31820.78209823894
 31
0.0
  0
LINE
  5
12185
330
1F07
100
AcDbEntity
  8
器具
100
AcDbLine
 10
4636.429082150132
 20
-31828.30099771868
 30
0.0
 11
4636.393067720809
 21
-31828.95287735393
 31
0.0
  0
LWPOLYLINE
  5
12186
330
1F07
100
AcDbEntity
  8
器具
100
AcDbPolyline
 90
        3
 70
   128
 43
0.0
 10
4666.778648954801
 20
-31845.88640049665
 10
4666.686828788066
 20
-31847.69182313706
 10
4666.611072726682
 20
-31850.65942499812
  0
LWPOLYLINE
  5
12187
330
1F07
100
AcDbEntity
  8
器具
100
AcDbPolyline
 90
        3
 70
   128
 43
0.0
 10
5092.685245122233
 20
-31846.10431419666
 10
5092.676478536059
 20
-31845.88116249583
 10
5092.259953086185
 20
-31839.35644584942
  0
LWPOLYLINE
  5
12188
330
1F07
100
AcDbEntity
  8
器具
100
AcDbPolyline
 90
        3
 70
   128
 43
0.0
 10
5057.572859087861
 20
-31863.97253891413
 10
5057.556314893751
 20
-31863.48327591296
 10
5057.027848600973
 20
-31853.71178074333
  0
LWPOLYLINE
  5
12189
330
1F07
100
AcDbEntity
  8
器具
100
AcDbPolyline
 90
        3
 70
   128
 43
0.0
 10
4702.269134676758
 20
-31860.06228396501
 10
4701.971913569378
 20
-31867.98607639281
 10
4701.961207382562
 20
-31868.57370433033
  0
LINE
  5
1218A
330
1F07
100
AcDbEntity
  8
器具
100
AcDbLine
 10
5018.154634189565
 20
-31877.71449072796
 30
0.0
 11
5017.500088161553
 21
-31862.59701136145
 31
0.0
  0
LWPOLYLINE
  5
1218B
330
1F07
100
AcDbEntity
  8
器具
100
AcDbPolyline
 90
        3
 70
   128
 43
0.0
 10
4741.941225454849
 20
-31868.89971832159
 10
4741.593733506262
 20
-31881.69556883275
 10
4741.583797833104
 20
-31882.49977875854
  0
LINE
  5
1218C
330
1F07
100
AcDbEntity
  8
器具
100
AcDbLine
 10
4975.343763917381
 20
-31885.13266920391
 30
0.0
 11
4974.864754400621
 21
-31870.0365932697
 31
0.0
  0
LWPOLYLINE
  5
1218D
330
1F07
100
AcDbEntity
  8
器具
100
AcDbPolyline
 90
        3
 70
   128
 43
0.0
 10
4784.775065556573
 20
-31872.85055596483
 10
4784.473237270484
 20
-31891.6086195056
 10
4784.47072504898
 20
-31892.02323456946
  0
LINE
  5
121AB
330
1F07
100
AcDbEntity
  8
器具
100
AcDbLine
 10
4882.473439598928
 20
-31533.03070267121
 30
0.0
 11
4881.665596802765
 21
-31534.80578101034
 31
0.0
  0
LWPOLYLINE
  5
121AC
330
1F07
100
AcDbEntity
  8
器具
100
AcDbPolyline
 90
       24
 70
   128
 43
0.0
 10
5025.149886194379
 20
-31394.06957258937
 10
5019.627218451718
 20
-31390.17440617002
 10
5008.93903914859
 20
-31383.57341145264
 10
4997.32419798587
 20
-31377.51665692096
 10
4984.864164728779
 20
-31372.04662635667
 10
4971.646337558212
 20
-31367.20168809436
 10
4957.763430035109
 20
-31363.01582589491
 10
4943.312820780682
 20
-31359.51840057341
 10
4928.395870435718
 20
-31356.73394405571
 10
4913.117210689694
 20
-31354.68198730308
 10
4897.584010362601
 20
-31353.37692331966
 10
4881.905223694737
 20
-31352.82790618976
 10
4866.190826108329
 20
-31353.03878687621
 10
4850.551042812611
 20
-31354.00808619959
 10
4835.095575649854
 20
-31355.72900522471
 10
4819.932833617557
 20
-31358.18947293815
 10
4805.169172456483
 20
-31361.37223092818
 10
4790.908148642336
 20
-31365.25495443474
 10
4777.249793010452
 20
-31369.81040894167
 10
4764.289909111796
 20
-31375.00664120882
 10
4752.119401220702
 20
-31380.80720340064
 10
4740.82363670547
 20
-31387.17140873919
 10
4730.481847237781
 20
-31394.05461689952
 10
4727.544972574017
 20
-31396.23760017961
  0
ARC
  5
121AD
330
1F07
100
AcDbEntity
  8
器具
100
AcDbCircle
 10
4877.542497792774
 20
-31559.2004998329
 30
0.0
 40
220.8612118959413
100
AcDbArc
 50
58.27418485532581
 51
122.5605906125217
  0
LINE
  5
121AE
330
1F07
100
AcDbEntity
  8
器具
100
AcDbLine
 10
4727.22884347529
 20
-31316.96265732581
 30
0.0
 11
4727.224752132671
 21
-31318.05242365872
 31
0.0
  0
LWPOLYLINE
  5
121B0
330
1F07
100
AcDbEntity
  8
器具
100
AcDbPolyline
 90
       81
 70
   128
 43
0.0
 10
5087.696537884403
 20
-31777.29184176703
 10
5091.367105359384
 20
-31767.71748589793
 10
5093.7277879197
 20
-31758.01266512006
 10
5094.764031172362
 20
-31748.23721287976
 10
5094.469446332784
 20
-31738.45139809241
 10
5092.845849615219
 20
-31728.71555355805
 10
5089.903251032758
 20
-31719.08970399772
 10
5085.659792684415
 20
-31709.63319597445
 10
5080.141636901875
 20
-31700.40433200409
 10
5073.382804950433
 20
-31691.46001110278
 10
5065.424967277055
 20
-31682.85537798213
 10
5056.317186596575
 20
-31674.64348306786
 10
5046.115615406171
 20
-31666.87495542201
 10
5034.883149784258
 20
-31659.59769060155
 10
5022.689041616576
 20
-31652.85655536336
 10
5009.608471635035
 20
-31646.69311104744
 10
4995.722085903328
 20
-31641.14535733871
 10
4981.115498606968
 20
-31636.24749798294
 10
4965.878764213906
 20
-31632.02972991216
 10
4950.105822258531
 20
-31628.51805706802
 10
4933.893918172861
 20
-31625.7341300836
 10
4917.343003736803
 20
-31623.69511279156
 10
4900.555120841558
 20
-31622.41357641303
 10
4883.633772367513
 20
-31621.89742204746
 10
4866.68328405513
 20
-31622.14983195545
 10
4849.808161301067
 20
-31623.16924994699
 10
4833.112444849344
 20
-31624.94939097119
 10
4816.699069343222
 20
-31627.47927986796
 10
4800.669228701066
 20
-31630.7433190288
 10
4785.121752220601
 20
-31634.72138456834
 10
4770.152495264443
 20
-31639.38895038898
 10
4755.85374827933
 20
-31644.71723939627
 10
4742.31366779583
 20
-31650.67340091526
 10
4729.615732912128
 20
-31657.22071323104
 10
4717.838230619602
 20
-31664.31880998439
 10
4707.053773135882
 20
-31671.92392904899
 10
4697.328850228064
 20
-31679.98918233828
 10
4688.723419279312
 20
-31688.46484488257
 10
4681.290535633343
 20
-31697.29866140356
 10
4675.076025489164
 20
-31706.43616848511
 10
4670.118203368712
 20
-31715.8210303574
 10
4666.447635893817
 20
-31725.3953862265
 10
4664.086953333583
 20
-31735.10020700522
 10
4663.05071008109
 20
-31744.87565924467
 10
4663.345294920415
 20
-31754.66147403286
 10
4664.968891638233
 20
-31764.39731856638
 10
4667.911490220693
 20
-31774.02316812671
 10
4672.15494856887
 20
-31783.47967615082
 10
4677.673104351326
 20
-31792.70854012034
 10
4684.431936302682
 20
-31801.65286102166
 10
4692.389773976398
 20
-31810.25749414231
 10
4701.497554656542
 20
-31818.46938905657
 10
4711.699125847029
 20
-31826.23791670242
 10
4722.931591469026
 20
-31833.51518152389
 10
4735.125699636707
 20
-31840.25631676208
 10
4748.206269618332
 20
-31846.41976107682
 10
4762.092655350123
 20
-31851.96751478573
 10
4776.699242646485
 20
-31856.8653741415
 10
4791.935977039295
 20
-31861.08314221311
 10
4807.70891899467
 20
-31864.59481505641
 10
4823.920823080172
 20
-31867.37874204201
 10
4840.47173751648
 20
-31869.41775933354
 10
4857.259620411559
 20
-31870.6992957114
 10
4874.180968885688
 20
-31871.21545007798
 10
4891.131457198155
 20
-31870.96304016983
 10
4908.006579951965
 20
-31869.94362217845
 10
4924.702296403856
 20
-31868.16348115324
 10
4941.115671909977
 20
-31865.6335922573
 10
4957.145512552386
 20
-31862.36955309631
 10
4972.69298903285
 20
-31858.39148755676
 10
4987.662245989008
 20
-31853.72392173545
 10
5001.960992973703
 20
-31848.395632729
 10
5015.501073457539
 20
-31842.43947120918
 10
5028.199008341156
 20
-31835.8921588944
 10
5039.976510633682
 20
-31828.79406214104
 10
5050.760968117401
 20
-31821.18894307527
 10
5060.485891025388
 20
-31813.12368978632
 10
5069.091321973973
 20
-31804.64802724286
 10
5076.524205620106
 20
-31795.81421072188
 10
5082.73871576387
 20
-31786.67670364033
 10
5087.696537884403
 20
-31777.29184176703
  0
LINE
  5
121B1
330
1F07
100
AcDbEntity
  8
器具
100
AcDbLine
 10
4972.026206480462
 20
-31603.46886225196
 30
0.0
 11
4966.490785144674
 21
-31602.01857099889
 31
0.0
  0
LWPOLYLINE
  5
121B2
330
1F07
100
AcDbEntity
  8
器具
100
AcDbPolyline
 90
        3
 70
   128
 43
0.0
 10
4940.41327763407
 20
-31596.57420050499
 10
4933.67376941482
 20
-31595.51433549184
 10
4926.712318251091
 20
-31594.56060992795
  0
LWPOLYLINE
  5
121B3
330
1F07
100
AcDbEntity
  8
器具
100
AcDbPolyline
 90
        3
 70
   128
 43
0.0
 10
4905.637562461834
 20
-31592.5148378117
 10
4900.33497208335
 20
-31592.19378182228
 10
4885.291928627979
 20
-31591.69697482712
  0
LWPOLYLINE
  5
121B4
330
1F07
100
AcDbEntity
  8
器具
100
AcDbPolyline
 90
        3
 70
   128
 43
0.0
 10
4866.348084115577
 20
-31591.93438102181
 10
4849.588012543195
 20
-31592.94945535507
 10
4848.307437791838
 20
-31593.05850152783
  0
LWPOLYLINE
  5
121B5
330
1F07
100
AcDbEntity
  8
器具
100
AcDbPolyline
 90
        3
 70
   128
 43
0.0
 10
4824.312409866363
 20
-31595.95295297881
 10
4816.478920585183
 20
-31597.2594852762
 10
4815.189343112758
 20
-31597.49232388453
  0
LWPOLYLINE
  5
121B6
330
1F07
100
AcDbEntity
  8
器具
100
AcDbPolyline
 90
        3
 70
   128
 43
0.0
 10
4784.978659196957
 20
-31604.47977034119
 10
4784.901603462309
 20
-31604.50158997675
 10
4783.682245306088
 20
-31604.8497725908
  0
LINE
  5
121B7
330
1F07
100
AcDbEntity
  8
器具
100
AcDbLine
 10
4882.508455252592
 20
-31537.83729737758
 30
0.0
 11
4881.692791453318
 21
-31538.53878757067
 31
0.0
  0
LWPOLYLINE
  5
121B8
330
1F07
100
AcDbEntity
  8
器具
100
AcDbPolyline
 90
       96
 70
   128
 43
0.0
 10
4663.378405438368
 20
-31624.21881409887
 10
4677.972444382873
 20
-31616.19294064912
 10
4693.445120634293
 20
-31608.73711359595
 10
4709.728776116384
 20
-31601.88393537299
 10
4726.752206546874
 20
-31595.66337318643
 10
4744.440972795807
 20
-31590.10262797035
 10
4762.717726389314
 20
-31585.22601544914
 10
4781.502547734059
 20
-31581.05485980927
 10
4800.713295585694
 20
-31577.60740045191
 10
4820.265966232275
 20
-31574.89871224114
 10
4840.075060819503
 20
-31572.94063957996
 10
4860.05395921715
 20
-31571.74174462185
 10
4880.115298785852
 20
-31571.30726983085
 10
4900.171356391985
 20
-31571.6391150538
 10
4920.134431998938
 20
-31572.73582921564
 10
4939.917232156187
 20
-31574.59261666478
 10
4959.433251711749
 20
-31577.20135814197
 10
4978.597152078519
 20
-31580.55064628519
 10
4997.325134395831
 20
-31584.62583550834
 10
5015.535305962129
 20
-31589.40910604707
 10
5033.148038330409
 20
-31594.87954187488
 10
5050.086315503534
 20
-31601.01322216914
 10
5066.276070704865
 20
-31607.78332590657
 10
5081.646510254484
 20
-31615.16024914478
 10
5096.130423130825
 20
-31623.11173447742
 10
5109.664474868443
 20
-31631.60301207985
 10
5122.18948450238
 20
-31640.59695175733
 10
5133.650683352468
 20
-31650.05422529965
 10
5143.997954512243
 20
-31659.93347845651
 10
5153.186051997994
 20
-31670.19151176581
 10
5161.174798596376
 20
-31680.78346945931
 10
5167.929261551951
 20
-31691.66303560154
 10
5173.419905316482
 20
-31702.78263661611
 10
5177.622720702063
 20
-31714.0936493176
 10
5180.519329866063
 20
-31725.54661352634
 10
5182.097066673622
 20
-31737.09144834352
 10
5182.349032083251
 20
-31748.67767114315
 10
5181.274124314231
 20
-31760.2546183227
 10
5178.877043665028
 20
-31771.77166683515
 10
5175.168271958945
 20
-31783.17845555976
 10
5170.16402671128
 20
-31794.42510551087
 10
5163.88619021324
 20
-31805.46243795102
 10
5156.362213846301
 20
-31816.2421894318
 10
5147.624998045066
 20
-31826.717222844
 10
5137.71274843086
 20
-31836.84173353163
 10
5126.668808749342
 20
-31846.57144958484
 10
5114.541471338816
 20
-31855.86382543209
 10
5101.383765960014
 20
-31864.67822787796
 10
5087.25322791073
 20
-31872.97611378226
 10
5072.211646438562
 20
-31880.72119860179
 10
5056.324794552191
 20
-31887.87961505094
 10
5039.662141412631
 20
-31894.42006119679
 10
5022.296548562334
 20
-31900.3139373316
 10
5004.303951320662
 20
-31905.53547103581
 10
4985.763026737063
 20
-31910.06182986974
 10
4966.754849557527
 20
-31913.87322121828
 10
4947.362537704367
 20
-31916.95297883793
 10
4927.670888822976
 20
-31919.28763572989
 10
4907.766009484049
 20
-31920.86698303615
 10
4887.734938659839
 20
-31921.68411467151
 10
4867.66526712676
 20
-31921.73545752704
 10
4847.644754451881
 20
-31921.02078709395
 10
4827.760945243253
 20
-31919.54322844382
 10
4808.100786339171
 20
-31917.30924256536
 10
4788.750246612331
 20
-31914.32859810925
 10
4769.793941049365
 20
-31910.61432867642
 10
4751.314760751328
 20
-31906.1826758228
 10
4733.39351047221
 20
-31901.05301803679
 10
4716.108555279314
 20
-31895.2477860066
 10
4699.535477883522
 20
-31888.79236453704
 10
4683.746748136091
 20
-31881.71498154177
 10
4668.811406134529
 20
-31874.04658461699
 10
4654.794760329169
 20
-31865.82070571064
 10
4641.758101945934
 20
-31857.07331449789
 10
4629.758436975241
 20
-31847.84266109598
 10
4618.84823689856
 20
-31838.1691088027
 10
4609.075209244791
 20
-31828.09495760187
 10
4600.482088977186
 20
-31817.6642591921
 10
4593.106451624684
 20
-31806.92262436469
 10
4586.980548972045
 20
-31795.91702355539
 10
4582.131168033671
 20
-31784.69558145588
 10
4578.579513918342
 20
-31773.30736657759
 10
4576.341117105423
 20
-31761.80217668618
 10
4575.425765535016
 20
-31750.2303210513
 10
4575.837461806615
 20
-31738.64240045109
 10
4577.574405677099
 20
-31727.0890859156
 10
4580.629001932855
 20
-31715.62089714802
 10
4584.987893601977
 20
-31704.2879816221
 10
4590.632020359527
 20
-31693.13989529248
 10
4597.536701875939
 20
-31682.22538590403
 10
4605.671745735597
 20
-31671.59217983018
 10
4615.001579461298
 20
-31661.28677337493
 10
4625.48540606434
 20
-31651.35422945955
 10
4637.077382438336
 20
-31641.83798056941
 10
4649.726819820222
 20
-31632.77963884133
 10
4663.378405438368
 20
-31624.21881409887
  0
ARC
  5
121B9
330
1F07
100
AcDbEntity
  8
器具
100
AcDbCircle
 10
5083.563358160926
 20
-31740.02744336266
 30
0.0
 40
104.9622622853965
100
AcDbArc
 50
345.8164458240938
 51
15.25931731371836
  0
ARC
  5
121BA
330
1F07
100
AcDbEntity
  8
器具
100
AcDbCircle
 10
4674.125463665935
 20
-31743.01506621941
 30
0.0
 40
104.9106368066667
100
AcDbArc
 50
166.4660926829107
 51
195.2019204075776
  0
LWPOLYLINE
  5
121BB
330
1F07
100
AcDbEntity
  8
器具
100
AcDbPolyline
 90
       38
 70
   128
 43
0.0
 10
4658.850969625269
 20
-31601.58574736706
 10
4673.581787143578
 20
-31593.47911073941
 10
4689.191211858489
 20
-31585.9417041869
 10
4705.612401817464
 20
-31579.0058040402
 10
4722.775038963803
 20
-31572.70111088991
 10
4740.605630250065
 20
-31567.05462239921
 10
4759.027822347605
 20
-31562.09051769901
 10
4777.96272860072
 20
-31557.83005384828
 10
4797.329266834962
 20
-31554.29147480595
 10
4817.044506559608
 20
-31551.48993331202
 10
4837.024024091647
 20
-31549.43742599727
 10
4857.18226407018
 20
-31548.14274201136
 10
4877.43290581576
 20
-31547.61142539247
 10
4897.689232972818
 20
-31547.84575131821
 10
4917.864504837612
 20
-31548.84471636917
 10
4937.872327799085
 20
-31550.6040428231
 10
4957.627025287816
 20
-31553.11619697633
 10
4977.044004656043
 20
-31556.37042139677
 10
4996.040119417352
 20
-31560.35278099687
 10
5014.534025291656
 20
-31565.04622270094
 10
5032.446528535471
 20
-31570.43064847122
 10
5049.700925059295
 20
-31576.4830013705
 10
5066.223328888411
 20
-31583.17736429398
 10
5081.942988553332
 20
-31590.48507095127
 10
5096.792590057874
 20
-31598.37482862152
 10
5110.708545128288
 20
-31606.81285215183
 10
5123.631263509108
 20
-31615.76300862818
 10
5135.505408135935
 20
-31625.18697210659
 10
5146.280132098723
 20
-31635.04438773085
 10
5155.909296375201
 20
-31645.29304453131
 10
5164.351667405743
 20
-31655.88905618777
 10
5171.571093661352
 20
-31666.78704895137
 10
5177.536660450442
 20
-31677.94035594351
 10
5182.222822300358
 20
-31689.30121699176
 10
5185.609512346503
 20
-31700.82098314504
 10
5187.682228262168
 20
-31712.4503249948
 10
5188.432094359729
 20
-31724.13944391556
 10
5188.432201231342
 20
-31724.15397381428
  0
LWPOLYLINE
  5
121BC
330
1F07
100
AcDbEntity
  8
器具
100
AcDbPolyline
 90
       13
 70
   128
 43
0.0
 10
4569.089008344527
 20
-31728.66583885554
 10
4569.665309978829
 20
-31716.98152736412
 10
4571.565098247002
 20
-31705.32305974026
 10
4574.780344835449
 20
-31693.75488923175
 10
4579.297281565065
 20
-31682.32655251884
 10
4585.096566219297
 20
-31671.0869874956
 10
4592.153365370514
 20
-31660.08432370433
 10
4600.437460721884
 20
-31649.36567623984
 10
4609.913378505012
 20
-31638.97694399602
 10
4620.540541385259
 20
-31628.96261312115
 10
4632.273442219677
 20
-31619.36556651564
 10
4645.061838925792
 20
-31610.22690020699
 10
4658.850969625269
 20
-31601.58574736706
  0
LWPOLYLINE
  5
121BD
330
1F07
100
AcDbEntity
  8
器具
100
AcDbPolyline
 90
        9
 70
   128
 43
0.0
 10
4685.659600000758
 20
-31661.62872138625
 10
4688.832373560345
 20
-31662.60816984303
 10
4692.422992819216
 20
-31662.80879728009
 10
4695.884818544121
 20
-31662.20005998965
 10
4698.690819150185
 20
-31660.87463270472
 10
4700.41380648117
 20
-31659.03429971571
 10
4700.791471335315
 20
-31656.95923503655
 10
4699.766317661743
 20
-31654.96534845476
 10
4697.49441581447
 20
-31653.35619112712
  0
LINE
  5
121BE
330
1F07
100
AcDbEntity
  8
器具
100
AcDbLine
 10
4697.49441581447
 20
-31653.35619112698
 30
0.0
 11
4674.222667522172
 21
-31640.01473033932
 31
0.0
  0
LWPOLYLINE
  5
121BF
330
1F07
100
AcDbEntity
  8
器具
100
AcDbPolyline
 90
       10
 70
   128
 43
0.0
 10
4674.222667522183
 20
-31640.01473033946
 10
4670.566874754499
 20
-31639.04553666829
 10
4666.555075856303
 20
-31638.81203973641
 10
4662.616514316512
 20
-31639.33922261053
 10
4659.172597575135
 20
-31640.57067921677
 10
4656.591808418254
 20
-31642.37464953034
 10
4655.150279068522
 20
-31644.55811726683
 10
4655.002246341569
 20
-31646.8874617156
 10
4656.163549038698
 20
-31649.11345404809
 10
4658.509933268637
 20
-31650.99792362311
  0
LINE
  5
121C0
330
1F07
100
AcDbEntity
  8
器具
100
AcDbLine
 10
4658.509933268657
 20
-31650.9979236231
 30
0.0
 11
4685.659600000757
 21
-31661.62872138611
 31
0.0
  0
LWPOLYLINE
  5
121C1
330
1F07
100
AcDbEntity
  8
器具
100
AcDbPolyline
 90
        9
 70
   128
 43
0.0
 10
4664.775233760862
 20
-31680.24251124786
 10
4668.178479814403
 20
-31680.92200956215
 10
4671.783972391313
 20
-31680.7955553094
 10
4675.042807930536
 20
-31679.88240000391
 10
4677.458858262435
 20
-31678.32156326277
 10
4678.664301625895
 20
-31676.35066833123
 10
4678.475620195916
 20
-31674.26976609572
 10
4676.921539009981
 20
-31672.39565505903
 10
4674.23865284083
 20
-31671.01365163659
  0
LINE
  5
121C2
330
1F07
100
AcDbEntity
  8
器具
100
AcDbLine
 10
4674.238652840787
 20
-31671.01365163652
 30
0.0
 11
4647.608222094187
 21
-31659.95618229878
 31
0.0
  0
LWPOLYLINE
  5
121C3
330
1F07
100
AcDbEntity
  8
器具
100
AcDbPolyline
 90
       10
 70
   128
 43
0.0
 10
4647.608222094146
 20
-31659.95618229886
 10
4643.730046403226
 20
-31659.33043109681
 10
4639.699100189268
 20
-31659.46250975947
 10
4635.946675613863
 20
-31660.33828649885
 10
4632.874264342166
 20
-31661.86405734741
 10
4630.810599834858
 20
-31663.87657204851
 10
4629.976484424104
 20
-31666.1605010578
 10
4630.461164510506
 20
-31668.47147478125
 10
4632.212781619228
 20
-31670.56222997328
 10
4635.043921011941
 20
-31672.20906572509
  0
LINE
  5
121C4
330
1F07
100
AcDbEntity
  8
器具
100
AcDbLine
 10
4635.043921011963
 20
-31672.20906572492
 30
0.0
 11
4664.775233760852
 21
-31680.24251124775
 31
0.0
  0
LWPOLYLINE
  5
121C5
330
1F07
100
AcDbEntity
  8
器具
100
AcDbPolyline
 90
        9
 70
   128
 43
0.0
 10
4649.163511394043
 20
-31700.48917002092
 10
4652.713430729336
 20
-31700.85198668925
 10
4656.24501743088
 20
-31700.40156447099
 10
4659.220619437977
 20
-31699.20647606469
 10
4661.187228318699
 20
-31697.4486628482
 10
4661.845445698001
 20
-31695.39573594812
 10
4661.095063947015
 20
-31693.36023487586
 10
4659.050321885099
 20
-31691.65204621687
 10
4656.022512955297
 20
-31690.53122621096
  0
LINE
  5
121C6
330
1F07
100
AcDbEntity
  8
器具
100
AcDbLine
 10
4656.022512955297
 20
-31690.53122621091
 30
0.0
 11
4626.689129340799
 21
-31682.0300199168
 31
0.0
  0
LWPOLYLINE
  5
121C7
330
1F07
100
AcDbEntity
  8
器具
100
AcDbPolyline
 90
       10
 70
   128
 43
0.0
 10
4626.68912934057
 20
-31682.03001991683
 10
4622.68406428317
 20
-31681.76311925293
 10
4618.733226027297
 20
-31682.25752129735
 10
4615.259335562796
 20
-31683.46032737167
 10
4612.63408272333
 20
-31685.24284292064
 10
4611.138357134251
 20
-31687.41434721853
 10
4610.932194352536
 20
-31689.74249958632
 10
4612.037652819775
 20
-31691.97819874255
 10
4614.33645371363
 20
-31693.88223546199
 10
4617.582636221
 20
-31695.25088682934
  0
LINE
  5
121C8
330
1F07
100
AcDbEntity
  8
器具
100
AcDbLine
 10
4617.582636220989
 20
-31695.25088682931
 30
0.0
 11
4649.163511394063
 21
-31700.48917002077
 31
0.0
  0
LWPOLYLINE
  5
121C9
330
1F07
100
AcDbEntity
  8
器具
100
AcDbPolyline
 90
        9
 70
   128
 43
0.0
 10
4639.208845318179
 20
-31721.87015777276
 10
4642.818027138891
 20
-31721.90735904469
 10
4646.188748580156
 20
-31721.14405974944
 10
4648.807847858318
 20
-31719.69646528651
 10
4650.276590849919
 20
-31717.78495878847
 10
4650.371374749237
 20
-31715.70054979417
 10
4649.077769566229
 20
-31713.76057067631
 10
4646.592714964174
 20
-31712.2603656706
 10
4643.294537978465
 20
-31711.42832738824
  0
LINE
  5
121CA
330
1F07
100
AcDbEntity
  8
器具
100
AcDbLine
 10
4643.294537978486
 20
-31711.42832738813
 30
0.0
 11
4611.980486752201
 21
-31705.6927120511
 31
0.0
  0
LWPOLYLINE
  5
121CB
330
1F07
100
AcDbEntity
  8
器具
100
AcDbPolyline
 90
       10
 70
   128
 43
0.0
 10
4611.98048675219
 20
-31705.69271205112
 10
4607.947150321449
 20
-31705.79123390575
 10
4604.173702773838
 20
-31706.63578551141
 10
4601.063885132497
 20
-31708.13600384417
 10
4598.950433162976
 20
-31710.13137264383
 10
4598.059476220194
 20
-31712.4083968961
 10
4598.486342479162
 20
-31714.72344578638
 10
4600.185359271118
 20
-31716.82882004197
 10
4602.97473984294
 20
-31718.49925458535
 10
4606.556033678311
 20
-31719.55602082868
  0
LINE
  5
121CC
330
1F07
100
AcDbEntity
  8
器具
100
AcDbLine
 10
4606.556033678321
 20
-31719.55602082866
 30
0.0
 11
4639.208845318147
 21
-31721.87015777265
 31
0.0
  0
LWPOLYLINE
  5
121CD
330
1F07
100
AcDbEntity
  8
器具
100
AcDbPolyline
 90
        9
 70
   128
 43
0.0
 10
4635.156352448644
 20
-31743.85900362582
 10
4638.735926720989
 20
-31743.56967348189
 10
4641.86278455321
 20
-31742.51229207174
 10
4644.060890185641
 20
-31740.84783613085
 10
4644.995601961589
 20
-31738.82970398739
 10
4644.52461848617
 20
-31736.76513796549
 10
4642.719642724334
 20
-31734.96844952618
 10
4639.855465873604
 20
-31733.71316819853
 10
4636.368132895515
 20
-31733.19039918551
  0
LINE
  5
121CE
330
1F07
100
AcDbEntity
  8
器具
100
AcDbLine
 10
4636.368132895525
 20
-31733.19039918546
 30
0.0
 11
4603.844469924134
 21
-31730.36160468869
 31
0.0
  0
LWPOLYLINE
  5
121CF
330
1F07
100
AcDbEntity
  8
器具
100
AcDbPolyline
 90
       10
 70
   128
 43
0.0
 10
4603.844469924145
 20
-31730.3616046888
 10
4599.882176249282
 20
-31730.82312312796
 10
4596.379034211733
 20
-31731.99702863132
 10
4593.70986342492
 20
-31733.75771886784
 10
4592.16025252663
 20
-31735.91680831723
 10
4591.896002547241
 20
-31738.24328462977
 10
4592.9453869829
 20
-31740.48822585448
 10
4595.196126667498
 20
-31742.41143390828
 10
4598.407403109842
 20
-31743.80713463321
 10
4602.235624933796
 20
-31744.52599466051
  0
LINE
  5
121D0
330
1F07
100
AcDbEntity
  8
器具
100
AcDbLine
 10
4602.235624933796
 20
-31744.52599466045
 30
0.0
 11
4635.156352448624
 21
-31743.85900362567
 31
0.0
  0
LWPOLYLINE
  5
121D1
330
1F07
100
AcDbEntity
  8
器具
100
AcDbPolyline
 90
        9
 70
   128
 43
0.0
 10
4637.105818610373
 20
-31765.91426921635
 10
4640.567644335111
 20
-31765.30553192607
 10
4643.373644941259
 20
-31763.98010464081
 10
4645.096632272159
 20
-31762.13977165197
 10
4645.474297126386
 20
-31760.06470697281
 10
4644.449143452817
 20
-31758.07082039119
 10
4642.177241605459
 20
-31756.46166306322
 10
4639.004468045787
 20
-31755.48221460643
 10
4635.413848787002
 20
-31755.28158716954
  0
LINE
  5
121D2
330
1F07
100
AcDbEntity
  8
器具
100
AcDbLine
 10
4635.41384878699
 20
-31755.28158716939
 30
0.0
 11
4602.481414592676
 21
-31755.42926782341
 31
0.0
  0
LWPOLYLINE
  5
121D3
330
1F07
100
AcDbEntity
  8
器具
100
AcDbPolyline
 90
       10
 70
   128
 43
0.0
 10
4602.481414592708
 20
-31755.42926782345
 10
4598.687728494057
 20
-31756.24241873088
 10
4595.541150949844
 20
-31757.71677268272
 10
4593.378350860844
 20
-31759.6945807852
 10
4592.430737597174
 20
-31761.9642269366
 10
4592.799701292268
 20
-31764.28286974087
 10
4594.445764577357
 20
-31766.40242539727
 10
4597.192806473844
 20
-31768.09611148321
 10
4600.746906503452
 20
-31769.18271160617
 10
4604.727792788859
 20
-31769.54596469839
  0
LINE
  5
121D4
330
1F07
100
AcDbEntity
  8
器具
100
AcDbLine
 10
4604.727792788818
 20
-31769.54596469828
 30
0.0
 11
4637.105818610392
 21
-31765.91426921619
 31
0.0
  0
LWPOLYLINE
  5
121D5
330
1F07
100
AcDbEntity
  8
器具
100
AcDbPolyline
 90
        9
 70
   128
 43
0.0
 10
4645.009241475718
 20
-31787.49288071053
 10
4648.26807701494
 20
-31786.57972540519
 10
4650.684127347175
 20
-31785.01888866405
 10
4651.889570710635
 20
-31783.04799373235
 10
4651.700889280657
 20
-31780.96709149684
 10
4650.146808094554
 20
-31779.09298046031
 10
4647.463921925234
 20
-31777.71097703771
 10
4644.060675871693
 20
-31777.03147872358
 10
4640.455183294783
 20
-31777.15793297633
  0
LINE
  5
121D6
330
1F07
100
AcDbEntity
  8
器具
100
AcDbLine
 10
4640.455183294783
 20
-31777.1579329762
 30
0.0
 11
4607.924883704163
 21
-31780.27845239212
 31
0.0
  0
LWPOLYLINE
  5
121D7
330
1F07
100
AcDbEntity
  8
器具
100
AcDbPolyline
 90
       10
 70
   128
 43
0.0
 10
4607.924883704058
 20
-31780.27845239225
 10
4604.393218323937
 20
-31781.42321329358
 10
4601.680684455089
 20
-31783.16171220693
 10
4600.077510379715
 20
-31785.30793797667
 10
4599.755228134296
 20
-31787.63225460855
 10
4600.748320393473
 20
-31789.88597122421
 10
4602.950530986874
 20
-31791.82795081687
 10
4606.126233806373
 20
-31793.25041076382
 10
4609.935643685157
 20
-31794.00115458352
 10
4613.971171800182
 20
-31793.99985624315
  0
LINE
  5
121D8
330
1F07
100
AcDbEntity
  8
器具
100
AcDbLine
 10
4613.971171800161
 20
-31793.99985624312
 30
0.0
 11
4645.00924147575
 21
-31787.49288071043
 31
0.0
  0
LWPOLYLINE
  5
121D9
330
1F07
100
AcDbEntity
  8
器具
100
AcDbPolyline
 90
        9
 70
   128
 43
0.0
 10
4658.672012544577
 20
-31808.06350107684
 10
4661.647614551423
 20
-31806.86841267172
 10
4663.614223432145
 20
-31805.11059945506
 10
4664.272440811531
 20
-31803.05767255514
 10
4663.522059060795
 20
-31801.02217148204
 10
4661.477316998797
 20
-31799.3139828239
 10
4658.449508069078
 20
-31798.19316281715
 10
4654.899588733869
 20
-31797.8303461495
 10
4651.368002032157
 20
-31798.28076836775
  0
LINE
  5
121DA
330
1F07
100
AcDbEntity
  8
器具
100
AcDbLine
 10
4651.368002032189
 20
-31798.28076836775
 30
0.0
 11
4620.040840982854
 21
-31804.29728900164
 31
0.0
  0
LWPOLYLINE
  5
121DB
330
1F07
100
AcDbEntity
  8
器具
100
AcDbPolyline
 90
       10
 70
   128
 43
0.0
 10
4620.040840982855
 20
-31804.29728900179
 10
4616.858157643735
 20
-31805.74547208588
 10
4614.646459036436
 20
-31807.7053083466
 10
4613.642386441104
 20
-31809.96710458265
 10
4613.953370872543
 20
-31812.28885930476
 10
4615.54613846837
 20
-31814.42215574998
 10
4618.250270636161
 20
-31816.13874129647
 10
4621.77643803623
 20
-31817.25494941899
 10
4625.747357450197
 20
-31817.65135113129
 10
4629.73815929932
 20
-31817.28553332773
  0
LINE
  5
121DC
330
1F07
100
AcDbEntity
  8
器具
100
AcDbLine
 10
4629.73815929933
 20
-31817.28553332764
 30
0.0
 11
4658.672012544534
 21
-31808.06350107672
 31
0.0
  0
LWPOLYLINE
  5
121DD
330
1F07
100
AcDbEntity
  8
器具
100
AcDbPolyline
 90
        9
 70
   128
 43
0.0
 10
4677.757709048413
 20
-31827.11961337297
 10
4680.376808326406
 20
-31825.67201890904
 10
4681.845551318009
 20
-31823.76051241217
 10
4681.940335217159
 20
-31821.67610341787
 10
4680.646730034487
 20
-31819.7361243
 10
4678.161675432179
 20
-31818.23591929413
 10
4674.86349844647
 20
-31817.40388101177
 10
4671.254316625589
 20
-31817.36667974067
 10
4667.883595184324
 20
-31818.12997903592
  0
LINE
  5
121DE
330
1F07
100
AcDbEntity
  8
器具
100
AcDbLine
 10
4667.883595184304
 20
-31818.12997903582
 30
0.0
 11
4638.530951350197
 21
-31826.89435418125
 31
0.0
  0
LWPOLYLINE
  5
121DF
330
1F07
100
AcDbEntity
  8
器具
100
AcDbPolyline
 90
       10
 70
   128
 43
0.0
 10
4638.530951350187
 20
-31826.8943541814
 10
4635.775618278593
 20
-31828.61030037341
 10
4634.119214292787
 20
-31830.74321630906
 10
4633.738966777385
 20
-31833.06489008177
 10
4634.675560416407
 20
-31835.32691358843
 10
4636.828784124707
 20
-31837.28726102337
 10
4639.968253158726
 20
-31838.73618449052
 10
4643.758059195358
 20
-31839.51865603962
 10
4647.792710929349
 20
-31839.55095491895
 10
4651.64051972671
 20
-31838.82962530066
  0
LINE
  5
121E0
330
1F07
100
AcDbEntity
  8
器具
100
AcDbLine
 10
4651.640519726698
 20
-31838.82962530054
 30
0.0
 11
4677.757709048424
 21
-31827.11961337295
 31
0.0
  0
LWPOLYLINE
  5
121E1
330
1F07
100
AcDbEntity
  8
器具
100
AcDbPolyline
 90
        9
 70
   128
 43
0.0
 10
4701.796377797745
 20
-31844.19199286916
 10
4703.994483430175
 20
-31842.52753692827
 10
4704.929195206038
 20
-31840.50940478481
 10
4704.458211730621
 20
-31838.44483876291
 10
4702.653235968868
 20
-31836.6481503236
 10
4699.789059118056
 20
-31835.39286899596
 10
4696.301726139965
 20
-31834.87009998293
 10
4692.722151867789
 20
-31835.15943012602
 10
4689.595294035481
 20
-31836.21681153617
  0
LINE
  5
121E2
330
1F07
100
AcDbEntity
  8
器具
100
AcDbLine
 10
4689.595294035503
 20
-31836.21681153617
 30
0.0
 11
4662.939926923705
 21
-31847.51323319107
 31
0.0
  0
LWPOLYLINE
  5
121E3
330
1F07
100
AcDbEntity
  8
器具
100
AcDbPolyline
 90
       10
 70
   128
 43
0.0
 10
4662.939926923685
 20
-31847.5132331911
 10
4660.679789564333
 20
-31849.45469019993
 10
4659.619466363411
 20
-31851.70816634231
 10
4659.872406883589
 20
-31854.03255033686
 10
4661.411547686872
 20
-31856.17914410233
 10
4664.072207993543
 20
-31857.91827226761
 10
4667.569709747028
 20
-31859.0638563513
 10
4671.529836817518
 20
-31859.49332428084
 10
4675.528874356229
 20
-31859.16072502104
 10
4679.138944278643
 20
-31858.10164511762
  0
LINE
  5
121E4
330
1F07
100
AcDbEntity
  8
器具
100
AcDbLine
 10
4679.138944278643
 20
-31858.10164511745
 30
0.0
 11
4701.796377797725
 21
-31844.19199286902
 31
0.0
  0
LWPOLYLINE
  5
121E5
330
1F07
100
AcDbEntity
  8
器具
100
AcDbPolyline
 90
        9
 70
   128
 43
0.0
 10
4730.19610698813
 20
-31858.86026092339
 10
4731.919094319367
 20
-31857.01992793438
 10
4732.29675917326
 20
-31854.94486325522
 10
4731.271605499941
 20
-31852.9509766726
 10
4728.999703652667
 20
-31851.34181934563
 10
4725.826930092829
 20
-31850.36237088885
 10
4722.236310833957
 20
-31850.16174345195
 10
4718.774485109135
 20
-31850.77048074222
 10
4715.968484503324
 20
-31852.09590802632
  0
LINE
  5
121E6
330
1F07
100
AcDbEntity
  8
器具
100
AcDbLine
 10
4715.968484503281
 20
-31852.09590802621
 30
0.0
 11
4692.666737716119
 21
-31865.6462207984
 31
0.0
  0
LWPOLYLINE
  5
121E7
330
1F07
100
AcDbEntity
  8
器具
100
AcDbPolyline
 90
       10
 70
   128
 43
0.0
 10
4692.666737716119
 20
-31865.64622079841
 10
4690.957448151563
 20
-31867.76538351053
 10
4690.519314411715
 20
-31870.08393179677
 10
4691.399214732381
 20
-31872.35379196665
 10
4693.50300394502
 20
-31874.33209972763
 10
4696.605586563242
 20
-31875.80718551583
 10
4700.375000935518
 20
-31876.62122213394
 10
4704.407937568588
 20
-31876.6871115189
 10
4708.272891335567
 20
-31875.99780381705
 10
4711.556330480775
 20
-31874.62705169029
  0
LINE
  5
121E8
330
1F07
100
AcDbEntity
  8
器具
100
AcDbLine
 10
4711.556330480775
 20
-31874.62705169022
 30
0.0
 11
4730.196106988109
 21
-31858.86026092322
 31
0.0
  0
LWPOLYLINE
  5
121E9
330
1F07
100
AcDbEntity
  8
器具
100
AcDbPolyline
 90
        9
 70
   128
 43
0.0
 10
4762.257601034021
 20
-31870.76323609398
 10
4763.463044397314
 20
-31868.79234116244
 10
4763.274362967335
 20
-31866.71143892693
 10
4761.720281781316
 20
-31864.83732789058
 10
4759.03739561208
 20
-31863.4553244678
 10
4755.634149558539
 20
-31862.77582615351
 10
4752.028656981544
 20
-31862.90228040626
 10
4748.769821442407
 20
-31863.81543571092
 10
4746.353771110256
 20
-31865.37627245206
  0
LINE
  5
121EA
330
1F07
100
AcDbEntity
  8
器具
100
AcDbLine
 10
4746.353771110267
 20
-31865.37627245189
 30
0.0
 11
4726.979410987868
 21
-31880.84682266938
 31
0.0
  0
LWPOLYLINE
  5
121EB
330
1F07
100
AcDbEntity
  8
器具
100
AcDbPolyline
 90
       10
 70
   128
 43
0.0
 10
4726.979410987911
 20
-31880.84682266944
 10
4725.863057600301
 20
-31883.09151026532
 10
4726.057901628283
 20
-31885.41804034223
 10
4727.543095683591
 20
-31887.57748519654
 10
4730.159731033001
 20
-31889.33879445036
 10
4733.627840081886
 20
-31890.51351635394
 10
4737.576351580783
 20
-31890.97596122324
 10
4741.58279349226
 20
-31890.67664964699
 10
4745.218495498536
 20
-31889.64760654773
 10
4748.09445469743
 20
-31887.99893466493
  0
LINE
  5
121EC
330
1F07
100
AcDbEntity
  8
器具
100
AcDbLine
 10
4748.094454697262
 20
-31887.99893466485
 30
0.0
 11
4762.257601034
 21
-31870.76323609392
 31
0.0
  0
LWPOLYLINE
  5
121ED
330
1F07
100
AcDbEntity
  8
器具
100
AcDbPolyline
 90
        9
 70
   128
 43
0.0
 10
4797.191399545311
 20
-31879.60782762961
 10
4797.849616924696
 20
-31877.55490073002
 10
4797.09923517371
 20
-31875.5193996576
 10
4795.054493111963
 20
-31873.81121099861
 10
4792.026684182327
 20
-31872.6903909927
 10
4788.476764847203
 20
-31872.32757432438
 10
4784.945178145324
 20
-31872.77799654264
 10
4781.969576138476
 20
-31873.97308494877
 10
4780.002967257756
 20
-31875.73089816542
  0
LINE
  5
121EE
330
1F07
100
AcDbEntity
  8
器具
100
AcDbLine
 10
4780.002967257797
 20
-31875.73089816541
 30
0.0
 11
4765.033054846093
 21
-31892.74074953736
 31
0.0
  0
LWPOLYLINE
  5
121EF
330
1F07
100
AcDbEntity
  8
器具
100
AcDbPolyline
 90
       10
 70
   128
 43
0.0
 10
4765.033054846074
 20
-31892.74074953751
 10
4764.53712596063
 20
-31895.05569035957
 10
4765.360150049864
 20
-31897.33291533512
 10
4767.414067432661
 20
-31899.32877217378
 10
4770.479118672613
 20
-31900.82971364233
 10
4774.227357797478
 20
-31901.67514610906
 10
4778.257740965555
 20
-31901.7746123021
 10
4782.139036258677
 20
-31901.11746980951
 10
4785.455963454912
 20
-31899.77402976857
 10
4787.853627047375
 20
-31897.88803390279
  0
LINE
  5
121F0
330
1F07
100
AcDbEntity
  8
器具
100
AcDbLine
 10
4787.853627047333
 20
-31897.88803390265
 30
0.0
 11
4797.191399545289
 21
-31879.60782762955
 31
0.0
  0
LWPOLYLINE
  5
121F1
330
1F07
100
AcDbEntity
  8
器具
100
AcDbPolyline
 90
        9
 70
   128
 43
0.0
 10
4834.137316464413
 20
-31885.1762523323
 10
4834.232100363732
 20
-31883.091843338
 10
4832.938495180807
 20
-31881.15186422014
 10
4830.453440578584
 20
-31879.65165921443
 10
4827.155263593127
 20
-31878.81962093207
 10
4823.546081771995
 20
-31878.78241966081
 10
4820.175360330729
 20
-31879.54571895589
 10
4817.556261052819
 20
-31880.99331341899
 10
4816.08751806105
 20
-31882.90481991603
  0
LINE
  5
121F2
330
1F07
100
AcDbEntity
  8
器具
100
AcDbLine
 10
4816.087518061091
 20
-31882.90481991589
 30
0.0
 11
4805.890662285603
 21
-31901.03513345093
 31
0.0
  0
LWPOLYLINE
  5
121F3
330
1F07
100
AcDbEntity
  8
器具
100
AcDbPolyline
 90
       10
 70
   128
 43
0.0
 10
4805.890662285624
 20
-31901.03513345098
 10
4806.027369317537
 20
-31903.3633259721
 10
4807.45830788367
 20
-31905.53517301071
 10
4810.030374331796
 20
-31907.31829721443
 10
4813.468369728135
 20
-31908.52191273652
 10
4817.404444842064
 20
-31909.01723841318
 10
4821.417458269647
 20
-31908.75127674221
 10
4825.078036573134
 20
-31907.7524843635
 10
4827.994515203391
 20
-31906.1277273327
 10
4829.854844754454
 20
-31904.05084696048
  0
LINE
  5
121F4
330
1F07
100
AcDbEntity
  8
器具
100
AcDbLine
 10
4829.854844754432
 20
-31904.05084696037
 30
0.0
 11
4834.137316464434
 21
-31885.17625233228
 31
0.0
  0
LWPOLYLINE
  5
121F5
330
1F07
100
AcDbEntity
  8
器具
100
AcDbPolyline
 90
        9
 70
   128
 43
0.0
 10
4872.18562070048
 20
-31887.33139710567
 10
4871.714637225145
 20
-31885.26683108377
 10
4869.909661463224
 20
-31883.47014264531
 10
4867.045484612579
 20
-31882.21486131766
 10
4863.558151634404
 20
-31881.69209230379
 10
4859.978577362145
 20
-31881.98142244772
 10
4856.851719530006
 20
-31883.03880385687
 10
4854.653613897408
 20
-31884.70325979877
 10
4853.718902121546
 20
-31886.72139194207
  0
LINE
  5
121F6
330
1F07
100
AcDbEntity
  8
器具
100
AcDbLine
 10
4853.718902121586
 20
-31886.72139194201
 30
0.0
 11
4848.546183413464
 21
-31905.52573914875
 31
0.0
  0
LWPOLYLINE
  5
121F7
330
1F07
100
AcDbEntity
  8
器具
100
AcDbPolyline
 90
       10
 70
   128
 43
0.0
 10
4848.546183413485
 20
-31905.52573914885
 10
4849.312160181807
 20
-31907.80985554313
 10
4851.31577876816
 20
-31909.82284656129
 10
4854.342661468996
 20
-31911.34933169536
 10
4858.068946165484
 20
-31912.22598426248
 10
4862.095938035906
 20
-31912.35900658713
 10
4865.992768014097
 20
-31911.73416591071
 10
4869.342493741275
 20
-31910.41831722769
 10
4871.786710422611
 20
-31908.55225011823
 10
4873.063898444367
 20
-31906.33562492832
  0
LINE
  5
121F8
330
1F07
100
AcDbEntity
  8
器具
100
AcDbLine
 10
4873.063898444377
 20
-31906.33562492827
 30
0.0
 11
4872.18562070052
 21
-31887.33139710562
 31
0.0
  0
LWPOLYLINE
  5
121F9
330
1F07
100
AcDbEntity
  8
器具
100
AcDbPolyline
 90
        9
 70
   128
 43
0.0
 10
4910.399436727812
 20
-31886.02019513318
 10
4909.374283054326
 20
-31884.02630855122
 10
4907.10238120697
 20
-31882.41715122341
 10
4903.929607647466
 20
-31881.43770276663
 10
4900.338988388427
 20
-31881.23707532957
 10
4896.877162663438
 20
-31881.84581261984
 10
4894.071162057542
 20
-31883.17123990511
 10
4892.348174726725
 20
-31885.01157289395
 10
4891.970509872497
 20
-31887.0866375731
  0
LINE
  5
121FA
330
1F07
100
AcDbEntity
  8
器具
100
AcDbLine
 10
4891.970509872507
 20
-31887.08663757308
 30
0.0
 11
4891.949297733436
 21
-31906.10199301524
 31
0.0
  0
LWPOLYLINE
  5
121FB
330
1F07
100
AcDbEntity
  8
器具
100
AcDbPolyline
 90
       10
 70
   128
 43
0.0
 10
4891.949297733479
 20
-31906.10199301527
 10
4893.325683348006
 20
-31908.28579075701
 10
4895.852646215255
 20
-31910.09035923571
 10
4899.259813271635
 20
-31911.32261816946
 10
4903.182633771947
 20
-31911.85072168534
 10
4907.201384493983
 20
-31911.61816520768
 10
4910.886078136139
 20
-31910.64983117697
 10
4913.842469922383
 20
-31909.04932675234
 10
4915.754239928102
 20
-31906.98789832927
 10
4916.416837812796
 20
-31904.68610898887
  0
LINE
  5
121FC
330
1F07
100
AcDbEntity
  8
器具
100
AcDbLine
 10
4916.416837812796
 20
-31904.6861089888
 30
0.0
 11
4910.399436727812
 21
-31886.02019513308
 31
0.0
  0
LWPOLYLINE
  5
121FD
330
1F07
100
AcDbEntity
  8
器具
100
AcDbPolyline
 90
        9
 70
   128
 43
0.0
 10
4947.837813571677
 20
-31881.27493255834
 10
4946.283732385575
 20
-31879.40082152098
 10
4943.600846216255
 20
-31878.01881809921
 10
4940.197600162712
 20
-31877.33931978491
 10
4936.592107585803
 20
-31877.46577403666
 10
4933.333272046581
 20
-31878.37892934232
 10
4930.917221714515
 20
-31879.93976608346
 10
4929.711778351306
 20
-31881.910661015
 10
4929.900459781032
 20
-31883.99156325051
  0
LINE
  5
121FE
330
1F07
100
AcDbEntity
  8
器具
100
AcDbLine
 10
4929.900459781054
 20
-31883.99156325046
 30
0.0
 11
4935.031276524239
 21
-31902.74970576866
 31
0.0
  0
LWPOLYLINE
  5
121FF
330
1F07
100
AcDbEntity
  8
器具
100
AcDbPolyline
 90
       10
 70
   128
 43
0.0
 10
4935.031276524239
 20
-31902.74970576876
 10
4936.984179803295
 20
-31904.77941250814
 10
4939.9722647394
 20
-31906.33112398411
 10
4943.675820390158
 20
-31907.2388144133
 10
4947.698583834679
 20
-31907.40536521665
 10
4951.610138428318
 20
-31906.81295624758
 10
4954.991966347847
 20
-31905.52497246136
 10
4957.482228015973
 20
-31903.67922202471
 10
4958.8144772236
 20
-31901.47319149721
 10
4958.8461696123
 20
-31899.14291570065
  0
LINE
  5
12200
330
1F07
100
AcDbEntity
  8
器具
100
AcDbLine
 10
4958.8461696123
 20
-31899.14291570053
 30
0.0
 11
4947.837813571646
 21
-31881.27493255827
 31
0.0
  0
LWPOLYLINE
  5
12201
330
1F07
100
AcDbEntity
  8
器具
100
AcDbPolyline
 90
        9
 70
   128
 43
0.0
 10
4983.578894142987
 20
-31873.21245349477
 10
4981.534152081157
 20
-31871.50426483579
 10
4978.506343151355
 20
-31870.38344482987
 10
4974.956423816395
 20
-31870.02062816139
 10
4971.424837114517
 20
-31870.47105038048
 10
4968.44923510767
 20
-31871.66613878595
 10
4966.482626226949
 20
-31873.4239520026
 10
4965.824408847564
 20
-31875.47687890252
 10
4966.574790598298
 20
-31877.51237997561
  0
LINE
  5
12202
330
1F07
100
AcDbEntity
  8
器具
100
AcDbLine
 10
4966.574790598298
 20
-31877.5123799755
 30
0.0
 11
4976.731298487427
 21
-31895.55142184635
 31
0.0
  0
LWPOLYLINE
  5
12203
330
1F07
100
AcDbEntity
  8
器具
100
AcDbPolyline
 90
       10
 70
   128
 43
0.0
 10
4976.731298487395
 20
-31895.55142184643
 10
4979.212632470927
 20
-31897.37705946855
 10
4982.588262907392
 20
-31898.63770565394
 10
4986.497013321579
 20
-31899.19847722705
 10
4990.520665922915
 20
-31898.99937428533
 10
4994.228708932571
 20
-31898.06169990006
 10
4997.224399302512
 20
-31896.48578079253
 10
4999.187212345595
 20
-31894.44023284691
 10
4999.907136358196
 20
-31892.14392000787
 10
4999.307142879287
 20
-31889.84253687847
  0
LINE
  5
12204
330
1F07
100
AcDbEntity
  8
器具
100
AcDbLine
 10
4999.307142879287
 20
-31889.8425368784
 30
0.0
 11
4983.578894142883
 21
-31873.21245349461
 31
0.0
  0
LWPOLYLINE
  5
12205
330
1F07
100
AcDbEntity
  8
器具
100
AcDbPolyline
 90
        9
 70
   128
 43
0.0
 10
5016.74261442075
 20
-31862.03128293435
 10
5014.257559818361
 20
-31860.53107792848
 10
5010.959382832651
 20
-31859.69903964696
 10
5007.35020101177
 20
-31859.66183837503
 10
5003.979479570505
 20
-31860.42513767028
 10
5001.360380292595
 20
-31861.87273213321
 10
4999.891637300825
 20
-31863.78423863108
 10
4999.796853401591
 20
-31865.86864762539
 10
5001.090458584432
 20
-31867.80862674325
  0
LINE
  5
12206
330
1F07
100
AcDbEntity
  8
器具
100
AcDbLine
 10
5001.090458584432
 20
-31867.80862674321
 30
0.0
 11
5016.022570687352
 21
-31884.68438688806
 31
0.0
  0
LWPOLYLINE
  5
12207
330
1F07
100
AcDbEntity
  8
器具
100
AcDbPolyline
 90
       10
 70
   128
 43
0.0
 10
5016.022570687332
 20
-31884.68438688816
 10
5018.971236697738
 20
-31886.26100213555
 10
5022.651293410794
 20
-31887.19954173741
 10
5026.668992180092
 20
-31887.39958639684
 10
5030.594458258157
 20
-31886.83973228489
 10
5034.007685358361
 20
-31885.57988114028
 10
5036.543474339559
 20
-31883.75483106979
 10
5037.930507786092
 20
-31881.55985379321
 10
5038.020379685215
 20
-31879.22980148602
 10
5036.803474169415
 20
-31877.01397871414
  0
LINE
  5
12208
330
1F07
100
AcDbEntity
  8
器具
100
AcDbLine
 10
5036.803474169426
 20
-31877.01397871398
 30
0.0
 11
5016.742614420739
 21
-31862.03128293419
 31
0.0
  0
LWPOLYLINE
  5
12209
330
1F07
100
AcDbEntity
  8
器具
100
AcDbPolyline
 90
        9
 70
   128
 43
0.0
 10
5046.512373547
 20
-31848.00673840574
 10
5043.648196696188
 20
-31846.7514570781
 10
5040.160863718181
 20
-31846.22868806423
 10
5036.581289446089
 20
-31846.51801820816
 10
5033.454431613781
 20
-31847.57539961731
 10
5031.256325981352
 20
-31849.2398555592
 10
5030.321614205488
 20
-31851.2579877025
 10
5030.792597680571
 20
-31853.32255372457
 10
5032.597573442743
 20
-31855.11924216303
  0
LINE
  5
1220A
330
1F07
100
AcDbEntity
  8
器具
100
AcDbLine
 10
5032.597573442721
 20
-31855.11924216294
 30
0.0
 11
5051.937611603001
 21
-31870.41618335931
 31
0.0
  0
LWPOLYLINE
  5
1220B
330
1F07
100
AcDbEntity
  8
器具
100
AcDbPolyline
 90
       10
 70
   128
 43
0.0
 10
5051.937611602959
 20
-31870.41618335947
 10
5055.28100369655
 20
-31871.70495473278
 10
5059.174871476129
 20
-31872.2982777908
 10
5063.202589523295
 20
-31872.13266977503
 10
5066.933211075239
 20
-31871.22584995838
 10
5069.967577286917
 20
-31869.67484376976
 10
5071.981025339082
 20
-31867.64560152696
 10
5072.758125822214
 20
-31865.3552425445
 10
5072.215732663381
 20
-31863.04882438994
 10
5070.411879362935
 20
-31860.97312288614
  0
LINE
  5
1220C
330
1F07
100
AcDbEntity
  8
器具
100
AcDbLine
 10
5070.411879362933
 20
-31860.97312288609
 30
0.0
 11
5046.512373546999
 21
-31848.00673840562
 31
0.0
  0
LWPOLYLINE
  5
1220D
330
1F07
100
AcDbEntity
  8
器具
100
AcDbPolyline
 90
        9
 70
   128
 43
0.0
 10
5072.155141252526
 20
-31831.48415073903
 10
5068.982367692687
 20
-31830.50470228224
 10
5065.391748434067
 20
-31830.30407484434
 10
5061.929922708994
 20
-31830.91281213545
 10
5059.123922103182
 20
-31832.23823941971
 10
5057.40093477203
 20
-31834.07857240972
 10
5057.023269918054
 20
-31836.15363708889
 10
5058.048423591539
 20
-31838.14752367051
 10
5060.320325438981
 20
-31839.75668099731
  0
LINE
  5
1220E
330
1F07
100
AcDbEntity
  8
器具
100
AcDbLine
 10
5060.320325438949
 20
-31839.75668099726
 30
0.0
 11
5083.592073731121
 21
-31853.09814178571
 31
0.0
  0
LWPOLYLINE
  5
1220F
330
1F07
100
AcDbEntity
  8
器具
100
AcDbPolyline
 90
       10
 70
   128
 43
0.0
 10
5083.592073731102
 20
-31853.09814178582
 10
5087.247866498703
 20
-31854.06733545597
 10
5091.259665397149
 20
-31854.30083238802
 10
5095.198226936519
 20
-31853.77364951491
 10
5098.642143678317
 20
-31852.54219290766
 10
5101.222932834862
 20
-31850.73822259492
 10
5102.664462184678
 20
-31848.55475485844
 10
5102.812494911631
 20
-31846.22541040951
 10
5101.651192214587
 20
-31843.99941807635
 10
5099.30480798473
 20
-31842.11494850115
  0
LINE
  5
12210
330
1F07
100
AcDbEntity
  8
器具
100
AcDbLine
 10
5099.304807984762
 20
-31842.11494850114
 30
0.0
 11
5072.155141252546
 21
-31831.48415073892
 31
0.0
  0
LWPOLYLINE
  5
12211
330
1F07
100
AcDbEntity
  8
器具
100
AcDbPolyline
 90
        9
 70
   128
 43
0.0
 10
5093.039507492591
 20
-31812.87036087742
 10
5089.636261438882
 20
-31812.19086256311
 10
5086.030768861971
 20
-31812.31731681587
 10
5082.771933322749
 20
-31813.23047212119
 10
5080.355882990764
 20
-31814.7913088615
 10
5079.150439627473
 20
-31816.7622037932
 10
5079.339121057284
 20
-31818.84310602871
 10
5080.893202243304
 20
-31820.71721706608
 10
5083.576088412539
 20
-31822.09922048851
  0
LINE
  5
12212
330
1F07
100
AcDbEntity
  8
器具
100
AcDbLine
 10
5083.576088412496
 20
-31822.09922048851
 30
0.0
 11
5110.206519159243
 21
-31833.15668982547
 31
0.0
  0
LWPOLYLINE
  5
12213
330
1F07
100
AcDbEntity
  8
器具
100
AcDbPolyline
 90
       10
 70
   128
 43
0.0
 10
5110.206519159223
 20
-31833.15668982558
 10
5114.084694850143
 20
-31833.78244102863
 10
5118.115641063932
 20
-31833.65036236496
 10
5121.868065639171
 20
-31832.77458562625
 10
5124.940476911034
 20
-31831.24881477769
 10
5127.004141418511
 20
-31829.23630007592
 10
5127.83825682918
 20
-31826.95237106764
 10
5127.353576742695
 20
-31824.64139734318
 10
5125.601959634055
 20
-31822.55064215199
 10
5122.770820241426
 20
-31820.90380640018
  0
LINE
  5
12214
330
1F07
100
AcDbEntity
  8
器具
100
AcDbLine
 10
5122.770820241466
 20
-31820.90380640011
 30
0.0
 11
5093.039507492568
 21
-31812.87036087728
 31
0.0
  0
LWPOLYLINE
  5
12215
330
1F07
100
AcDbEntity
  8
器具
100
AcDbPolyline
 90
        9
 70
   128
 43
0.0
 10
5108.651229859074
 20
-31792.62370210351
 10
5105.101310524116
 20
-31792.26088543619
 10
5101.569723822321
 20
-31792.71130765445
 10
5098.59412181539
 20
-31793.90639606074
 10
5096.627512934752
 20
-31795.6642092774
 10
5095.969295555367
 20
-31797.71713617732
 10
5096.719677306018
 20
-31799.75263724941
 10
5098.7644193681
 20
-31801.46082590824
 10
5101.792228297735
 20
-31802.58164591414
  0
LINE
  5
12216
330
1F07
100
AcDbEntity
  8
器具
100
AcDbLine
 10
5101.792228297735
 20
-31802.58164591412
 30
0.0
 11
5131.125611912505
 21
-31811.08285220849
 31
0.0
  0
LWPOLYLINE
  5
12217
330
1F07
100
AcDbEntity
  8
器具
100
AcDbPolyline
 90
       10
 70
   128
 43
0.0
 10
5131.125611912463
 20
-31811.08285220861
 10
5135.130676970282
 20
-31811.3497528725
 10
5139.081515225819
 20
-31810.85535082809
 10
5142.555405690488
 20
-31809.65254475377
 10
5145.180658529955
 20
-31807.87002920463
 10
5146.676384119201
 20
-31805.69852490691
 10
5146.882546900916
 20
-31803.37037253811
 10
5145.777088433425
 20
-31801.13467338189
 10
5143.478287539823
 20
-31799.23063666244
 10
5140.232105032033
 20
-31797.8619852961
  0
LINE
  5
12218
330
1F07
100
AcDbEntity
  8
器具
100
AcDbLine
 10
5140.232105032044
 20
-31797.86198529598
 30
0.0
 11
5108.651229859095
 21
-31792.62370210348
 31
0.0
  0
LWPOLYLINE
  5
12219
330
1F07
100
AcDbEntity
  8
器具
100
AcDbPolyline
 90
        9
 70
   128
 43
0.0
 10
5118.605895935274
 20
-31771.24271435201
 10
5114.996714114393
 20
-31771.20551308074
 10
5111.625992672961
 20
-31771.96881237582
 10
5109.006893394965
 20
-31773.41640683893
 10
5107.53815040328
 20
-31775.3279133358
 10
5107.443366504213
 20
-31777.41232233127
 10
5108.736971686972
 20
-31779.35230144813
 10
5111.222026289193
 20
-31780.85250645484
 10
5114.520203274902
 20
-31781.68454473653
  0
LINE
  5
1221A
330
1F07
100
AcDbEntity
  8
器具
100
AcDbLine
 10
5114.520203274934
 20
-31781.68454473638
 30
0.0
 11
5145.834254501093
 21
-31787.42016007393
 31
0.0
  0
LWPOLYLINE
  5
1221B
330
1F07
100
AcDbEntity
  8
器具
100
AcDbPolyline
 90
       10
 70
   128
 43
0.0
 10
5145.834254501093
 20
-31787.42016007399
 10
5149.867590931668
 20
-31787.32163821868
 10
5153.641038479278
 20
-31786.47708661369
 10
5156.750856120702
 20
-31784.97686828093
 10
5158.864308090392
 20
-31782.9814994806
 10
5159.755265033259
 20
-31780.70447522833
 10
5159.328398774122
 20
-31778.38942633872
 10
5157.629381982083
 20
-31776.2840520833
 10
5154.840001410511
 20
-31774.61361753942
 10
5151.258707574722
 20
-31773.55685129642
  0
LINE
  5
1221C
330
1F07
100
AcDbEntity
  8
器具
100
AcDbLine
 10
5151.258707574712
 20
-31773.55685129636
 30
0.0
 11
5118.605895935274
 21
-31771.24271435186
 31
0.0
  0
LWPOLYLINE
  5
1221D
330
1F07
100
AcDbEntity
  8
器具
100
AcDbPolyline
 90
        9
 70
   128
 43
0.0
 10
5122.658388804389
 20
-31749.25386849978
 10
5119.078814532296
 20
-31749.54319864338
 10
5115.951956699989
 20
-31750.60058005269
 10
5113.753851067642
 20
-31752.26503599442
 10
5112.819139291696
 20
-31754.28316813805
 10
5113.290122766946
 20
-31756.34773415978
 10
5115.09509852895
 20
-31758.14442259842
 10
5117.959275379763
 20
-31759.39970392573
 10
5121.446608357769
 20
-31759.9224729396
  0
LINE
  5
1221E
330
1F07
100
AcDbEntity
  8
器具
100
AcDbLine
 10
5121.446608357769
 20
-31759.92247293957
 30
0.0
 11
5153.970271329161
 21
-31762.75126743634
 31
0.0
  0
LWPOLYLINE
  5
1221F
330
1F07
100
AcDbEntity
  8
器具
100
AcDbPolyline
 90
       10
 70
   128
 43
0.0
 10
5153.970271329139
 20
-31762.75126743648
 10
5157.932565003833
 20
-31762.2897489963
 10
5161.435707041635
 20
-31761.11584349378
 10
5164.104877828364
 20
-31759.3551532576
 10
5165.654488726653
 20
-31757.19606380822
 10
5165.91873870621
 20
-31754.86958749467
 10
5164.869354270301
 20
-31752.62464627079
 10
5162.618614585785
 20
-31750.70143821716
 10
5159.407338143108
 20
-31749.30573749189
 10
5155.579116319657
 20
-31748.58687746493
  0
LINE
  5
12220
330
1F07
100
AcDbEntity
  8
器具
100
AcDbLine
 10
5155.579116319624
 20
-31748.58687746484
 30
0.0
 11
5122.658388804409
 21
-31749.25386849963
 31
0.0
  0
LWPOLYLINE
  5
12221
330
1F07
100
AcDbEntity
  8
器具
100
AcDbPolyline
 90
        9
 70
   128
 43
0.0
 10
5120.708922642997
 20
-31727.19860290808
 10
5117.247096917839
 20
-31727.80734019937
 10
5114.441096312111
 20
-31729.13276748362
 10
5112.718108980875
 20
-31730.9731004733
 10
5112.340444126982
 20
-31733.04816515246
 10
5113.365597800552
 20
-31735.04205173442
 10
5115.637499647825
 20
-31736.65120906205
 10
5118.810273207412
 20
-31737.630657518
 10
5122.400892466284
 20
-31737.83128495607
  0
LINE
  5
12222
330
1F07
100
AcDbEntity
  8
器具
100
AcDbLine
 10
5122.400892466304
 20
-31737.8312849559
 30
0.0
 11
5155.333326660492
 21
-31737.68360430189
 31
0.0
  0
LWPOLYLINE
  5
12223
330
1F07
100
AcDbEntity
  8
器具
100
AcDbPolyline
 90
       10
 70
   128
 43
0.0
 10
5155.333326660493
 20
-31737.68360430199
 10
5159.127012758975
 20
-31736.87045339455
 10
5162.27359030344
 20
-31735.39609944272
 10
5164.436390392607
 20
-31733.41829133924
 10
5165.38400365611
 20
-31731.14864518884
 10
5165.015039961017
 20
-31728.83000238357
 10
5163.368976676013
 20
-31726.71044672799
 10
5160.621934779608
 20
-31725.01676064223
 10
5157.067834749999
 20
-31723.9301605181
 10
5153.086948464509
 20
-31723.56690742688
  0
LINE
  5
12224
330
1F07
100
AcDbEntity
  8
器具
100
AcDbLine
 10
5153.086948464476
 20
-31723.56690742675
 30
0.0
 11
5120.708922643037
 21
-31727.19860290806
 31
0.0
  0
LWPOLYLINE
  5
12225
330
1F07
100
AcDbEntity
  8
器具
100
AcDbPolyline
 90
        9
 70
   128
 43
0.0
 10
5112.805499777316
 20
-31705.61999141475
 10
5109.546664238177
 20
-31706.53314671923
 10
5107.130613906276
 20
-31708.09398346038
 10
5105.925170542817
 20
-31710.06487839208
 10
5106.113851972795
 20
-31712.14578062742
 10
5107.667933158563
 20
-31714.01989166496
 10
5110.350819327799
 20
-31715.40189508739
 10
5113.75406538134
 20
-31716.08139340169
 10
5117.359557958417
 20
-31715.95493914894
  0
LINE
  5
12226
330
1F07
100
AcDbEntity
  8
器具
100
AcDbLine
 10
5117.359557958375
 20
-31715.95493914883
 30
0.0
 11
5149.88985754913
 21
-31712.83441973292
 31
0.0
  0
LWPOLYLINE
  5
12227
330
1F07
100
AcDbEntity
  8
器具
100
AcDbPolyline
 90
       10
 70
   128
 43
0.0
 10
5149.88985754914
 20
-31712.83441973302
 10
5153.421522929264
 20
-31711.68965883068
 10
5156.134056798279
 20
-31709.95115991834
 10
5157.737230873401
 20
-31707.80493414776
 10
5158.059513118988
 20
-31705.48061751673
 10
5157.066420859811
 20
-31703.22690090006
 10
5154.864210266578
 20
-31701.28492130739
 10
5151.688507446745
 20
-31699.86246136128
 10
5147.879097568043
 20
-31699.11171754091
 10
5143.843569453019
 20
-31699.11301588196
  0
LINE
  5
12228
330
1F07
100
AcDbEntity
  8
器具
100
AcDbLine
 10
5143.843569452997
 20
-31699.11301588192
 30
0.0
 11
5112.805499777283
 21
-31705.6199914146
 31
0.0
  0
LWPOLYLINE
  5
12229
330
1F07
100
AcDbEntity
  8
器具
100
AcDbPolyline
 90
        9
 70
   128
 43
0.0
 10
5099.142728708791
 20
-31685.04937104759
 10
5096.16712670161
 20
-31686.24445945372
 10
5094.200517821223
 20
-31688.00227267038
 10
5093.54230044167
 20
-31690.05519957013
 10
5094.292682192656
 20
-31692.09070064238
 10
5096.337424254655
 20
-31693.79888930138
 10
5099.36523318429
 20
-31694.91970930728
 10
5102.915152519415
 20
-31695.28252597578
 10
5106.44673922096
 20
-31694.83210375651
  0
LINE
  5
1222A
330
1F07
100
AcDbEntity
  8
器具
100
AcDbLine
 10
5106.446739220979
 20
-31694.83210375649
 30
0.0
 11
5137.773900270449
 21
-31688.81558312286
 31
0.0
  0
LWPOLYLINE
  5
1222B
330
1F07
100
AcDbEntity
  8
器具
100
AcDbPolyline
 90
       10
 70
   128
 43
0.0
 10
5137.773900270429
 20
-31688.81558312298
 10
5140.956583609463
 20
-31687.36740003956
 10
5143.168282216848
 20
-31685.40756377884
 10
5144.172354812013
 20
-31683.14576754178
 10
5143.861370380907
 20
-31680.82401281967
 10
5142.268602784914
 20
-31678.69071637563
 10
5139.56447061704
 20
-31676.97413082796
 10
5136.038303216887
 20
-31675.85792270645
 10
5132.067383803086
 20
-31675.46152099381
 10
5128.076581953797
 20
-31675.8273387977
  0
LINE
  5
1222C
330
1F07
100
AcDbEntity
  8
器具
100
AcDbLine
 10
5128.076581953838
 20
-31675.82733879765
 30
0.0
 11
5099.142728708748
 21
-31685.04937104753
 31
0.0
  0
LWPOLYLINE
  5
1222D
330
1F07
100
AcDbEntity
  8
器具
100
AcDbPolyline
 90
        9
 70
   128
 43
0.0
 10
5080.05703220487
 20
-31665.99325875213
 10
5077.437932927046
 20
-31667.4408532154
 10
5075.969189935276
 20
-31669.35235971227
 10
5075.874406035957
 20
-31671.43676870757
 10
5077.168011218966
 20
-31673.37674782443
 10
5079.653065821273
 20
-31674.87695283131
 10
5082.95124280673
 20
-31675.70899111267
 10
5086.560424627442
 20
-31675.7461923846
 10
5089.931146068959
 20
-31674.98289308952
  0
LINE
  5
1222E
330
1F07
100
AcDbEntity
  8
器具
100
AcDbLine
 10
5089.931146068991
 20
-31674.98289308948
 30
0.0
 11
5119.283789903097
 21
-31666.218517943
 31
0.0
  0
LWPOLYLINE
  5
1222F
330
1F07
100
AcDbEntity
  8
器具
100
AcDbPolyline
 90
       10
 70
   128
 43
0.0
 10
5119.283789903097
 20
-31666.21851794304
 10
5122.039122974608
 20
-31664.50257175203
 10
5123.695526960497
 20
-31662.36965581604
 10
5124.075774475817
 20
-31660.04798204334
 10
5123.139180836711
 20
-31657.78595853701
 10
5120.985957128579
 20
-31655.82561110207
 10
5117.84648809439
 20
-31654.37668763391
 10
5114.056682057926
 20
-31653.59421608481
 10
5110.022030323683
 20
-31653.56191720632
 10
5106.17422152649
 20
-31654.2832468246
  0
LINE
  5
12230
330
1F07
100
AcDbEntity
  8
器具
100
AcDbLine
 10
5106.174221526469
 20
-31654.28324682449
 30
0.0
 11
5080.05703220487
 21
-31665.99325875207
 31
0.0
  0
LWPOLYLINE
  5
12231
330
1F07
100
AcDbEntity
  8
器具
100
AcDbPolyline
 90
        9
 70
   128
 43
0.0
 10
5056.018363455455
 20
-31648.92087925527
 10
5053.820257823108
 20
-31650.58533519699
 10
5052.885546047245
 20
-31652.60346734063
 10
5053.356529522413
 20
-31654.66803336236
 10
5055.161505284501
 20
-31656.46472180083
 10
5058.025682135228
 20
-31657.7200031283
 10
5061.513015113402
 20
-31658.24277214217
 10
5065.092589385328
 20
-31657.95344199824
 10
5068.219447217803
 20
-31656.89606058927
  0
LINE
  5
12232
330
1F07
100
AcDbEntity
  8
器具
100
AcDbLine
 10
5068.219447217792
 20
-31656.89606058912
 30
0.0
 11
5094.874814329598
 21
-31645.59963893422
 31
0.0
  0
LWPOLYLINE
  5
12233
330
1F07
100
AcDbEntity
  8
器具
100
AcDbPolyline
 90
       10
 70
   128
 43
0.0
 10
5094.8748143296
 20
-31645.59963893433
 10
5097.134951688782
 20
-31643.6581819245
 10
5098.195274889874
 20
-31641.40470578312
 10
5097.942334369528
 20
-31639.08032178757
 10
5096.40319356658
 20
-31636.9337280221
 10
5093.742533259741
 20
-31635.19459985783
 10
5090.245031506174
 20
-31634.04901577314
 10
5086.284904435682
 20
-31633.61954784359
 10
5082.285866897055
 20
-31633.9521471044
 10
5078.675796974642
 20
-31635.01122700765
  0
LINE
  5
12234
330
1F07
100
AcDbEntity
  8
器具
100
AcDbLine
 10
5078.675796974652
 20
-31635.01122700758
 30
0.0
 11
5056.01836345557
 21
-31648.92087925522
 31
0.0
  0
LWPOLYLINE
  5
12235
330
1F07
100
AcDbEntity
  8
器具
100
AcDbPolyline
 90
        9
 70
   128
 43
0.0
 10
5027.618634264902
 20
-31634.25261120188
 10
5025.895646934086
 20
-31636.09294419106
 10
5025.517982079857
 20
-31638.16800887004
 10
5026.543135753512
 20
-31640.16189545184
 10
5028.815037600701
 20
-31641.77105277964
 10
5031.987811160371
 20
-31642.75050123659
 10
5035.578430419243
 20
-31642.95112867349
 10
5039.040256144232
 20
-31642.34239138338
 10
5041.846256750129
 20
-31641.01696409812
  0
LINE
  5
12236
330
1F07
100
AcDbEntity
  8
器具
100
AcDbLine
 10
5041.846256750138
 20
-31641.01696409803
 30
0.0
 11
5065.148003537312
 21
-31627.46665132663
 31
0.0
  0
LWPOLYLINE
  5
12237
330
1F07
100
AcDbEntity
  8
器具
100
AcDbPolyline
 90
       10
 70
   128
 43
0.0
 10
5065.148003537166
 20
-31627.46665132669
 10
5066.857293101637
 20
-31625.34748861391
 10
5067.295426841318
 20
-31623.02894032766
 10
5066.415526520652
 20
-31620.75908015861
 10
5064.311737308013
 20
-31618.78077239747
 10
5061.209154689792
 20
-31617.3056866096
 10
5057.43974031785
 20
-31616.49164999149
 10
5053.406803684696
 20
-31616.42576060637
 10
5049.541849917718
 20
-31617.11506830739
 10
5046.258410772509
 20
-31618.48582043414
  0
LINE
  5
12238
330
1F07
100
AcDbEntity
  8
器具
100
AcDbLine
 10
5046.258410772529
 20
-31618.48582043403
 30
0.0
 11
5027.618634264922
 21
-31634.25261120181
 31
0.0
  0
LWPOLYLINE
  5
12239
330
1F07
100
AcDbEntity
  8
器具
100
AcDbPolyline
 90
        9
 70
   128
 43
0.0
 10
4995.55714021943
 20
-31622.34963603045
 10
4994.351696855971
 20
-31624.32053096198
 10
4994.540378285949
 20
-31626.40143319749
 10
4996.094459471716
 20
-31628.27554423503
 10
4998.777345641036
 20
-31629.65754765746
 10
5002.180591694912
 20
-31630.3370459716
 10
5005.786084271739
 20
-31630.21059171885
 10
5009.044919810708
 20
-31629.29743641352
 10
5011.46097014286
 20
-31627.73659967237
  0
LINE
  5
1223A
330
1F07
100
AcDbEntity
  8
器具
100
AcDbLine
 10
5011.460970142902
 20
-31627.73659967236
 30
0.0
 11
5030.835330265426
 21
-31612.26604945591
 31
0.0
  0
LWPOLYLINE
  5
1223B
330
1F07
100
AcDbEntity
  8
器具
100
AcDbPolyline
 90
       10
 70
   128
 43
0.0
 10
5030.835330265458
 20
-31612.26604945599
 10
5031.951683653151
 20
-31610.02136185912
 10
5031.756839624833
 20
-31607.6948317822
 10
5030.271645569694
 20
-31605.53538692855
 10
5027.655010220366
 20
-31603.77407767407
 10
5024.186901171231
 20
-31602.59935577133
 10
5020.238389672586
 20
-31602.13691090203
 10
5016.231947761191
 20
-31602.4362224776
 10
5012.596245754747
 20
-31603.46526557771
 10
5009.720286555769
 20
-31605.11393746051
  0
LINE
  5
1223C
330
1F07
100
AcDbEntity
  8
器具
100
AcDbLine
 10
5009.720286555769
 20
-31605.11393746044
 30
0.0
 11
4995.55714021943
 21
-31622.34963603033
 31
0.0
  0
LWPOLYLINE
  5
1223D
330
1F07
100
AcDbEntity
  8
器具
100
AcDbPolyline
 90
        9
 70
   128
 43
0.0
 10
4960.623341707973
 20
-31613.50504449549
 10
4959.965124328336
 20
-31615.55797139558
 10
4960.715506079321
 20
-31617.59347246784
 10
4962.760248141321
 20
-31619.30166112683
 10
4965.788057071041
 20
-31620.42248113274
 10
4969.33797640608
 20
-31620.78529780106
 10
4972.869563107792
 20
-31620.3348755818
 10
4975.845165114808
 20
-31619.13978717667
 10
4977.811773995362
 20
-31617.38197396002
  0
LINE
  5
1223E
330
1F07
100
AcDbEntity
  8
器具
100
AcDbLine
 10
4977.811773995371
 20
-31617.38197395989
 30
0.0
 11
4992.781686407337
 21
-31600.37212258688
 31
0.0
  0
LWPOLYLINE
  5
1223F
330
1F07
100
AcDbEntity
  8
器具
100
AcDbPolyline
 90
       10
 70
   128
 43
0.0
 10
4992.781686407296
 20
-31600.37212258692
 10
4993.277615292655
 20
-31598.05718176552
 10
4992.454591203252
 20
-31595.7799567893
 10
4990.400673820539
 20
-31593.78409995065
 10
4987.335622580504
 20
-31592.28315848277
 10
4983.587383455806
 20
-31591.43772601621
 10
4979.557000287478
 20
-31591.33825982333
 10
4975.675704994607
 20
-31591.99540231492
 10
4972.358777798205
 20
-31593.3388423567
 10
4969.961114205824
 20
-31595.22483822265
  0
LINE
  5
12240
330
1F07
100
AcDbEntity
  8
器具
100
AcDbLine
 10
4969.961114205824
 20
-31595.22483822264
 30
0.0
 11
4960.623341708005
 21
-31613.50504449548
 31
0.0
  0
LWPOLYLINE
  5
12241
330
1F07
100
AcDbEntity
  8
器具
100
AcDbPolyline
 90
        9
 70
   128
 43
0.0
 10
4923.677424788619
 20
-31607.9366197928
 10
4923.582640889552
 20
-31610.02102878743
 10
4924.876246072477
 20
-31611.9610079053
 10
4927.361300674617
 20
-31613.461212911
 10
4930.659477660324
 20
-31614.29325119269
 10
4934.268659481205
 20
-31614.33045246463
 10
4937.639380922639
 20
-31613.56715316937
 10
4940.258480200465
 20
-31612.11955870645
 10
4941.727223192318
 20
-31610.2080522084
  0
LINE
  5
12242
330
1F07
100
AcDbEntity
  8
器具
100
AcDbLine
 10
4941.727223192339
 20
-31610.20805220836
 30
0.0
 11
4951.924078967429
 21
-31592.07773867436
 31
0.0
  0
LWPOLYLINE
  5
12243
330
1F07
100
AcDbEntity
  8
器具
100
AcDbPolyline
 90
       10
 70
   128
 43
0.0
 10
4951.924078967408
 20
-31592.07773867446
 10
4951.787371935663
 20
-31589.74954615233
 10
4950.356433369615
 20
-31587.57769911456
 10
4947.784366921656
 20
-31585.79457491001
 10
4944.346371524897
 20
-31584.59095938892
 10
4940.410296411221
 20
-31584.09563371192
 10
4936.397282983385
 20
-31584.36159538339
 10
4932.736704679899
 20
-31585.36038776211
 10
4929.820226049894
 20
-31586.9851447924
 10
4927.95989649883
 20
-31589.06202516479
  0
LINE
  5
12244
330
1F07
100
AcDbEntity
  8
器具
100
AcDbLine
 10
4927.959896498871
 20
-31589.06202516466
 30
0.0
 11
4923.677424788598
 21
-31607.93661979274
 31
0.0
  0
LWPOLYLINE
  5
12245
330
1F07
100
AcDbEntity
  8
器具
100
AcDbPolyline
 90
        9
 70
   128
 43
0.0
 10
4885.629120552804
 20
-31605.78147501876
 10
4886.100104028056
 20
-31607.84604104065
 10
4887.90507979006
 20
-31609.6427294803
 10
4890.769256640789
 20
-31610.89801080761
 10
4894.256589618879
 20
-31611.42077982148
 10
4897.836163890971
 20
-31611.13144967771
 10
4900.963021723279
 20
-31610.07406826756
 10
4903.161127355624
 20
-31608.40961232667
 10
4904.095839131572
 20
-31606.39148018304
  0
LINE
  5
12246
330
1F07
100
AcDbEntity
  8
器具
100
AcDbLine
 10
4904.095839131572
 20
-31606.39148018303
 30
0.0
 11
4909.26855783984
 21
-31587.58713297627
 31
0.0
  0
LWPOLYLINE
  5
12247
330
1F07
100
AcDbEntity
  8
器具
100
AcDbPolyline
 90
       10
 70
   128
 43
0.0
 10
4909.268557839799
 20
-31587.58713297642
 10
4908.502581071476
 20
-31585.30301658231
 10
4906.498962485208
 20
-31583.29002556314
 10
4903.47207978412
 20
-31581.76354042907
 10
4899.745795087801
 20
-31580.88688786262
 10
4895.718803217378
 20
-31580.75386553831
 10
4891.821973238854
 20
-31581.37870621371
 10
4888.472247511842
 20
-31582.69455489674
 10
4886.02803083059
 20
-31584.5606220062
 10
4884.750842808751
 20
-31586.77724719712
  0
LINE
  5
12248
330
1F07
100
AcDbEntity
  8
器具
100
AcDbLine
 10
4884.750842808792
 20
-31586.77724719702
 30
0.0
 11
4885.629120552783
 21
-31605.78147501862
 31
0.0
  0
LWPOLYLINE
  5
12249
330
1F07
100
AcDbEntity
  8
器具
100
AcDbPolyline
 90
        9
 70
   128
 43
0.0
 10
4847.415304525471
 20
-31607.09267699226
 10
4848.44045819879
 20
-31609.08656357422
 10
4850.712360046315
 20
-31610.69572090102
 10
4853.885133605902
 20
-31611.6751693578
 10
4857.475752864856
 20
-31611.87579679587
 10
4860.937578589762
 20
-31611.26705950459
 10
4863.743579195491
 20
-31609.94163222033
 10
4865.466566526727
 20
-31608.10129923049
 10
4865.84423138062
 20
-31606.02623455133
  0
LINE
  5
1224A
330
1F07
100
AcDbEntity
  8
器具
100
AcDbLine
 10
4865.844231380661
 20
-31606.02623455116
 30
0.0
 11
4865.865443519983
 21
-31587.01087910979
 31
0.0
  0
LWPOLYLINE
  5
1224B
330
1F07
100
AcDbEntity
  8
器具
100
AcDbPolyline
 90
       10
 70
   128
 43
0.0
 10
4865.865443519973
 20
-31587.01087910983
 10
4864.489057905445
 20
-31584.82708136843
 10
4861.962095038029
 20
-31583.02251288871
 10
4858.554927981816
 20
-31581.79025395497
 10
4854.632107481505
 20
-31581.26215043909
 10
4850.6133567593
 20
-31581.49470691758
 10
4846.928663117061
 20
-31582.46304094746
 10
4843.972271330649
 20
-31584.06354537293
 10
4842.060501325182
 20
-31586.12497379634
 10
4841.397903440403
 20
-31588.42676313556
  0
LINE
  5
1224C
330
1F07
100
AcDbEntity
  8
器具
100
AcDbLine
 10
4841.397903440372
 20
-31588.42676313545
 30
0.0
 11
4847.415304525471
 21
-31607.09267699221
 31
0.0
  0
LWPOLYLINE
  5
1224D
330
1F07
100
AcDbEntity
  8
器具
100
AcDbPolyline
 90
        9
 70
   128
 43
0.0
 10
4809.976927681607
 20
-31611.8379395671
 10
4811.531008867541
 20
-31613.71205060345
 10
4814.213895036778
 20
-31615.09405402589
 10
4817.617141090571
 20
-31615.77355234019
 10
4821.222633667481
 20
-31615.64709808777
 10
4824.481469206619
 20
-31614.73394278211
 10
4826.897519538603
 20
-31613.1731060418
 10
4828.102962902063
 20
-31611.2022111101
 10
4827.914281472083
 20
-31609.12130887493
  0
LINE
  5
1224E
330
1F07
100
AcDbEntity
  8
器具
100
AcDbLine
 10
4827.914281472104
 20
-31609.12130887484
 30
0.0
 11
4822.783464728919
 21
-31590.36316635637
 31
0.0
  0
LWPOLYLINE
  5
1224F
330
1F07
100
AcDbEntity
  8
器具
100
AcDbPolyline
 90
       10
 70
   128
 43
0.0
 10
4822.783464728962
 20
-31590.36316635651
 10
4820.830561449906
 20
-31588.3334596163
 10
4817.842476514051
 20
-31586.78174814116
 10
4814.138920863126
 20
-31585.87405771214
 10
4810.11615741869
 20
-31585.70750690862
 10
4806.204602825134
 20
-31586.29991587685
 10
4802.822774905354
 20
-31587.58789966408
 10
4800.33251323748
 20
-31589.43365009972
 10
4799.000264029684
 20
-31591.63968062823
 10
4798.968571640901
 20
-31593.96995642378
  0
LINE
  5
12250
330
1F07
100
AcDbEntity
  8
器具
100
AcDbLine
 10
4798.968571640869
 20
-31593.96995642371
 30
0.0
 11
4809.976927681649
 21
-31611.83793956702
 31
0.0
  0
LWPOLYLINE
  5
12251
330
1F07
100
AcDbEntity
  8
器具
100
AcDbPolyline
 90
        9
 70
   128
 43
0.0
 10
4774.235847110129
 20
-31619.9004186305
 10
4776.280589172126
 20
-31621.60860728865
 10
4779.308398101846
 20
-31622.72942729539
 10
4782.858317437055
 20
-31623.09224396305
 10
4786.389904138599
 20
-31622.64182174463
 10
4789.365506145782
 20
-31621.44673333849
 10
4791.332115026418
 20
-31619.68892012184
 10
4791.990332405888
 20
-31617.63599322192
 10
4791.239950654734
 20
-31615.60049214966
  0
LINE
  5
12252
330
1F07
100
AcDbEntity
  8
器具
100
AcDbLine
 10
4791.239950654734
 20
-31615.60049214954
 30
0.0
 11
4781.083442765868
 21
-31597.56145027868
 31
0.0
  0
LWPOLYLINE
  5
12253
330
1F07
100
AcDbEntity
  8
器具
100
AcDbPolyline
 90
       10
 70
   128
 43
0.0
 10
4781.083442765888
 20
-31597.56145027868
 10
4778.602108782524
 20
-31595.73581265589
 10
4775.22647834564
 20
-31594.47516647167
 10
4771.317727931872
 20
-31593.91439489805
 10
4767.294075330035
 20
-31594.11349783994
 10
4763.586032320628
 20
-31595.05117222437
 10
4760.590341950687
 20
-31596.6270913319
 10
4758.627528907855
 20
-31598.67263927869
 10
4757.907604895174
 20
-31600.96895211757
 10
4758.507598373997
 20
-31603.27033524697
  0
LINE
  5
12254
330
1F07
100
AcDbEntity
  8
器具
100
AcDbLine
 10
4758.507598374007
 20
-31603.2703352469
 30
0.0
 11
4774.235847110149
 21
-31619.90041863042
 31
0.0
  0
LWPOLYLINE
  5
12255
330
1F07
100
AcDbEntity
  8
器具
100
AcDbPolyline
 90
        9
 70
   128
 43
0.0
 10
4741.072126832702
 20
-31631.08158919007
 10
4743.55718143484
 20
-31632.58179419679
 10
4746.855358420382
 20
-31633.41383247831
 10
4750.464540241263
 20
-31633.45103375025
 10
4753.835261682863
 20
-31632.68773445516
 10
4756.454360960689
 20
-31631.24013999123
 10
4757.923103952459
 20
-31629.32863349435
 10
4758.017887851441
 20
-31627.24422449972
 10
4756.724282668852
 20
-31625.30424538185
  0
LINE
  5
12256
330
1F07
100
AcDbEntity
  8
器具
100
AcDbLine
 10
4756.724282668852
 20
-31625.30424538182
 30
0.0
 11
4741.792170565679
 21
-31608.42848523724
 31
0.0
  0
LWPOLYLINE
  5
12257
330
1F07
100
AcDbEntity
  8
器具
100
AcDbPolyline
 90
       10
 70
   128
 43
0.0
 10
4741.7921705657
 20
-31608.42848523728
 10
4738.843504555631
 20
-31606.85186998888
 10
4735.163447842658
 20
-31605.91333038803
 10
4731.145749073359
 20
-31605.71328572759
 10
4727.220282995296
 20
-31606.27313983954
 10
4723.807055894923
 20
-31607.53299098515
 10
4721.271266913642
 20
-31609.35804105464
 10
4719.884233467193
 20
-31611.55301833206
 10
4719.794361568153
 20
-31613.88307063942
 10
4721.011267083869
 20
-31616.09889341113
  0
LINE
  5
12258
330
1F07
100
AcDbEntity
  8
器具
100
AcDbLine
 10
4721.011267083869
 20
-31616.09889341105
 30
0.0
 11
4741.072126832681
 21
-31631.08158919006
 31
0.0
  0
LWPOLYLINE
  5
12259
330
1F07
100
AcDbEntity
  8
器具
100
AcDbPolyline
 90
        9
 70
   128
 43
0.0
 10
4711.302367706201
 20
-31645.10613371969
 10
4714.166544556845
 20
-31646.36141504701
 10
4717.65387753502
 20
-31646.88418406087
 10
4721.23345180728
 20
-31646.59485391728
 10
4724.360309639418
 20
-31645.53747250713
 10
4726.558415272016
 20
-31643.87301656624
 10
4727.493127047797
 20
-31641.8548844226
 10
4727.022143572461
 20
-31639.79031840087
 10
4725.217167810709
 20
-31637.9936299614
  0
LINE
  5
1225A
330
1F07
100
AcDbEntity
  8
器具
100
AcDbLine
 10
4725.217167810709
 20
-31637.9936299613
 30
0.0
 11
4705.877129650429
 21
-31622.69668876572
 31
0.0
  0
LWPOLYLINE
  5
1225B
330
1F07
100
AcDbEntity
  8
器具
100
AcDbPolyline
 90
       10
 70
   128
 43
0.0
 10
4705.877129650409
 20
-31622.6966887658
 10
4702.533737556733
 20
-31621.40791739165
 10
4698.639869777155
 20
-31620.81459433447
 10
4694.61215172999
 20
-31620.98020235007
 10
4690.881530178129
 20
-31621.88702216606
 10
4687.847163966368
 20
-31623.43802835535
 10
4685.833715914287
 20
-31625.46727059747
 10
4685.056615431071
 20
-31627.75762958061
 10
4685.599008589903
 20
-31630.06404773533
 10
4687.402861890098
 20
-31632.13974923931
  0
LINE
  5
1225C
330
1F07
100
AcDbEntity
  8
器具
100
AcDbLine
 10
4687.402861890098
 20
-31632.1397492392
 30
0.0
 11
4711.302367706169
 21
-31645.10613371967
 31
0.0
  0
LWPOLYLINE
  5
1225D
330
1F07
100
AcDbEntity
  8
器具
100
AcDbPolyline
 90
       82
 70
   128
 43
0.0
 10
4722.079385539903
 20
-31657.53841133382
 10
4734.60019117163
 20
-31650.73042488377
 10
4747.988877160134
 20
-31644.49874734109
 10
4762.164922372815
 20
-31638.88085674613
 10
4777.043070405865
 20
-31633.91053975481
 10
4792.533842326249
 20
-31629.61768843894
 10
4808.54407480882
 20
-31626.02812051087
 10
4824.977480431772
 20
-31623.16342405373
 10
4841.735226760027
 20
-31621.04082768945
 10
4858.716530735247
 20
-31619.67309696368
 10
4875.819264797229
 20
-31619.06845756877
 10
4892.940571091254
 20
-31619.23054587671
 10
4909.977480066199
 20
-31620.15838706983
 10
4926.82752974723
 20
-31621.84640100287
 10
4943.389381952951
 20
-31624.2844357608
 10
4959.563431755412
 20
-31627.45782871462
 10
4975.252406515521
 20
-31631.34749470749
 10
4990.361950893799
 20
-31635.93004082987
 10
5004.801194311832
 20
-31641.17790710935
 10
5018.483297460921
 20
-31647.05953226119
 10
5031.325974563291
 20
-31653.53954349998
 10
5043.251988246939
 20
-31660.57896927539
 10
5054.189614063012
 20
-31668.13547365246
 10
5064.073071842422
 20
-31676.16361092567
 10
5072.842921307428
 20
-31684.61509893067
 10
5080.446419551256
 20
-31693.43910942624
 10
5086.837838240838
 20
-31702.58257377382
 10
5091.978738632244
 20
-31711.99050210351
 10
5095.838202745415
 20
-31721.60631402734
 10
5098.393019309234
 20
-31731.37217892072
 10
5099.627823356246
 20
-31741.2293637233
 10
5099.535188629706
 20
-31751.11858616608
 10
5098.115672245383
 20
-31760.98037130111
 10
5095.377811342398
 20
-31770.75540919191
 10
5091.338071738029
 20
-31780.3849116118
 10
5086.020748901567
 20
-31789.81096559822
 10
5079.457821838293
 20
-31798.97688175555
 10
5071.688760763858
 20
-31807.82753518346
 10
5062.760289725358
 20
-31816.30969701306
 10
5052.726105598691
 20
-31824.37235452283
 10
5041.646555147575
 20
-31831.96701794324
 10
5029.588272092095
 20
-31839.04801207428
 10
5016.623776365709
 20
-31845.57275098403
 10
5002.831037970384
 20
-31851.5019941261
 10
4988.293008058485
 20
-31856.80008233226
 10
4973.09712005245
 20
-31861.43515227857
 10
4957.334763810462
 20
-31865.37932810889
 10
4941.100735997562
 20
-31868.60888908484
 10
4924.492669967706
 20
-31871.10441224718
 10
4907.61044858362
 20
-31872.85088922578
 10
4890.555603511533
 20
-31873.83781650222
 10
4873.430704596094
 20
-31874.0592585808
 10
4856.338742994624
 20
-31873.51388368203
 10
4839.382511775349
 20
-31872.20497175495
 10
4822.663987707779
 20
-31870.14039475025
 10
4806.283717963047
 20
-31867.33256927579
 10
4790.340215410557
 20
-31863.79838192576
 10
4774.929366150614
 20
-31859.55908771797
 10
4760.14385284427
 20
-31854.64018226667
 10
4746.072597308042
 20
-31849.07124844768
 10
4732.800225728792
 20
-31842.88577848495
 10
4720.406559710125
 20
-31836.12097252221
 10
4708.966136218499
 20
-31828.8175148989
 10
4698.547759306388
 20
-31821.01932946851
 10
4689.214086318839
 20
-31812.77331543534
 10
4681.02125106323
 20
-31804.12906529763
 10
4674.018526214868
 20
-31795.13856659391
 10
4668.248026984868
 20
-31785.85588924146
 10
4663.744457834627
 20
-31776.33686035249
 10
4660.534903759141
 20
-31766.63872848825
 10
4658.638667393685
 20
-31756.81981935381
 10
4658.06715292756
 20
-31746.93918502545
 10
4658.823797515561
 20
-31737.05624879965
 10
4660.904050608375
 20
-31727.23044781732
 10
4664.295401318906
 20
-31717.52087560275
 10
4668.977453665281
 20
-31707.98592666467
 10
4674.922049233209
 20
-31698.68294530899
 10
4682.093436526055
 20
-31689.66788075968
 10
4690.448485976322
 20
-31680.99495067611
 10
4699.936949334047
 20
-31672.71631507912
 10
4710.501761863823
 20
-31664.8817626583
 10
4722.079385539903
 20
-31657.53841133382
  0
LWPOLYLINE
  5
1225E
330
1F07
100
AcDbEntity
  8
器具
100
AcDbPolyline
 90
        3
 70
   128
 43
0.0
 10
5100.488922138879
 20
-31842.90276927189
 10
5099.428248960053
 20
-31843.57135838985
 10
5096.673185242261
 20
-31845.27624037144
  0
LINE
  5
1225F
330
1F07
100
AcDbEntity
  8
器具
100
AcDbLine
 10
5068.991856813437
 20
-31860.20270702499
 30
0.0
 11
5060.108932633183
 21
-31864.26999954146
 31
0.0
  0
LINE
  5
12260
330
1F07
100
AcDbEntity
  8
器具
100
AcDbLine
 10
5033.691907133079
 20
-31874.69006723221
 30
0.0
 11
5021.137990884305
 21
-31878.86890929073
 31
0.0
  0
LWPOLYLINE
  5
12261
330
1F07
100
AcDbEntity
  8
器具
100
AcDbPolyline
 90
        3
 70
   128
 43
0.0
 10
4995.68696731255
 20
-31886.01478576904
 10
4984.747515736748
 20
-31888.58598801227
 10
4979.830487776943
 20
-31889.64971484482
  0
LWPOLYLINE
  5
12262
330
1F07
100
AcDbEntity
  8
器具
100
AcDbPolyline
 90
        3
 70
   128
 43
0.0
 10
4955.726387871415
 20
-31894.07910714022
 10
4946.659225797984
 20
-31895.42111137976
 10
4936.868009535284
 20
-31896.67882204497
  0
LWPOLYLINE
  5
12263
330
1F07
100
AcDbEntity
  8
器具
100
AcDbPolyline
 90
        3
 70
   128
 43
0.0
 10
4914.527354993825
 20
-31898.82495347807
 10
4907.384620567675
 20
-31899.30329440628
 10
4893.023227762379
 20
-31899.9653824271
  0
LWPOLYLINE
  5
12264
330
1F07
100
AcDbEntity
  8
器具
100
AcDbPolyline
 90
        3
 70
   128
 43
0.0
 10
4871.965889262226
 20
-31900.21855610165
 10
4867.609900502492
 20
-31900.16470812879
 10
4850.180773284644
 20
-31899.58352631752
  0
LINE
  5
12265
330
1F07
100
AcDbEntity
  8
器具
100
AcDbLine
 10
4828.035441691237
 20
-31897.99081239073
 30
0.0
 11
4808.827056612264
 21
-31895.81413680478
 31
0.0
  0
LWPOLYLINE
  5
12266
330
1F07
100
AcDbEntity
  8
器具
100
AcDbPolyline
 90
        3
 70
   128
 43
0.0
 10
4784.842834691018
 20
-31892.01035849383
 10
4770.534276254144
 20
-31889.13399495938
 10
4768.584591970904
 20
-31888.70524705946
  0
LWPOLYLINE
  5
12267
330
1F07
100
AcDbEntity
  8
器具
100
AcDbPolyline
 90
        3
 70
   128
 43
0.0
 10
4741.306241738754
 20
-31881.72004447046
 10
4734.429784133495
 20
-31879.65041855027
 10
4730.167991674846
 20
-31878.30072063909
  0
LWPOLYLINE
  5
12268
330
1F07
100
AcDbEntity
  8
器具
100
AcDbPolyline
 90
        3
 70
   128
 43
0.0
 10
4701.668169117946
 20
-31867.83159788248
 10
4700.847020099512
 20
-31867.48944515945
 10
4694.324116749693
 20
-31864.68243020798
  0
LINE
  5
12269
330
1F07
100
AcDbEntity
  8
器具
100
AcDbLine
 10
4666.404308668451
 20
-31850.6440263209
 30
0.0
 11
4662.05967576525
 21
-31848.11659791265
 31
0.0
  0
ARC
  5
1226A
330
1F07
100
AcDbEntity
  8
器具
100
AcDbCircle
 10
4737.508938824115
 20
-31743.77055695569
 30
0.0
 40
74.53813851095441
100
AcDbArc
 50
162.2936411953688
 51
180.2532296372461
  0
ARC
  5
1226B
330
1F07
100
AcDbEntity
  8
器具
100
AcDbCircle
 10
5020.929488785824
 20
-31741.61670895052
 30
0.0
 40
73.85798862592912
100
AcDbArc
 50
0.5138988157935309
 51
17.09505192485518
  0
LWPOLYLINE
  5
1226C
330
1F07
100
AcDbEntity
  8
器具
100
AcDbPolyline
 90
        3
 70
   128
 43
0.0
 10
4871.998306817147
 20
-31393.68292741253
 10
4872.269452304713
 20
-31389.77981184951
 10
4873.320185838448
 20
-31385.86511624805
  0
LWPOLYLINE
  5
1226D
330
1F07
100
AcDbEntity
  8
器具
100
AcDbPolyline
 90
        3
 70
   128
 43
0.0
 10
4873.320185838448
 20
-31385.86511624805
 10
4874.26003560889
 20
-31383.51636639123
 10
4874.384273148491
 20
-31382.90072225063
  0
LWPOLYLINE
  5
1226E
330
1F07
100
AcDbEntity
  8
器具
100
AcDbPolyline
 90
        3
 70
   128
 43
0.0
 10
4874.384273148491
 20
-31382.90072225063
 10
4875.836182706202
 20
-31382.54425533816
 10
4876.235197295178
 20
-31382.49971961697
  0
LWPOLYLINE
  5
1226F
330
1F07
100
AcDbEntity
  8
器具
100
AcDbPolyline
 90
        9
 70
   128
 43
0.0
 10
4876.235197295178
 20
-31382.49971961697
 10
4876.365185863064
 20
-31400.4663652366
 10
4876.50298603102
 20
-31419.49158965393
 10
4876.64836671853
 20
-31439.54348898684
 10
4876.801084132989
 20
-31460.58843769619
 10
4876.960882178679
 20
-31482.59114497309
 10
4877.127492885819
 20
-31505.51471391716
 10
4877.300636861432
 20
-31529.32070341592
 10
4877.433742545447
 20
-31547.61141925793
  0
LWPOLYLINE
  5
12270
330
1F07
100
AcDbEntity
  8
器具
100
AcDbPolyline
 90
        9
 70
   128
 43
0.0
 10
4873.116157140494
 20
-31547.66044974351
 10
4873.082232488286
 20
-31542.99914245057
 10
4872.906743596555
 20
-31518.877545666
 10
4872.737678363151
 20
-31495.62326288508
 10
4872.575322687332
 20
-31473.27561846904
 10
4872.419951122193
 20
-31451.8724036028
 10
4872.271826409972
 20
-31431.44981238361
 10
4872.131199038732
 20
-31412.04238061707
 10
4871.998306817147
 20
-31393.68292741253
  0
LWPOLYLINE
  5
12271
330
1F07
100
AcDbEntity
  8
器具
100
AcDbPolyline
 90
        3
 70
   128
 43
0.0
 10
4876.235197295178
 20
-31382.49971961697
 10
4877.168349062069
 20
-31382.62364039255
 10
4878.09187501389
 20
-31382.87353869996
  0
LWPOLYLINE
  5
12272
330
1F07
100
AcDbEntity
  8
器具
100
AcDbPolyline
 90
        3
 70
   128
 43
0.0
 10
4878.09187501389
 20
-31382.87353869996
 10
4878.603219148903
 20
-31384.48181114824
 10
4879.198924126042
 20
-31385.82201426816
  0
ARC
  5
12273
330
1F07
100
AcDbEntity
  8
器具
100
AcDbCircle
 10
4859.49971055178
 20
-31393.47985472577
 30
0.0
 40
21.13531490017121
100
AcDbArc
 50
359.6211404226121
 51
21.24301466812015
  0
LWPOLYLINE
  5
12274
330
1F07
100
AcDbEntity
  8
器具
100
AcDbPolyline
 90
        9
 70
   128
 43
0.0
 10
4880.634563402445
 20
-31393.61960774408
 10
4880.767455623946
 20
-31411.97906094861
 10
4880.90808299527
 20
-31431.38649271532
 10
4881.056207707324
 20
-31451.80908393451
 10
4881.211579272715
 20
-31473.21229880076
 10
4881.373934948449
 20
-31495.55994321663
 10
4881.54300018202
 20
-31518.81422599755
 10
4881.718489073668
 20
-31542.93582278145
 10
4881.75241387214
 20
-31547.59715021509
  0
LWPOLYLINE
  5
12275
330
1F07
100
AcDbEntity
  8
器具
100
AcDbPolyline
 90
        3
 70
   128
 43
0.0
 10
4910.655919373216
 20
-31394.76330688476
 10
4910.924369673146
 20
-31390.88730582833
 10
4911.964921651851
 20
-31387.07027378232
  0
LWPOLYLINE
  5
12276
330
1F07
100
AcDbEntity
  8
器具
100
AcDbPolyline
 90
        3
 70
   128
 43
0.0
 10
4911.964921651851
 20
-31387.07027378232
 10
4912.831108973739
 20
-31384.80565570363
 10
4912.907602356863
 20
-31384.19988510064
  0
LWPOLYLINE
  5
12277
330
1F07
100
AcDbEntity
  8
器具
100
AcDbPolyline
 90
        3
 70
   128
 43
0.0
 10
4912.907602356863
 20
-31384.19988510064
 10
4914.436303154662
 20
-31383.97849171757
 10
4914.84194621067
 20
-31383.97048947891
  0
ARC
  5
12278
330
1F07
100
AcDbEntity
  8
器具
100
AcDbCircle
 10
3061.605923939425
 20
-31572.70428937461
 30
0.0
 40
1862.821569949079
100
AcDbArc
 50
0.71912101538163
 51
5.814961886969979
  0
ARC
  5
12279
330
1F07
100
AcDbEntity
  8
器具
100
AcDbCircle
 10
3007.978563267453
 20
-31577.67157869187
 30
0.0
 40
1911.448811067895
100
AcDbArc
 50
0.8612958399433171
 51
5.491087079624833
  0
ARC
  5
1227A
330
1F07
100
AcDbEntity
  8
器具
100
AcDbCircle
 10
6691.567033988158
 20
-31546.26557736922
 30
0.0
 40
1860.953526791538
100
AcDbArc
 50
175.0143286451457
 51
180.1153202910295
  0
LWPOLYLINE
  5
1227B
330
1F07
100
AcDbEntity
  8
器具
100
AcDbPolyline
 90
        3
 70
   128
 43
0.0
 10
4837.654493673021
 20
-31384.5364156809
 10
4838.610958169861
 20
-31384.57435431774
 10
4839.592033560085
 20
-31384.7374232641
  0
LWPOLYLINE
  5
1227C
330
1F07
100
AcDbEntity
  8
器具
100
AcDbPolyline
 90
        3
 70
   128
 43
0.0
 10
4839.592033560085
 20
-31384.7374232641
 10
4840.006237537772
 20
-31386.30539706285
 10
4840.576293256361
 20
-31387.59368392244
  0
ARC
  5
1227D
330
1F07
100
AcDbEntity
  8
器具
100
AcDbCircle
 10
4821.553378252776
 20
-31395.08447360361
 30
0.0
 40
20.44463805683583
100
AcDbArc
 50
359.4893017439366
 51
21.49338790813372
  0
ARC
  5
1227E
330
1F07
100
AcDbEntity
  8
器具
100
AcDbCircle
 10
6745.209348453672
 20
-31550.45085354845
 30
0.0
 40
1909.528367717544
100
AcDbArc
 50
175.3385277945439
 51
179.9730038288853
  0
LWPOLYLINE
  5
1227F
330
1F07
100
AcDbEntity
  8
器具
100
AcDbPolyline
 90
        3
 70
   128
 43
0.0
 10
4833.642871658042
 20
-31393.6048258773
 10
4833.739531561904
 20
-31392.17918445595
 10
4834.773874885136
 20
-31388.16723647598
  0
LWPOLYLINE
  5
12280
330
1F07
100
AcDbEntity
  8
器具
100
AcDbPolyline
 90
        3
 70
   128
 43
0.0
 10
4834.773874885136
 20
-31388.16723647598
 10
4835.763783445279
 20
-31385.7288472611
 10
4835.932565129123
 20
-31385.09915131028
  0
LWPOLYLINE
  5
12281
330
1F07
100
AcDbEntity
  8
器具
100
AcDbPolyline
 90
        3
 70
   128
 43
0.0
 10
4835.932565129123
 20
-31385.09915131028
 10
4837.271932614626
 20
-31384.61638826715
 10
4837.654493673021
 20
-31384.5364156809
  0
ARC
  5
12282
330
1F07
100
AcDbEntity
  8
器具
100
AcDbCircle
 10
6736.561552102734
 20
-31551.28596196318
 30
0.0
 40
1909.40451021227
100
AcDbArc
 50
175.3384498980889
 51
179.9720334166406
  0
LWPOLYLINE
  5
12283
330
1F07
100
AcDbEntity
  8
器具
100
AcDbPolyline
 90
        3
 70
   128
 43
0.0
 10
4914.84194621067
 20
-31383.97048947891
 10
4915.728807954298
 20
-31384.1773410524
 10
4916.572044193926
 20
-31384.5079153946
  0
LWPOLYLINE
  5
12284
330
1F07
100
AcDbEntity
  8
器具
100
AcDbPolyline
 90
        3
 70
   128
 43
0.0
 10
4916.572044193926
 20
-31384.5079153946
 10
4917.168286682484
 20
-31386.16481823105
 10
4917.775225808941
 20
-31387.55868368899
  0
LWPOLYLINE
  5
12285
330
1F07
100
AcDbEntity
  8
器具
100
AcDbPolyline
 90
        3
 70
   128
 43
0.0
 10
4917.775225808941
 20
-31387.55868368899
 10
4918.723387875123
 20
-31390.75853061972
 10
4919.001437668097
 20
-31392.94337698783
  0
ARC
  5
12286
330
1F07
100
AcDbEntity
  8
器具
100
AcDbCircle
 10
3016.637819587706
 20
-31578.37981485672
 30
0.0
 40
1911.324956849332
100
AcDbArc
 50
0.8622642234262027
 51
5.491164817101617
  0
LINE
  5
12287
330
1F07
100
AcDbEntity
  8
器具
100
AcDbLine
 10
4880.634563402445
 20
-31393.61960774407
 30
0.0
 11
4881.213755519155
 21
-31473.12524268497
 31
0.0
  0
LINE
  5
12288
330
1F07
100
AcDbEntity
  8
器具
100
AcDbLine
 10
4881.213755519155
 20
-31473.12524268497
 30
0.0
 11
4881.345834443449
 21
-31490.91203890511
 31
0.0
  0
LINE
  5
12289
330
1F07
100
AcDbEntity
  8
器具
100
AcDbLine
 10
4881.752413872287
 20
-31547.597150215
 30
0.0
 11
4881.345834443449
 21
-31490.91203890511
 31
0.0
  0
LINE
  5
1228A
330
1F07
100
AcDbEntity
  8
器具
100
AcDbLine
 10
4951.91014991354
 20
-31590.1656990342
 30
0.0
 11
4951.924078967429
 21
-31592.07773867436
 31
0.0
  0
LINE
  5
1228B
330
1F07
100
AcDbEntity
  8
器具
100
AcDbLine
 10
4908.307728447308
 20
-31548.27561112362
 30
0.0
 11
4907.934265713446
 21
-31497.01042480645
 31
0.0
  0
LINE
  5
1228C
330
1F07
100
AcDbEntity
  8
器具
100
AcDbLine
 10
4906.583051151893
 20
-31496.89684270107
 30
0.0
 11
4906.546446206501
 21
-31491.87208608154
 31
0.0
  0
LINE
  5
1228D
330
1F07
100
AcDbEntity
  8
器具
100
AcDbLine
 10
4911.235111489801
 20
-31474.26894182639
 30
0.0
 11
4906.546446206501
 21
-31491.87208608154
 31
0.0
  0
LINE
  5
1228E
330
1F07
100
AcDbEntity
  8
器具
100
AcDbLine
 10
4910.655919373216
 20
-31394.76330688471
 30
0.0
 11
4911.235111489801
 21
-31474.26894182639
 31
0.0
  0
LINE
  5
1228F
330
1F07
100
AcDbEntity
  8
器具
100
AcDbLine
 10
4907.237256118967
 20
-31586.69948293653
 30
0.0
 11
4907.216491393452
 21
-31583.84911148425
 31
0.0
  0
LINE
  5
12290
330
1F07
100
AcDbEntity
  8
器具
100
AcDbLine
 10
4841.997204171317
 20
-31395.26670173288
 30
0.0
 11
4842.576396287891
 21
-31474.77233667456
 31
0.0
  0
LINE
  5
12291
330
1F07
100
AcDbEntity
  8
器具
100
AcDbLine
 10
4842.576396287891
 20
-31474.77233667456
 30
0.0
 11
4847.525967198654
 21
-31492.30481490487
 31
0.0
  0
LINE
  5
12292
330
1F07
100
AcDbEntity
  8
器具
100
AcDbLine
 10
4848.317485246853
 20
-31600.95640593785
 30
0.0
 11
4848.17966497467
 21
-31582.03783311401
 31
0.0
  0
LINE
  5
12293
330
1F07
100
AcDbEntity
  8
器具
100
AcDbLine
 10
4847.936371846006
 20
-31548.64101344312
 30
0.0
 11
4847.525967198654
 21
-31492.30481490487
 31
0.0
  0
LINE
  5
12294
330
1F07
100
AcDbEntity
  8
器具
100
AcDbLine
 10
4798.952833079061
 20
-31591.80952584386
 30
0.0
 11
4798.968571640869
 21
-31593.96995642371
 31
0.0
  0
LWPOLYLINE
  5
12295
330
1F07
100
AcDbEntity
  8
器具
100
AcDbPolyline
 90
        3
 70
   128
 43
0.0
 10
4948.494025556338
 20
-31399.32382437704
 10
4948.752471312615
 20
-31395.47439621576
 10
4949.756520675407
 20
-31391.75303410045
  0
LWPOLYLINE
  5
12296
330
1F07
100
AcDbEntity
  8
器具
100
AcDbPolyline
 90
        3
 70
   128
 43
0.0
 10
4949.756520675407
 20
-31391.75303410045
 10
4950.527255703644
 20
-31389.56496861632
 10
4950.553980537229
 20
-31388.96465015938
  0
LWPOLYLINE
  5
12297
330
1F07
100
AcDbEntity
  8
器具
100
AcDbPolyline
 90
        3
 70
   128
 43
0.0
 10
4950.553980537229
 20
-31388.96465015938
 10
4952.121830887818
 20
-31388.88378174584
 10
4952.52411413304
 20
-31388.91251003047
  0
ARC
  5
12298
330
1F07
100
AcDbEntity
  8
器具
100
AcDbCircle
 10
3996.418699428146
 20
-31573.4649047672
 30
0.0
 40
973.7541529724168
100
AcDbArc
 50
1.080823621503189
 51
10.92516325933006
  0
ARC
  5
12299
330
1F07
100
AcDbEntity
  8
器具
100
AcDbCircle
 10
3802.702210240713
 20
-31588.18501740394
 30
0.0
 40
1162.096163282177
100
AcDbArc
 50
1.678560377619278
 51
6.570894056240425
  0
ARC
  5
1229A
330
1F07
100
AcDbEntity
  8
器具
100
AcDbCircle
 10
5758.289801864407
 20
-31560.6401905035
 30
0.0
 40
973.3095876944704
100
AcDbArc
 50
169.9045653757113
 51
179.7535303357885
  0
LWPOLYLINE
  5
1229B
330
1F07
100
AcDbEntity
  8
器具
100
AcDbPolyline
 90
        3
 70
   128
 43
0.0
 10
4800.049820309443
 20
-31390.03042745456
 10
4801.006046206108
 20
-31389.98144977731
 10
4802.020513702561
 20
-31390.05367406319
  0
LWPOLYLINE
  5
1229C
330
1F07
100
AcDbEntity
  8
器具
100
AcDbPolyline
 90
        3
 70
   128
 43
0.0
 10
4802.020513702561
 20
-31390.05367406319
 10
4802.327727632508
 20
-31391.59067323733
 10
4802.858350553181
 20
-31392.83006826695
  0
ARC
  5
1229D
330
1F07
100
AcDbEntity
  8
器具
100
AcDbCircle
 10
4783.994372252401
 20
-31400.15936031463
 30
0.0
 40
20.23779136333445
100
AcDbArc
 50
359.3709724915951
 51
21.23282800762314
  0
ARC
  5
1229E
330
1F07
100
AcDbEntity
  8
器具
100
AcDbCircle
 10
5950.368065075975
 20
-31572.47194851854
 30
0.0
 40
1159.818255616309
100
AcDbArc
 50
174.2147817961195
 51
179.1574534877774
  0
LINE
  5
1229F
330
1F07
100
AcDbEntity
  8
器具
100
AcDbLine
 10
4796.511433477103
 20
-31397.08195115836
 30
0.0
 11
4797.275126895486
 21
-31393.91994862579
 31
0.0
  0
LWPOLYLINE
  5
122A0
330
1F07
100
AcDbEntity
  8
器具
100
AcDbPolyline
 90
        3
 70
   128
 43
0.0
 10
4797.275126895518
 20
-31393.91994862591
 10
4798.290257973247
 20
-31391.38861969219
 10
4798.499286963852
 20
-31390.74103966031
  0
LWPOLYLINE
  5
122A1
330
1F07
100
AcDbEntity
  8
器具
100
AcDbPolyline
 90
        3
 70
   128
 43
0.0
 10
4798.499286963852
 20
-31390.74103966031
 10
4799.693132704557
 20
-31390.14386771499
 10
4800.049820309443
 20
-31390.03042745456
  0
LWPOLYLINE
  5
122A2
330
1F07
100
AcDbEntity
  8
器具
100
AcDbPolyline
 90
        3
 70
   128
 43
0.0
 10
4952.52411413304
 20
-31388.91251003047
 10
4953.342848373535
 20
-31389.19719902995
 10
4954.085031626275
 20
-31389.60030957061
  0
LWPOLYLINE
  5
122A3
330
1F07
100
AcDbEntity
  8
器具
100
AcDbPolyline
 90
        3
 70
   128
 43
0.0
 10
4954.085031626275
 20
-31389.60030957061
 10
4954.75184018576
 20
-31391.31297709168
 10
4955.355321729969
 20
-31392.76092962181
  0
LINE
  5
122A4
330
1F07
100
AcDbEntity
  8
器具
100
AcDbLine
 10
4955.355321729969
 20
-31392.76092962167
 30
0.0
 11
4956.206458465368
 21
-31395.82296035614
 31
0.0
  0
LINE
  5
122A5
330
1F07
100
AcDbEntity
  8
器具
100
AcDbLine
 10
4885.570414217273
 20
-31597.72286312777
 30
0.0
 11
4885.629120552783
 21
-31605.78147501862
 31
0.0
  0
LINE
  5
122A6
330
1F07
100
AcDbEntity
  8
器具
100
AcDbLine
 10
4885.029842070292
 20
-31586.02592977497
 30
0.0
 11
4885.570414217273
 21
-31597.72286312777
 31
0.0
  0
LINE
  5
122A7
330
1F07
100
AcDbEntity
  8
器具
100
AcDbLine
 10
4865.785525045287
 20
-31597.96762266031
 30
0.0
 11
4865.844231380661
 21
-31606.02623455116
 31
0.0
  0
LINE
  5
122A8
330
1F07
100
AcDbEntity
  8
器具
100
AcDbLine
 10
4865.785525045287
 20
-31597.96762266031
 30
0.0
 11
4865.797964222959
 21
-31586.81667811313
 31
0.0
  0
LINE
  5
122A9
330
1F07
100
AcDbEntity
  8
器具
100
AcDbLine
 10
4942.7506029146
 20
-31551.15162160102
 30
0.0
 11
4942.38617644613
 21
-31501.12684238545
 31
0.0
  0
LINE
  5
122AA
330
1F07
100
AcDbEntity
  8
器具
100
AcDbLine
 10
4939.714447567983
 20
-31500.64587805944
 30
0.0
 11
4939.679258682247
 21
-31495.81550377511
 31
0.0
  0
LINE
  5
122AB
330
1F07
100
AcDbEntity
  8
器具
100
AcDbLine
 10
4949.073217672808
 20
-31478.82945931843
 30
0.0
 11
4939.679258682247
 21
-31495.81550377511
 31
0.0
  0
LINE
  5
122AC
330
1F07
100
AcDbEntity
  8
器具
100
AcDbLine
 10
4948.494025556358
 20
-31399.32382437701
 30
0.0
 11
4949.073217672808
 21
-31478.82945931843
 31
0.0
  0
LINE
  5
122AD
330
1F07
100
AcDbEntity
  8
器具
100
AcDbLine
 10
4940.466133072271
 20
-31603.82966040226
 30
0.0
 11
4940.322355124049
 21
-31584.09327806419
 31
0.0
  0
LINE
  5
122AE
330
1F07
100
AcDbEntity
  8
器具
100
AcDbLine
 10
4804.230944000715
 20
-31400.38153849056
 30
0.0
 11
4804.8101361173
 21
-31479.88717343198
 31
0.0
  0
LINE
  5
122AF
330
1F07
100
AcDbEntity
  8
器具
100
AcDbLine
 10
4804.8101361173
 20
-31479.88717343198
 30
0.0
 11
4814.455324151579
 21
-31496.7336258718
 31
0.0
  0
LINE
  5
122B0
330
1F07
100
AcDbEntity
  8
器具
100
AcDbLine
 10
4815.26118618918
 20
-31607.35421465681
 30
0.0
 11
4815.105862735768
 21
-31586.0329821755
 31
0.0
  0
LINE
  5
122B1
330
1F07
100
AcDbEntity
  8
器具
100
AcDbLine
 10
4814.483484656955
 20
-31500.59921518987
 30
0.0
 11
4814.455324151579
 21
-31496.7336258718
 31
0.0
  0
LINE
  5
122B2
330
1F07
100
AcDbEntity
  8
器具
100
AcDbLine
 10
4904.037132796072
 20
-31598.33286829217
 30
0.0
 11
4904.095839131572
 21
-31606.39148018303
 31
0.0
  0
LINE
  5
122B3
330
1F07
100
AcDbEntity
  8
器具
100
AcDbLine
 10
4904.037132796072
 20
-31598.33286829217
 30
0.0
 11
4907.851957677462
 21
-31584.46486277148
 31
0.0
  0
LINE
  5
122B4
330
1F07
100
AcDbEntity
  8
器具
100
AcDbLine
 10
4847.356598189971
 20
-31599.03406510031
 30
0.0
 11
4847.415304525471
 21
-31607.09267699221
 31
0.0
  0
LINE
  5
122B5
330
1F07
100
AcDbEntity
  8
器具
100
AcDbLine
 10
4842.853970138004
 20
-31585.06696100425
 30
0.0
 11
4847.356598189971
 21
-31599.03406510031
 31
0.0
  0
LINE
  5
122B6
330
1F07
100
AcDbEntity
  8
器具
100
AcDbLine
 10
4992.751839775007
 20
-31596.2750788134
 30
0.0
 11
4992.781686407337
 21
-31600.37212258688
 31
0.0
  0
LINE
  5
122B7
330
1F07
100
AcDbEntity
  8
器具
100
AcDbLine
 10
4758.476005390749
 20
-31598.93357007945
 30
0.0
 11
4758.507598374007
 21
-31603.2703352469
 31
0.0
  0
LINE
  5
122B8
330
1F07
100
AcDbEntity
  8
器具
100
AcDbLine
 10
4941.668516856703
 20
-31602.1494403175
 30
0.0
 11
4941.727223192339
 21
-31610.20805220836
 31
0.0
  0
LINE
  5
122B9
330
1F07
100
AcDbEntity
  8
器具
100
AcDbLine
 10
4941.668516856703
 20
-31602.1494403175
 30
0.0
 11
4950.033478091264
 21
-31587.27628988499
 31
0.0
  0
LINE
  5
122BA
330
1F07
100
AcDbEntity
  8
器具
100
AcDbLine
 10
4809.918221346148
 20
-31603.77932767591
 30
0.0
 11
4809.976927681649
 21
-31611.83793956702
 31
0.0
  0
LINE
  5
122BB
330
1F07
100
AcDbEntity
  8
器具
100
AcDbLine
 10
4800.799784007644
 20
-31588.97892659394
 30
0.0
 11
4809.918221346148
 21
-31603.77932767591
 31
0.0
  0
LWPOLYLINE
  5
122BC
330
1F07
100
AcDbEntity
  8
器具
100
AcDbPolyline
 90
        3
 70
   128
 43
0.0
 10
4984.580925614727
 20
-31407.25218481298
 10
4984.822303817063
 20
-31403.42813362229
 10
4985.764428317756
 20
-31399.79809210197
  0
LWPOLYLINE
  5
122BD
330
1F07
100
AcDbEntity
  8
器具
100
AcDbPolyline
 90
        3
 70
   128
 43
0.0
 10
4985.764428317756
 20
-31399.79809210197
 10
4986.420271559531
 20
-31397.67711505131
 10
4986.396428917529
 20
-31397.07769309792
  0
LWPOLYLINE
  5
122BE
330
1F07
100
AcDbEntity
  8
器具
100
AcDbPolyline
 90
        3
 70
   128
 43
0.0
 10
4986.396428917529
 20
-31397.07769309792
 10
4987.964823142323
 20
-31397.13934090174
 10
4988.353841027659
 20
-31397.20409232499
  0
ARC
  5
122BF
330
1F07
100
AcDbEntity
  8
器具
100
AcDbCircle
 10
4316.558720213475
 20
-31583.51635982815
 30
0.0
 40
697.15202457742
100
AcDbArc
 50
1.542518873828738
 51
15.50055373509843
  0
ARC
  5
122C0
330
1F07
100
AcDbEntity
  8
器具
100
AcDbCircle
 10
5438.597496137981
 20
-31575.3575957664
 30
0.0
 40
696.9718312512766
100
AcDbArc
 50
165.3298304691686
 51
179.2917206403668
  0
LWPOLYLINE
  5
122C1
330
1F07
100
AcDbEntity
  8
器具
100
AcDbPolyline
 90
        3
 70
   128
 43
0.0
 10
4764.347129065548
 20
-31398.84647413277
 10
4765.27957090678
 20
-31398.7117861347
 10
4766.302450952824
 20
-31398.69138735964
  0
LWPOLYLINE
  5
122C2
330
1F07
100
AcDbEntity
  8
器具
100
AcDbPolyline
 90
        3
 70
   128
 43
0.0
 10
4766.302450952824
 20
-31398.69138735964
 10
4766.495459394887
 20
-31400.20749863108
 10
4766.973836944397
 20
-31401.40223013795
  0
ARC
  5
122C3
330
1F07
100
AcDbEntity
  8
器具
100
AcDbCircle
 10
4747.704816817196
 20
-31408.58010835899
 30
0.0
 40
20.56251619866465
100
AcDbArc
 50
359.2809028663149
 51
20.43080158529319
  0
LWPOLYLINE
  5
122C4
330
1F07
100
AcDbEntity
  8
器具
100
AcDbPolyline
 90
        3
 70
   128
 43
0.0
 10
4761.747285496327
 20
-31402.98160183204
 10
4762.762181756715
 20
-31400.35632130371
 10
4763.006170195178
 20
-31399.68746528517
  0
LWPOLYLINE
  5
122C5
330
1F07
100
AcDbEntity
  8
器具
100
AcDbPolyline
 90
        3
 70
   128
 43
0.0
 10
4763.006170195178
 20
-31399.68746528517
 10
4764.025097746649
 20
-31398.99058879231
 10
4764.347129065548
 20
-31398.84647413277
  0
LWPOLYLINE
  5
122C6
330
1F07
100
AcDbEntity
  8
器具
100
AcDbPolyline
 90
        3
 70
   128
 43
0.0
 10
4988.353841027659
 20
-31397.20409232499
 10
4989.08428781142
 20
-31397.55960876233
 10
4989.707143062151
 20
-31398.02532958164
  0
LWPOLYLINE
  5
122C7
330
1F07
100
AcDbEntity
  8
器具
100
AcDbPolyline
 90
        3
 70
   128
 43
0.0
 10
4989.707143062151
 20
-31398.02532958164
 10
4990.428447838989
 20
-31399.79952297231
 10
4991.013865206554
 20
-31401.3006555045
  0
LINE
  5
122C8
330
1F07
100
AcDbEntity
  8
器具
100
AcDbLine
 10
4975.601497507739
 20
-31556.10094075883
 30
0.0
 11
4975.253345133316
 21
-31508.31010454823
 31
0.0
  0
LINE
  5
122C9
330
1F07
100
AcDbEntity
  8
器具
100
AcDbLine
 10
4971.324790864589
 20
-31507.18562167577
 30
0.0
 11
4971.292175480094
 21
-31502.70851162577
 31
0.0
  0
LINE
  5
122CA
330
1F07
100
AcDbEntity
  8
器具
100
AcDbLine
 10
4985.1601177313
 20
-31486.75781975454
 30
0.0
 11
4971.292175480094
 21
-31502.70851162577
 31
0.0
  0
LINE
  5
122CB
330
1F07
100
AcDbEntity
  8
器具
100
AcDbLine
 10
4984.580925614716
 20
-31407.25218481285
 30
0.0
 11
4985.1601177313
 21
-31486.75781975454
 31
0.0
  0
LINE
  5
122CC
330
1F07
100
AcDbEntity
  8
器具
100
AcDbLine
 10
4972.091546205946
 20
-31612.43803880835
 30
0.0
 11
4971.95415497405
 21
-31593.57836027804
 31
0.0
  0
LINE
  5
122CD
330
1F07
100
AcDbEntity
  8
器具
100
AcDbLine
 10
4768.265713555027
 20
-31408.83817376022
 30
0.0
 11
4768.844905671602
 21
-31488.34380870086
 31
0.0
  0
LINE
  5
122CE
330
1F07
100
AcDbEntity
  8
器具
100
AcDbLine
 10
4768.844905671602
 20
-31488.34380870086
 30
0.0
 11
4782.948214289564
 21
-31504.08941978181
 31
0.0
  0
LINE
  5
122CF
330
1F07
100
AcDbEntity
  8
器具
100
AcDbLine
 10
4783.756138841909
 20
-31614.99312972874
 30
0.0
 11
4783.662520624112
 21
-31602.14216778305
 31
0.0
  0
LINE
  5
122D0
330
1F07
100
AcDbEntity
  8
器具
100
AcDbLine
 10
4782.974632328635
 20
-31507.71582093876
 30
0.0
 11
4782.948214289564
 21
-31504.08941978181
 31
0.0
  0
LINE
  5
122D1
330
1F07
100
AcDbEntity
  8
器具
100
AcDbLine
 10
5030.79030097783
 20
-31606.08488436291
 30
0.0
 11
5030.835330265426
 21
-31612.26604945591
 31
0.0
  0
LWPOLYLINE
  5
122D2
330
1F07
100
AcDbEntity
  8
器具
100
AcDbPolyline
 90
        9
 70
   128
 43
0.0
 10
4885.575837797154
 20
-31598.4673573324
 10
4886.041397692556
 20
-31599.78742914983
 10
4887.84637345456
 20
-31601.5841175883
 10
4890.710550305205
 20
-31602.83939891662
 10
4894.197883283379
 20
-31603.36216792982
 10
4897.777457555723
 20
-31603.07283778589
 10
4900.904315387778
 20
-31602.01545637641
 10
4903.102421020125
 20
-31600.35100043568
 10
4904.037132796072
 20
-31598.33286829222
  0
LWPOLYLINE
  5
122D3
330
1F07
100
AcDbEntity
  8
器具
100
AcDbPolyline
 90
        9
 70
   128
 43
0.0
 10
4847.356598189971
 20
-31599.03406510043
 10
4848.381751863627
 20
-31601.02795168306
 10
4850.653653710815
 20
-31602.63710901002
 10
4853.826427270401
 20
-31603.61655746681
 10
4857.417046529358
 20
-31603.81718490472
 10
4860.878872254179
 20
-31603.20844761376
 10
4863.684872859991
 20
-31601.88302032934
 10
4865.407860191226
 20
-31600.0426873395
 10
4865.792315607596
 20
-31598.8997623918
  0
LINE
  5
122D4
330
1F07
100
AcDbEntity
  8
器具
100
AcDbLine
 10
4977.753067659997
 20
-31609.32336206877
 30
0.0
 11
4977.811773995371
 21
-31617.38197395989
 31
0.0
  0
LINE
  5
122D5
330
1F07
100
AcDbEntity
  8
器具
100
AcDbLine
 10
4977.753067659997
 20
-31609.32336206877
 30
0.0
 11
4991.02204087876
 21
-31594.24623562247
 31
0.0
  0
LINE
  5
122D6
330
1F07
100
AcDbEntity
  8
器具
100
AcDbLine
 10
4720.964597603468
 20
-31609.69257920745
 30
0.0
 11
4721.011267083869
 21
-31616.09889341105
 31
0.0
  0
LINE
  5
122D7
330
1F07
100
AcDbEntity
  8
器具
100
AcDbLine
 10
4774.177140774638
 20
-31611.84180673957
 30
0.0
 11
4774.235847110149
 21
-31619.90041863042
 31
0.0
  0
LINE
  5
122D8
330
1F07
100
AcDbEntity
  8
器具
100
AcDbLine
 10
4760.128066618874
 20
-31596.98717933684
 30
0.0
 11
4774.177140774638
 21
-31611.84180673957
 31
0.0
  0
ARC
  5
122D9
330
1F07
100
AcDbEntity
  8
器具
100
AcDbCircle
 10
4932.419470603313
 20
-31595.04077746699
 30
0.0
 40
11.66524513747821
100
AcDbArc
 50
228.1237696626587
 51
322.454720318941
  0
ARC
  5
122DA
330
1F07
100
AcDbEntity
  8
器具
100
AcDbCircle
 10
4819.019913632545
 20
-31596.32737314948
 30
0.0
 40
11.76318106358084
100
AcDbArc
 50
219.3086906800128
 51
311.5532699828369
  0
LWPOLYLINE
  5
122DB
330
1F07
100
AcDbEntity
  8
器具
100
AcDbPolyline
 90
        3
 70
   128
 43
0.0
 10
5018.028040303508
 20
-31418.35316564658
 10
5018.245708201272
 20
-31414.55267063671
 10
5019.102010389441
 20
-31411.00735175918
  0
LWPOLYLINE
  5
122DC
330
1F07
100
AcDbEntity
  8
器具
100
AcDbPolyline
 90
        3
 70
   128
 43
0.0
 10
5019.102010389441
 20
-31411.00735175918
 10
5019.626351369065
 20
-31408.94234704054
 10
5019.552387464777
 20
-31408.3392438733
  0
LWPOLYLINE
  5
122DD
330
1F07
100
AcDbEntity
  8
器具
100
AcDbPolyline
 90
        3
 70
   128
 43
0.0
 10
5019.552387464777
 20
-31408.3392438733
 10
5021.082706492585
 20
-31408.54188992142
 10
5021.448880106923
 20
-31408.64107008771
  0
ARC
  5
122DE
330
1F07
100
AcDbEntity
  8
器具
100
AcDbCircle
 10
4479.503327616361
 20
-31599.18171598337
 30
0.0
 40
574.465594794503
100
AcDbArc
 50
2.116061981354652
 51
19.37097700949877
  0
ARC
  5
122DF
330
1F07
100
AcDbEntity
  8
器具
100
AcDbCircle
 10
5275.99589262622
 20
-31593.39893274274
 30
0.0
 40
574.378898986701
100
AcDbArc
 50
161.4601965054912
 51
178.7180645527923
  0
LWPOLYLINE
  5
122E0
330
1F07
100
AcDbEntity
  8
器具
100
AcDbPolyline
 90
        3
 70
   128
 43
0.0
 10
4731.42553869001
 20
-31410.76747538963
 10
4732.311236663131
 20
-31410.55039353501
 10
4733.31734255738
 20
-31410.43787398438
  0
LWPOLYLINE
  5
122E1
330
1F07
100
AcDbEntity
  8
器具
100
AcDbPolyline
 90
        3
 70
   128
 43
0.0
 10
4733.31734255738
 20
-31410.43787398438
 10
4733.39174218912
 20
-31411.94369840623
 10
4733.806348248633
 20
-31413.09909446362
  0
ARC
  5
122E2
330
1F07
100
AcDbEntity
  8
器具
100
AcDbCircle
 10
4713.43426067214
 20
-31420.14078973272
 30
0.0
 40
21.55475410412128
100
AcDbArc
 50
359.2355267856155
 51
19.0679176896885
  0
LWPOLYLINE
  5
122E3
330
1F07
100
AcDbEntity
  8
器具
100
AcDbPolyline
 90
        3
 70
   128
 43
0.0
 10
4729.065164053072
 20
-31415.1290681195
 10
4730.054373943614
 20
-31412.41113751955
 10
4730.327173152431
 20
-31411.71813749346
  0
LWPOLYLINE
  5
122E4
330
1F07
100
AcDbEntity
  8
器具
100
AcDbPolyline
 90
        3
 70
   128
 43
0.0
 10
4730.327173152431
 20
-31411.71813749346
 10
4731.146093137324
 20
-31410.93871586562
 10
4731.42553869001
 20
-31410.76747538963
  0
LWPOLYLINE
  5
122E5
330
1F07
100
AcDbEntity
  8
器具
100
AcDbPolyline
 90
        3
 70
   128
 43
0.0
 10
5021.448880106923
 20
-31408.64107008771
 10
5022.073053409331
 20
-31409.05865996846
 10
5022.561243894701
 20
-31409.57552347389
  0
LWPOLYLINE
  5
122E6
330
1F07
100
AcDbEntity
  8
器具
100
AcDbPolyline
 90
        3
 70
   128
 43
0.0
 10
5022.561243894701
 20
-31409.57552347389
 10
5023.319633157825
 20
-31411.41548894863
 10
5023.87282455429
 20
-31412.96758494643
  0
LINE
  5
122E7
330
1F07
100
AcDbEntity
  8
器具
100
AcDbLine
 10
5018.607232420325
 20
-31497.85880058707
 30
0.0
 11
5010.874186998929
 21
-31504.09774286655
 31
0.0
  0
LINE
  5
122E8
330
1F07
100
AcDbEntity
  8
器具
100
AcDbLine
 10
5018.028040303487
 20
-31418.35316564643
 30
0.0
 11
5018.607232420325
 21
-31497.85880058707
 31
0.0
  0
LINE
  5
122E9
330
1F07
100
AcDbEntity
  8
器具
100
AcDbLine
 10
5001.406840310691
 20
-31622.20533780454
 30
0.0
 11
5001.356478584394
 21
-31615.29218950073
 31
0.0
  0
LINE
  5
122EA
330
1F07
100
AcDbEntity
  8
器具
100
AcDbLine
 10
4734.987096169717
 20
-31420.42837711473
 30
0.0
 11
4735.566288286419
 21
-31499.93401205616
 31
0.0
  0
LINE
  5
122EB
330
1F07
100
AcDbEntity
  8
器具
100
AcDbLine
 10
4735.566288286419
 20
-31499.93401205616
 30
0.0
 11
4743.401746927747
 21
-31506.06718616729
 31
0.0
  0
LINE
  5
122EC
330
1F07
100
AcDbEntity
  8
器具
100
AcDbLine
 10
4754.58255009022
 20
-31624.29564038789
 30
0.0
 11
4754.572179071195
 21
-31622.87201182631
 31
0.0
  0
ARC
  5
122ED
330
1F07
100
AcDbEntity
  8
器具
100
AcDbCircle
 10
4968.977351364502
 20
-31600.50334549608
 30
0.0
 40
12.44210146369676
100
AcDbArc
 50
235.9006017876403
 51
314.8557483481099
  0
ARC
  5
122EE
330
1F07
100
AcDbEntity
  8
器具
100
AcDbCircle
 10
4782.75288175183
 20
-31602.72456093522
 30
0.0
 40
12.51668903288151
100
AcDbArc
 50
226.753025625033
 51
304.3231963869509
  0
LINE
  5
122EF
330
1F07
100
AcDbEntity
  8
器具
100
AcDbLine
 10
5011.402263807392
 20
-31619.67798778124
 30
0.0
 11
5011.460970142902
 21
-31627.73659967236
 31
0.0
  0
LINE
  5
122F0
330
1F07
100
AcDbEntity
  8
器具
100
AcDbLine
 10
5011.402263807392
 20
-31619.67798778124
 30
0.0
 11
5029.718308306112
 21
-31605.05250934456
 31
0.0
  0
LINE
  5
122F1
330
1F07
100
AcDbEntity
  8
器具
100
AcDbLine
 10
5065.089297201666
 20
-31619.40803943577
 30
0.0
 11
5065.148003537312
 21
-31627.46665132663
 31
0.0
  0
LINE
  5
122F2
330
1F07
100
AcDbEntity
  8
器具
100
AcDbLine
 10
4741.013420497181
 20
-31623.0229772992
 30
0.0
 11
4741.072126832681
 21
-31631.08158919006
 31
0.0
  0
LINE
  5
122F3
330
1F07
100
AcDbEntity
  8
器具
100
AcDbLine
 10
4721.920184164411
 20
-31608.76296277304
 30
0.0
 11
4741.013420497181
 21
-31623.0229772992
 31
0.0
  0
LINE
  5
122F4
330
1F07
100
AcDbEntity
  8
器具
100
AcDbLine
 10
4687.344155554725
 20
-31624.0811373473
 30
0.0
 11
4687.402861890098
 21
-31632.1397492392
 31
0.0
  0
LINE
  5
122F5
330
1F07
100
AcDbEntity
  8
器具
100
AcDbLine
 10
4687.185360758649
 20
-31623.95253393135
 30
0.0
 11
4687.344155554725
 21
-31624.0811373473
 31
0.0
  0
ARC
  5
122F6
330
1F07
100
AcDbEntity
  8
器具
100
AcDbCircle
 10
5003.304848111901
 20
-31609.18743296087
 30
0.0
 40
13.25216515874011
100
AcDbArc
 50
240.8930476860485
 51
307.663716790602
  0
ARC
  5
122F7
330
1F07
100
AcDbEntity
  8
器具
100
AcDbCircle
 10
4748.870729659283
 20
-31612.15724860577
 30
0.0
 40
13.40900321803881
100
AcDbArc
 50
234.1282669016307
 51
299.317682074388
  0
LWPOLYLINE
  5
122F8
330
1F07
100
AcDbEntity
  8
器具
100
AcDbPolyline
 90
        3
 70
   128
 43
0.0
 10
5048.011790654394
 20
-31432.35342388669
 10
5048.199689323077
 20
-31428.57408423565
 10
5048.948384978721
 20
-31425.10480389794
  0
LWPOLYLINE
  5
122F9
330
1F07
100
AcDbEntity
  8
器具
100
AcDbPolyline
 90
        3
 70
   128
 43
0.0
 10
5048.948384978721
 20
-31425.10480389794
 10
5049.327851242995
 20
-31423.08327718427
 10
5049.205446440974
 20
-31422.47200573051
  0
LWPOLYLINE
  5
122FA
330
1F07
100
AcDbEntity
  8
器具
100
AcDbPolyline
 90
        3
 70
   128
 43
0.0
 10
5049.205446440974
 20
-31422.47200573051
 10
5050.660008738521
 20
-31422.8106602049
 10
5050.994321671887
 20
-31422.94182696914
  0
ARC
  5
122FB
330
1F07
100
AcDbEntity
  8
器具
100
AcDbCircle
 10
4575.584656173826
 20
-31619.33994481119
 30
0.0
 40
514.3797923140627
100
AcDbArc
 50
2.791130809173959
 51
22.44617712860487
  0
ARC
  5
122FC
330
1F07
100
AcDbEntity
  8
器具
100
AcDbCircle
 10
5180.267834480916
 20
-31614.95834601138
 30
0.0
 40
514.3375406498662
100
AcDbArc
 50
158.3858409897726
 51
178.0428994468065
  0
LWPOLYLINE
  5
122FD
330
1F07
100
AcDbEntity
  8
器具
100
AcDbPolyline
 90
        3
 70
   128
 43
0.0
 10
4702.095687998686
 20
-31425.49989660858
 10
4702.912833280121
 20
-31425.20576617453
 10
4703.87739135616
 20
-31425.00389645207
  0
LWPOLYLINE
  5
122FE
330
1F07
100
AcDbEntity
  8
器具
100
AcDbPolyline
 90
        3
 70
   128
 43
0.0
 10
4703.87739135616
 20
-31425.00389645207
 10
4703.831699397865
 20
-31426.51028837369
 10
4704.172578114704
 20
-31427.63264562248
  0
ARC
  5
122FF
330
1F07
100
AcDbEntity
  8
器具
100
AcDbCircle
 10
4681.713920239753
 20
-31434.55950409232
 30
0.0
 40
23.50261010622555
100
AcDbArc
 50
359.2509373613756
 51
17.14117981821431
  0
LWPOLYLINE
  5
12300
330
1F07
100
AcDbEntity
  8
器具
100
AcDbPolyline
 90
        3
 70
   128
 43
0.0
 10
4701.266961198649
 20
-31426.53682120956
 10
4701.865709088859
 20
-31425.69404639404
 10
4702.095687998686
 20
-31425.49989660858
  0
LWPOLYLINE
  5
12301
330
1F07
100
AcDbEntity
  8
器具
100
AcDbPolyline
 90
        3
 70
   128
 43
0.0
 10
5050.994321671887
 20
-31422.94182696914
 10
5051.496852275109
 20
-31423.4112078442
 10
5051.838357125311
 20
-31423.96648714206
  0
LINE
  5
12302
330
1F07
100
AcDbEntity
  8
器具
100
AcDbLine
 10
5048.011790654435
 20
-31432.35342388664
 30
0.0
 11
5048.59098277101
 21
-31511.85905882728
 31
0.0
  0
LINE
  5
12303
330
1F07
100
AcDbEntity
  8
器具
100
AcDbLine
 10
4705.214521850311
 20
-31434.86675928271
 30
0.0
 11
4705.793713966896
 21
-31514.37239422413
 31
0.0
  0
LINE
  5
12304
330
1F07
100
AcDbEntity
  8
器具
100
AcDbLine
 10
5041.787550414628
 20
-31632.95835220718
 30
0.0
 11
5041.846256750138
 21
-31641.01696409803
 31
0.0
  0
LINE
  5
12305
330
1F07
100
AcDbEntity
  8
器具
100
AcDbLine
 10
5041.787550414628
 20
-31632.95835220718
 30
0.0
 11
5065.089297201666
 21
-31619.40803943577
 31
0.0
  0
LINE
  5
12306
330
1F07
100
AcDbEntity
  8
器具
100
AcDbLine
 10
4711.243661370658
 20
-31637.04752182777
 30
0.0
 11
4711.302367706169
 21
-31645.10613371967
 31
0.0
  0
LINE
  5
12307
330
1F07
100
AcDbEntity
  8
器具
100
AcDbLine
 10
4687.344155554725
 20
-31624.0811373473
 30
0.0
 11
4711.243661370658
 21
-31637.04752182777
 31
0.0
  0
LINE
  5
12308
330
1F07
100
AcDbEntity
  8
器具
100
AcDbLine
 10
5094.816107994088
 20
-31637.5410270431
 30
0.0
 11
5094.874814329598
 21
-31645.59963893422
 31
0.0
  0
LINE
  5
12309
330
1F07
100
AcDbEntity
  8
器具
100
AcDbLine
 10
5094.816107994088
 20
-31637.5410270431
 30
0.0
 11
5096.066049334009
 21
-31636.63856234023
 31
0.0
  0
LINE
  5
1230A
330
1F07
100
AcDbEntity
  8
器具
100
AcDbLine
 10
4658.451226933158
 20
-31642.93931173225
 30
0.0
 11
4658.509933268657
 21
-31650.9979236231
 31
0.0
  0
LINE
  5
1230B
330
1F07
100
AcDbEntity
  8
器具
100
AcDbLine
 10
4657.03605087723
 20
-31641.96632336121
 30
0.0
 11
4658.451226933158
 21
-31642.93931173225
 31
0.0
  0
ARC
  5
1230C
330
1F07
100
AcDbEntity
  8
器具
100
AcDbCircle
 10
5034.574191442629
 20
-31621.18484366927
 30
0.0
 40
13.80753602039766
100
AcDbArc
 50
243.6337006421447
 51
301.4948473006608
  0
LINE
  5
1230D
330
1F07
100
AcDbEntity
  8
器具
100
AcDbLine
 10
4848.452395327096
 20
-31548.60895389851
 30
0.0
 11
4848.070914501467
 21
-31496.24312501188
 31
0.0
  0
LINE
  5
1230E
330
1F07
100
AcDbEntity
  8
器具
100
AcDbLine
 10
4848.070914501467
 20
-31496.24312501188
 30
0.0
 11
4872.740868801257
 21
-31496.0622488058
 31
0.0
  0
LINE
  5
1230F
330
1F07
100
AcDbEntity
  8
器具
100
AcDbLine
 10
4883.929985786087
 20
-31547.60314485236
 30
0.0
 11
4883.546487693973
 21
-31494.96040606726
 31
0.0
  0
LINE
  5
12310
330
1F07
100
AcDbEntity
  8
器具
100
AcDbLine
 10
4883.546487693973
 20
-31494.96040606726
 30
0.0
 11
4907.934265713446
 21
-31497.01042480645
 31
0.0
  0
LINE
  5
12311
330
1F07
100
AcDbEntity
  8
器具
100
AcDbLine
 10
4784.05490684247
 20
-31503.80094088617
 30
0.0
 11
4782.948416112308
 21
-31504.11712395254
 31
0.0
  0
ARC
  5
12312
330
1F07
100
AcDbEntity
  8
器具
100
AcDbCircle
 10
4877.167035232034
 20
-31840.60325637442
 30
0.0
 40
349.515583614224
100
AcDbArc
 50
98.07845883424958
 51
100.3362174459564
  0
ARC
  5
12313
330
1F07
100
AcDbEntity
  8
器具
100
AcDbCircle
 10
4879.687617735004
 20
-31862.30473809558
 30
0.0
 40
371.370005423756
100
AcDbArc
 50
91.07749886075662
 51
94.96816515606424
  0
ARC
  5
12314
330
1F07
100
AcDbEntity
  8
器具
100
AcDbCircle
 10
4879.8131797741
 20
-31862.31371322219
 30
0.0
 40
371.3799031128141
100
AcDbArc
 50
85.87204439216941
 51
89.76351628007614
  0
ARC
  5
12315
330
1F07
100
AcDbEntity
  8
器具
100
AcDbCircle
 10
4882.012947953944
 20
-31840.60029727579
 30
0.0
 40
349.5483054096898
100
AcDbArc
 50
80.5042562518553
 51
82.7637965620476
  0
LINE
  5
12316
330
1F07
100
AcDbEntity
  8
器具
100
AcDbLine
 10
4971.29237728685
 20
-31502.7362136138
 30
0.0
 11
4970.169087008986
 21
-31502.43301433284
 31
0.0
  0
ARC
  5
12317
330
1F07
100
AcDbEntity
  8
器具
100
AcDbCircle
 10
4718.171456411138
 20
-31625.09948161006
 30
0.0
 40
13.81122764955484
100
AcDbArc
 50
239.8936890498817
 51
297.0900478515355
  0
LINE
  5
12318
330
1F07
100
AcDbEntity
  8
器具
100
AcDbLine
 10
4813.705915051306
 20
-31551.90925862131
 30
0.0
 11
4813.332954026746
 21
-31500.71294186998
 31
0.0
  0
LINE
  5
12319
330
1F07
100
AcDbEntity
  8
器具
100
AcDbLine
 10
4813.332954026746
 20
-31500.71294186998
 30
0.0
 11
4827.9250915199
 21
-31499.27055058002
 31
0.0
  0
LINE
  5
1231A
330
1F07
100
AcDbEntity
  8
器具
100
AcDbLine
 10
4926.222195541396
 20
-31498.21700440292
 30
0.0
 11
4942.38617644613
 21
-31501.12684238545
 31
0.0
  0
LINE
  5
1231B
330
1F07
100
AcDbEntity
  8
器具
100
AcDbLine
 10
4883.546487693973
 20
-31494.96040606726
 30
0.0
 11
4882.232051106506
 21
-31499.89533220625
 31
0.0
  0
LINE
  5
1231C
330
1F07
100
AcDbEntity
  8
器具
100
AcDbLine
 10
4882.232051106506
 20
-31499.89533220625
 30
0.0
 11
4882.579563990699
 21
-31547.59838566327
 31
0.0
  0
LWPOLYLINE
  5
1231D
330
1F07
100
AcDbEntity
  8
器具
100
AcDbPolyline
 90
        3
 70
   128
 43
0.0
 10
5073.793877223707
 20
-31448.90822671126
 10
5073.946680755768
 20
-31445.14712068458
 10
5074.568635289031
 20
-31441.74332245917
  0
LWPOLYLINE
  5
1231E
330
1F07
100
AcDbEntity
  8
器具
100
AcDbPolyline
 90
        3
 70
   128
 43
0.0
 10
5074.568635289031
 20
-31441.74332245917
 10
5074.793421680253
 20
-31439.75170885238
 10
5074.625449121217
 20
-31439.12798316925
  0
LWPOLYLINE
  5
1231F
330
1F07
100
AcDbEntity
  8
器具
100
AcDbPolyline
 90
        3
 70
   128
 43
0.0
 10
5074.625449121217
 20
-31439.12798316925
 10
5075.96843853747
 20
-31439.59430727202
 10
5076.262658896022
 20
-31439.75423087384
  0
ARC
  5
12320
330
1F07
100
AcDbEntity
  8
器具
100
AcDbCircle
 10
4633.972829544128
 20
-31643.21597858722
 30
0.0
 40
486.8438927735295
100
AcDbArc
 50
3.553683949731984
 51
24.70333114652983
  0
ARC
  5
12321
330
1F07
100
AcDbEntity
  8
器具
100
AcDbCircle
 10
5122.26504990077
 20
-31639.68552180642
 30
0.0
 40
486.8271968153838
100
AcDbArc
 50
156.1295270995358
 51
177.2802572295989
  0
LWPOLYLINE
  5
12322
330
1F07
100
AcDbEntity
  8
器具
100
AcDbPolyline
 90
        3
 70
   128
 43
0.0
 10
4677.079775255401
 20
-31442.68097668631
 10
4677.808247016431
 20
-31442.31704014006
 10
4678.707506653316
 20
-31442.03079094938
  0
LWPOLYLINE
  5
12323
330
1F07
100
AcDbEntity
  8
器具
100
AcDbPolyline
 90
        3
 70
   128
 43
0.0
 10
4678.707506653316
 20
-31442.03079094938
 10
4678.543197379079
 20
-31443.54859074365
 10
4678.802208311747
 20
-31444.64501935165
  0
ARC
  5
12324
330
1F07
100
AcDbEntity
  8
器具
100
AcDbCircle
 10
4652.667873253334
 20
-31451.48660275314
 30
0.0
 40
27.01500939056187
100
AcDbArc
 50
359.3399725587971
 51
14.66998489720387
  0
LINE
  5
12325
330
1F07
100
AcDbEntity
  8
器具
100
AcDbLine
 10
5073.793877223727
 20
-31448.90822671112
 30
0.0
 11
5074.0908092086
 21
-31489.66804597818
 31
0.0
  0
LINE
  5
12326
330
1F07
100
AcDbEntity
  8
器具
100
AcDbLine
 10
4679.681090185707
 20
-31451.79779937686
 30
0.0
 11
4679.978487312645
 21
-31492.62146864104
 31
0.0
  0
LINE
  5
12327
330
1F07
100
AcDbEntity
  8
器具
100
AcDbLine
 10
4780.545307959631
 20
-31557.31151540138
 30
0.0
 11
4780.187970145379
 21
-31508.25979491743
 31
0.0
  0
LINE
  5
12328
330
1F07
100
AcDbEntity
  8
器具
100
AcDbLine
 10
4780.187970145379
 20
-31508.25979491743
 30
0.0
 11
4784.004776602325
 21
-31507.51473030058
 31
0.0
  0
LINE
  5
12329
330
1F07
100
AcDbEntity
  8
器具
100
AcDbLine
 10
5068.160740882281
 20
-31648.83744869801
 30
0.0
 11
5068.219447217792
 21
-31656.89606058912
 31
0.0
  0
LINE
  5
1232A
330
1F07
100
AcDbEntity
  8
器具
100
AcDbLine
 10
5068.160740882281
 20
-31648.83744869801
 30
0.0
 11
5094.816107994088
 21
-31637.5410270431
 31
0.0
  0
LWPOLYLINE
  5
1232B
330
1F07
100
AcDbEntity
  8
器具
100
AcDbPolyline
 90
        3
 70
   128
 43
0.0
 10
4676.541093197357
 20
-31443.77863125929
 10
4676.904925832306
 20
-31442.89325516777
 10
4677.079775255401
 20
-31442.68097668631
  0
LWPOLYLINE
  5
1232C
330
1F07
100
AcDbEntity
  8
器具
100
AcDbPolyline
 90
        3
 70
   128
 43
0.0
 10
5076.262658896022
 20
-31439.75423087384
 10
5076.631172828586
 20
-31440.26384502813
 10
5076.817583060782
 20
-31440.84386729797
  0
LINE
  5
1232D
330
1F07
100
AcDbEntity
  8
器具
100
AcDbLine
 10
4970.321328772666
 20
-31506.89839745596
 30
0.0
 11
4975.253345133316
 21
-31508.31010454823
 31
0.0
  0
LINE
  5
1232E
330
1F07
100
AcDbEntity
  8
器具
100
AcDbLine
 10
4685.600893665248
 20
-31653.57010949525
 30
0.0
 11
4685.659600000757
 21
-31661.62872138611
 31
0.0
  0
LINE
  5
1232F
330
1F07
100
AcDbEntity
  8
器具
100
AcDbLine
 10
4658.451226933158
 20
-31642.93931173225
 30
0.0
 11
4685.600893665248
 21
-31653.57010949525
 31
0.0
  0
ARC
  5
12330
330
1F07
100
AcDbEntity
  8
器具
100
AcDbCircle
 10
5061.994205616247
 20
-31635.76175435694
 30
0.0
 40
14.4568302085654
100
AcDbArc
 50
245.5623715091657
 51
295.2487004271447
  0
ARC
  5
12331
330
1F07
100
AcDbEntity
  8
器具
100
AcDbCircle
 10
4691.44673524299
 20
-31640.32658424543
 30
0.0
 40
14.476353988602
100
AcDbArc
 50
246.1827952744335
 51
295.2584532692762
  0
LINE
  5
12332
330
1F07
100
AcDbEntity
  8
器具
100
AcDbLine
 10
5119.225083567597
 20
-31658.15990605214
 30
0.0
 11
5119.283789903097
 21
-31666.218517943
 31
0.0
  0
LINE
  5
12333
330
1F07
100
AcDbEntity
  8
器具
100
AcDbLine
 10
5119.225083567597
 20
-31658.15990605214
 30
0.0
 11
5121.913113484729
 21
-31656.50206192755
 31
0.0
  0
ARC
  5
12334
330
1F07
100
AcDbEntity
  8
器具
100
AcDbCircle
 10
4788.560293372223
 20
-31574.91723480637
 30
0.0
 40
173.1877696206753
100
AcDbArc
 50
121.0193938758821
 51
138.5588370808424
  0
ARC
  5
12335
330
1F07
100
AcDbEntity
  8
器具
100
AcDbCircle
 10
4965.198408526948
 20
-31575.59662936261
 30
0.0
 40
175.6686185969003
100
AcDbArc
 50
42.55890198277804
 51
59.5167227993056
  0
LWPOLYLINE
  5
12336
330
1F07
100
AcDbEntity
  8
器具
100
AcDbPolyline
 90
        3
 70
   128
 43
0.0
 10
5110.726935670007
 20
-31480.95229523962
 10
5110.628329423606
 20
-31478.97721905653
 10
5110.382230515047
 20
-31478.3170517262
  0
LWPOLYLINE
  5
12337
330
1F07
100
AcDbEntity
  8
器具
100
AcDbPolyline
 90
        3
 70
   128
 43
0.0
 10
5095.331905728556
 20
-31460.51321189738
 10
5095.396015821877
 20
-31458.53720993695
 10
5095.186470675687
 20
-31457.89705074542
  0
ARC
  5
12338
330
1F07
100
AcDbEntity
  8
器具
100
AcDbCircle
 10
4979.392307940819
 20
-31568.06268602054
 30
0.0
 40
158.1419606533054
100
AcDbArc
 50
42.85003792028986
 51
51.40435231336229
  0
ARC
  5
12339
330
1F07
100
AcDbEntity
  8
器具
100
AcDbCircle
 10
4950.050691257723
 20
-31605.63825588639
 30
0.0
 40
205.8306769869841
100
AcDbArc
 50
52.77451968326069
 51
59.94949956890557
  0
ARC
  5
1233A
330
1F07
100
AcDbEntity
  8
器具
100
AcDbCircle
 10
4923.158483391392
 20
-31653.0156936837
 30
0.0
 40
260.3199435782792
100
AcDbArc
 50
61.10456070434543
 51
67.23907693081362
  0
ARC
  5
1233B
330
1F07
100
AcDbEntity
  8
器具
100
AcDbCircle
 10
4901.968303702409
 20
-31704.46318458882
 30
0.0
 40
315.9693514630124
100
AcDbArc
 50
68.24045020676776
 51
73.63131601668998
  0
ARC
  5
1233C
330
1F07
100
AcDbEntity
  8
器具
100
AcDbCircle
 10
4888.103346126957
 20
-31752.59207053602
 30
0.0
 40
366.0618502302423
100
AcDbArc
 50
74.52674869506885
 51
79.41362974694634
  0
ARC
  5
1233D
330
1F07
100
AcDbEntity
  8
器具
100
AcDbCircle
 10
4881.277315263808
 20
-31789.87326694513
 30
0.0
 40
403.9667330049221
100
AcDbArc
 50
80.24026573638147
 51
84.81632625074444
  0
ARC
  5
1233E
330
1F07
100
AcDbEntity
  8
器具
100
AcDbCircle
 10
4879.438305600835
 20
-31810.20556117769
 30
0.0
 40
424.3836144235013
100
AcDbArc
 50
85.60429005381896
 51
90.03231875244571
  0
ARC
  5
1233F
330
1F07
100
AcDbEntity
  8
器具
100
AcDbCircle
 10
4879.303254012452
 20
-31810.1957202403
 30
0.0
 40
424.3727825736331
100
AcDbArc
 50
90.80781785870749
 51
95.23592193661283
  0
ARC
  5
12340
330
1F07
100
AcDbEntity
  8
器具
100
AcDbCircle
 10
4877.164315589826
 20
-31789.872589109
 30
0.0
 40
403.9358114808404
100
AcDbArc
 50
96.0239117742082
 51
100.6002059186133
  0
ARC
  5
12341
330
1F07
100
AcDbEntity
  8
器具
100
AcDbCircle
 10
4869.7891497965
 20
-31752.680145461
 30
0.0
 40
366.0152487948882
100
AcDbArc
 50
101.4268965976477
 51
106.3141926316339
  0
ARC
  5
12342
330
1F07
100
AcDbEntity
  8
器具
100
AcDbCircle
 10
4855.216600363789
 20
-31704.75104099195
 30
0.0
 40
315.9134489580272
100
AcDbArc
 50
107.2097142227618
 51
112.6012162944183
  0
ARC
  5
12343
330
1F07
100
AcDbEntity
  8
器具
100
AcDbCircle
 10
4833.272078604493
 20
-31653.6183898825
 30
0.0
 40
260.2618635825806
100
AcDbArc
 50
113.6027217640383
 51
119.7381511298612
  0
ARC
  5
12344
330
1F07
100
AcDbEntity
  8
器具
100
AcDbCircle
 10
4805.688139488461
 20
-31606.64542038031
 30
0.0
 40
205.7769896369379
100
AcDbArc
 50
120.8934005941492
 51
128.0696292314521
  0
ARC
  5
12345
330
1F07
100
AcDbEntity
  8
器具
100
AcDbCircle
 10
4775.80193459703
 20
-31569.51353768949
 30
0.0
 40
158.0976265552241
100
AcDbArc
 50
129.4400557485386
 51
137.9959705588948
  0
LWPOLYLINE
  5
12346
330
1F07
100
AcDbEntity
  8
器具
100
AcDbPolyline
 90
        3
 70
   128
 43
0.0
 10
4658.427454544479
 20
-31461.09929882319
 10
4658.148922979995
 20
-31462.63906596628
 10
4658.319941543932
 20
-31463.71731454985
  0
LWPOLYLINE
  5
12347
330
1F07
100
AcDbEntity
  8
器具
100
AcDbPolyline
 90
        3
 70
   128
 43
0.0
 10
4643.536597217893
 20
-31481.73989012561
 10
4643.151050920715
 20
-31483.31164318419
 10
4643.230119195492
 20
-31484.37990801147
  0
LINE
  5
12348
330
1F07
100
AcDbEntity
  8
器具
100
AcDbLine
 10
4634.985214676462
 20
-31664.15045383407
 30
0.0
 11
4635.043921011963
 21
-31672.20906572492
 31
0.0
  0
LWPOLYLINE
  5
12349
330
1F07
100
AcDbEntity
  8
器具
100
AcDbPolyline
 90
        3
 70
   128
 43
0.0
 10
4632.09870474134
 20
-31662.45807858092
 10
4632.154075283729
 20
-31662.50361808228
 10
4634.985214676443
 20
-31664.1504538341
  0
LWPOLYLINE
  5
1234A
330
1F07
100
AcDbEntity
  8
器具
100
AcDbPolyline
 90
       26
 70
   128
 43
0.0
 10
5038.545245517236
 20
-31404.76362640935
 10
5032.009653806849
 20
-31399.20527140025
 10
5022.248383648651
 20
-31392.07501777913
 10
5011.493913192483
 20
-31385.43953451515
 10
4999.819706376777
 20
-31379.34414868829
 10
4987.305509871342
 20
-31373.83049796245
 10
4974.036808327674
 20
-31368.9362461644
 10
4960.104240431622
 20
-31364.69482599668
 10
4945.602979749138
 20
-31361.13521065844
 10
4930.632084595016
 20
-31358.28171593376
 10
4915.293821363444
 20
-31356.15383408334
 10
4899.692965944907
 20
-31354.76610069835
 10
4883.93608800109
 20
-31354.12799540586
 10
4868.130822985605
 20
-31354.24387711152
 10
4852.385136884791
 20
-31355.1129542247
 10
4836.806588700754
 20
-31356.72929006818
 10
4821.501595713854
 20
-31359.08184343032
 10
4806.574706545477
 20
-31362.15454398437
 10
4792.127886983915
 20
-31365.92640207169
 10
4778.259823456103
 20
-31370.37165207579
 10
4765.065248897881
 20
-31375.45992843132
 10
4752.634295632256
 20
-31381.15647305281
 10
4741.05187967504
 20
-31387.42237276268
 10
4730.397120672012
 20
-31394.21482511306
 10
4720.742801430388
 20
-31401.48743076732
 10
4714.306837164764
 20
-31407.12567697539
  0
ARC
  5
1234B
330
1F07
100
AcDbEntity
  8
器具
100
AcDbCircle
 10
4880.076639870111
 20
-31897.56613577259
 30
0.0
 40
424.4424163024214
100
AcDbArc
 50
85.7901090287042
 51
89.84649977747762
  0
ARC
  5
1234C
330
1F07
100
AcDbEntity
  8
器具
100
AcDbCircle
 10
4879.937745383298
 20
-31897.55632164577
 30
0.0
 40
424.4315826543529
100
AcDbArc
 50
90.9936399984679
 51
95.05009979710081
  0
LINE
  5
1234D
330
1F07
100
AcDbEntity
  8
器具
100
AcDbLine
 10
5094.739459473608
 20
-31467.60993993329
 30
0.0
 11
5094.868442741812
 21
-31485.31545823501
 31
0.0
  0
LINE
  5
1234E
330
1F07
100
AcDbEntity
  8
器具
100
AcDbLine
 10
4659.015519004486
 20
-31470.80459899947
 30
0.0
 11
4659.144741643091
 21
-31488.5429756954
 31
0.0
  0
LWPOLYLINE
  5
1234F
330
1F07
100
AcDbEntity
  8
器具
100
AcDbPolyline
 90
        3
 70
   128
 43
0.0
 10
5094.739459473598
 20
-31467.6099399334
 10
5094.852706121042
 20
-31463.86369682198
 10
5095.331905728556
 20
-31460.51321189738
  0
LWPOLYLINE
  5
12350
330
1F07
100
AcDbEntity
  8
器具
100
AcDbPolyline
 90
        3
 70
   128
 43
0.0
 10
5095.186470675687
 20
-31457.89705074542
 10
5096.384818353684
 20
-31458.47956203113
 10
5096.631701455838
 20
-31458.66430461941
  0
ARC
  5
12351
330
1F07
100
AcDbEntity
  8
器具
100
AcDbCircle
 10
4666.326906027094
 20
-31670.09003268983
 30
0.0
 40
479.4403565193733
100
AcDbArc
 50
4.417437557557216
 51
26.16670795514607
  0
ARC
  5
12352
330
1F07
100
AcDbEntity
  8
器具
100
AcDbCircle
 10
5090.329604195631
 20
-31667.03048236482
 30
0.0
 40
479.4408389392481
100
AcDbArc
 50
154.6669482000712
 51
176.416368698493
  0
LWPOLYLINE
  5
12353
330
1F07
100
AcDbEntity
  8
器具
100
AcDbPolyline
 90
        3
 70
   128
 43
0.0
 10
4656.993775255181
 20
-31461.88766041075
 10
4657.615636103325
 20
-31461.46287907753
 10
4658.427454544479
 20
-31461.09929882319
  0
ARC
  5
12354
330
1F07
100
AcDbEntity
  8
器具
100
AcDbCircle
 10
4625.490079866049
 20
-31470.51715821275
 30
0.0
 40
33.52667134733457
100
AcDbArc
 50
359.5087688391039
 51
11.70185109085222
  0
ARC
  5
12355
330
1F07
100
AcDbEntity
  8
器具
100
AcDbCircle
 10
4882.120895281033
 20
-31875.88998218442
 30
0.0
 40
402.6657078673554
100
AcDbArc
 50
80.42882267635899
 51
83.85942745447385
  0
ARC
  5
12356
330
1F07
100
AcDbEntity
  8
器具
100
AcDbCircle
 10
4877.421904213607
 20
-31874.89916238491
 30
0.0
 40
401.6303527902237
100
AcDbArc
 50
96.97739351153328
 51
100.4159259009207
  0
LINE
  5
12357
330
1F07
100
AcDbEntity
  8
器具
100
AcDbLine
 10
5089.87243973348
 20
-31666.92428119862
 30
0.0
 11
5089.931146068991
 21
-31674.98289308948
 31
0.0
  0
LINE
  5
12358
330
1F07
100
AcDbEntity
  8
器具
100
AcDbLine
 10
5089.87243973348
 20
-31666.92428119862
 30
0.0
 11
5119.225083567597
 21
-31658.15990605214
 31
0.0
  0
LINE
  5
12359
330
1F07
100
AcDbEntity
  8
器具
100
AcDbLine
 10
4664.716527425341
 20
-31672.18389935585
 30
0.0
 11
4664.775233760852
 21
-31680.24251124775
 31
0.0
  0
LINE
  5
1235A
330
1F07
100
AcDbEntity
  8
器具
100
AcDbLine
 10
4634.985214676462
 20
-31664.15045383407
 30
0.0
 11
4664.716527425341
 21
-31672.18389935585
 31
0.0
  0
ARC
  5
1235B
330
1F07
100
AcDbEntity
  8
器具
100
AcDbCircle
 10
5084.893800338659
 20
-31653.32956006329
 30
0.0
 40
14.47768258214238
100
AcDbArc
 50
245.4937393578793
 51
290.113668994995
  0
ARC
  5
1235C
330
1F07
100
AcDbEntity
  8
器具
100
AcDbCircle
 10
4669.358170270102
 20
-31658.49072820775
 30
0.0
 40
14.45848485854277
100
AcDbArc
 50
251.2746253116045
 51
295.3729802066598
  0
ARC
  5
1235D
330
1F07
100
AcDbEntity
  8
器具
100
AcDbCircle
 10
4890.351755646287
 20
-31833.56422235555
 30
0.0
 40
359.532065894859
100
AcDbArc
 50
74.71031936796958
 51
77.43232759329974
  0
ARC
  5
1235E
330
1F07
100
AcDbEntity
  8
器具
100
AcDbCircle
 10
4868.589092482635
 20
-31833.18041669933
 30
0.0
 40
358.9724070429832
100
AcDbArc
 50
103.4085279221757
 51
106.1325431610107
  0
LINE
  5
1235F
330
1F07
100
AcDbEntity
  8
器具
100
AcDbLine
 10
5137.71519393494
 20
-31680.75697123175
 30
0.0
 11
5137.773900270449
 21
-31688.81558312286
 31
0.0
  0
LWPOLYLINE
  5
12360
330
1F07
100
AcDbEntity
  8
器具
100
AcDbPolyline
 90
        3
 70
   128
 43
0.0
 10
5137.71519393493
 20
-31680.75697123182
 10
5140.897877274048
 20
-31679.30878814874
 10
5142.026368654979
 20
-31678.48195916236
  0
LINE
  5
12361
330
1F07
100
AcDbEntity
  8
器具
100
AcDbLine
 10
4617.523929885614
 20
-31687.19227493741
 30
0.0
 11
4617.582636220989
 21
-31695.25088682931
 31
0.0
  0
LWPOLYLINE
  5
12362
330
1F07
100
AcDbEntity
  8
器具
100
AcDbPolyline
 90
        3
 70
   128
 43
0.0
 10
4612.987362685767
 20
-31684.9232246593
 10
4614.277747378131
 20
-31685.82362357083
 10
4617.523929885583
 20
-31687.19227493751
  0
ARC
  5
12363
330
1F07
100
AcDbEntity
  8
器具
100
AcDbCircle
 10
4907.342426650544
 20
-31779.13843014932
 30
0.0
 40
302.4865071531366
100
AcDbArc
 50
68.41790695213139
 51
70.17543660723055
  0
ARC
  5
12364
330
1F07
100
AcDbEntity
  8
器具
100
AcDbCircle
 10
4850.927109953363
 20
-31779.49123262538
 30
0.0
 40
302.4241371788989
100
AcDbArc
 50
110.6678517630337
 51
112.4237604776592
  0
LWPOLYLINE
  5
12365
330
1F07
100
AcDbEntity
  8
器具
100
AcDbPolyline
 90
        3
 70
   128
 43
0.0
 10
5110.332787655419
 20
-31487.99806530553
 10
5110.402989691323
 20
-31484.26294842576
 10
5110.726935670007
 20
-31480.95229523962
  0
LWPOLYLINE
  5
12366
330
1F07
100
AcDbEntity
  8
器具
100
AcDbPolyline
 90
        3
 70
   128
 43
0.0
 10
5110.382230515047
 20
-31478.3170517262
 10
5111.406429158176
 20
-31479.0014068317
 10
5111.599895922871
 20
-31479.2064194319
  0
ARC
  5
12367
330
1F07
100
AcDbEntity
  8
器具
100
AcDbCircle
 10
4677.59330033884
 20
-31699.26882360829
 30
0.0
 40
486.609891742815
100
AcDbArc
 50
5.490620128560994
 51
26.88722003809517
  0
LINE
  5
12368
330
1F07
100
AcDbEntity
  8
器具
100
AcDbLine
 10
5106.388032885469
 20
-31686.77349186564
 30
0.0
 11
5106.446739220979
 21
-31694.83210375649
 31
0.0
  0
LINE
  5
12369
330
1F07
100
AcDbEntity
  8
器具
100
AcDbLine
 10
5106.388032885469
 20
-31686.77349186564
 30
0.0
 11
5137.71519393494
 21
-31680.75697123175
 31
0.0
  0
ARC
  5
1236A
330
1F07
100
AcDbEntity
  8
器具
100
AcDbCircle
 10
5079.510101630612
 20
-31696.37207154284
 30
0.0
 40
486.6239352164618
100
AcDbArc
 50
153.9471739757566
 51
175.3428438529387
  0
LWPOLYLINE
  5
1236B
330
1F07
100
AcDbEntity
  8
器具
100
AcDbPolyline
 90
        3
 70
   128
 43
0.0
 10
4642.332271979781
 20
-31482.64701548427
 10
4642.832209636899
 20
-31482.1718488904
 10
4643.536597217893
 20
-31481.73989012561
  0
ARC
  5
1236C
330
1F07
100
AcDbEntity
  8
器具
100
AcDbCircle
 10
4596.463927850416
 20
-31491.21590199036
 30
0.0
 40
47.26317241381303
100
AcDbArc
 50
359.7536103782255
 51
8.316247607172636
  0
ARC
  5
1236D
330
1F07
100
AcDbEntity
  8
器具
100
AcDbCircle
 10
5102.704327289769
 20
-31672.53965035966
 30
0.0
 40
14.70278650239085
100
AcDbArc
 50
245.8507976036894
 51
284.5097485155012
  0
LINE
  5
1236E
330
1F07
100
AcDbEntity
  8
器具
100
AcDbLine
 10
4649.104805058564
 20
-31692.43055812965
 30
0.0
 11
4649.163511394063
 21
-31700.48917002077
 31
0.0
  0
LINE
  5
1236F
330
1F07
100
AcDbEntity
  8
器具
100
AcDbLine
 10
4617.523929885614
 20
-31687.19227493741
 30
0.0
 11
4649.104805058564
 21
-31692.43055812965
 31
0.0
  0
ARC
  5
12370
330
1F07
100
AcDbEntity
  8
器具
100
AcDbCircle
 10
4652.435148481073
 20
-31678.14645975616
 30
0.0
 40
14.66719651639692
100
AcDbArc
 50
256.8759175606008
 51
295.0261126223106
  0
LINE
  5
12371
330
1F07
100
AcDbEntity
  8
器具
100
AcDbLine
 10
5149.83115121362
 20
-31704.77580784206
 30
0.0
 11
5149.88985754913
 21
-31712.83441973292
 31
0.0
  0
LWPOLYLINE
  5
12372
330
1F07
100
AcDbEntity
  8
器具
100
AcDbPolyline
 90
        3
 70
   128
 43
0.0
 10
5149.831151213642
 20
-31704.7758078422
 10
5153.362816593763
 20
-31703.63104693986
 10
5155.910559745603
 20
-31702.03703603244
  0
LINE
  5
12373
330
1F07
100
AcDbEntity
  8
器具
100
AcDbLine
 10
4606.49732734281
 20
-31711.49740893676
 30
0.0
 11
4606.556033678321
 21
-31719.55602082866
 31
0.0
  0
LWPOLYLINE
  5
12374
330
1F07
100
AcDbEntity
  8
器具
100
AcDbPolyline
 90
        3
 70
   128
 43
0.0
 10
4600.172609264501
 20
-31708.80859504898
 10
4602.916033507441
 20
-31710.44064269419
 10
4606.49732734281
 20
-31711.49740893686
  0
LINE
  5
12375
330
1F07
100
AcDbEntity
  8
器具
100
AcDbLine
 10
5117.300851622875
 20
-31707.89632725797
 30
0.0
 11
5117.359557958375
 21
-31715.95493914883
 31
0.0
  0
ARC
  5
12376
330
1F07
100
AcDbEntity
  8
器具
100
AcDbCircle
 10
5114.911118040237
 20
-31693.86423287366
 30
0.0
 40
14.23413149494519
100
AcDbArc
 50
245.3613942824226
 51
279.665019890244
  0
LINE
  5
12377
330
1F07
100
AcDbEntity
  8
器具
100
AcDbLine
 10
5117.300851622875
 20
-31707.89632725797
 30
0.0
 11
5149.83115121362
 21
-31704.77580784206
 31
0.0
  0
ARC
  5
12378
330
1F07
100
AcDbEntity
  8
器具
100
AcDbCircle
 10
4669.565334236771
 20
-31730.13541555888
 30
0.0
 40
506.1240704604541
100
AcDbArc
 50
7.156685747921482
 51
24.44190849781931
  0
ARC
  5
12379
330
1F07
100
AcDbEntity
  8
器具
100
AcDbCircle
 10
5088.003995554227
 20
-31727.11912128178
 30
0.0
 40
506.1477952120045
100
AcDbArc
 50
156.4072975199765
 51
173.6758093962336
  0
LINE
  5
1237A
330
1F07
100
AcDbEntity
  8
器具
100
AcDbLine
 10
4639.15013898251
 20
-31713.81154588153
 30
0.0
 11
4639.208845318147
 21
-31721.87015777265
 31
0.0
  0
ARC
  5
1237B
330
1F07
100
AcDbEntity
  8
器具
100
AcDbCircle
 10
4641.192678794271
 20
-31699.79854466667
 30
0.0
 40
14.16107947666868
100
AcDbArc
 50
261.7069502293637
 51
295.5418313498283
  0
LINE
  5
1237C
330
1F07
100
AcDbEntity
  8
器具
100
AcDbLine
 10
4606.49732734281
 20
-31711.49740893676
 30
0.0
 11
4639.15013898251
 21
-31713.81154588153
 31
0.0
  0
LINE
  5
1237D
330
1F07
100
AcDbEntity
  8
器具
100
AcDbLine
 10
5155.274620324981
 20
-31729.62499241103
 30
0.0
 11
5155.333326660492
 21
-31737.68360430189
 31
0.0
  0
ARC
  5
1237E
330
1F07
100
AcDbEntity
  8
器具
100
AcDbCircle
 10
5154.327671205767
 20
-31715.2272349009
 30
0.0
 40
14.42886460997969
100
AcDbArc
 50
273.7629580198696
 51
308.0647547073359
  0
LINE
  5
1237F
330
1F07
100
AcDbEntity
  8
器具
100
AcDbLine
 10
4602.176918598297
 20
-31736.46738276933
 30
0.0
 11
4602.235624933796
 21
-31744.52599466045
 31
0.0
  0
ARC
  5
12380
330
1F07
100
AcDbEntity
  8
器具
100
AcDbCircle
 10
4602.778797270262
 20
-31721.86781153415
 30
0.0
 40
14.61197242593637
100
AcDbArc
 50
232.9257941574408
 51
267.6392737515874
  0
LINE
  5
12381
330
1F07
100
AcDbEntity
  8
器具
100
AcDbLine
 10
5122.342186130803
 20
-31729.77267306479
 30
0.0
 11
5122.400892466304
 21
-31737.8312849559
 31
0.0
  0
ARC
  5
12382
330
1F07
100
AcDbEntity
  8
器具
100
AcDbCircle
 10
5121.200170575697
 20
-31716.37042263596
 30
0.0
 40
13.45081841652458
100
AcDbArc
 50
244.6883363063374
 51
274.8704500898222
  0
LINE
  5
12383
330
1F07
100
AcDbEntity
  8
器具
100
AcDbLine
 10
5122.342186130803
 20
-31729.77267306479
 30
0.0
 11
5155.274620324981
 21
-31729.62499241103
 31
0.0
  0
LINE
  5
12384
330
1F07
100
AcDbEntity
  8
器具
100
AcDbLine
 10
4635.09764611325
 20
-31735.80039173376
 30
0.0
 11
4635.156352448624
 21
-31743.85900362567
 31
0.0
  0
ARC
  5
12385
330
1F07
100
AcDbEntity
  8
器具
100
AcDbCircle
 10
4635.910963316222
 20
-31722.47954690881
 30
0.0
 40
13.34565066695216
100
AcDbArc
 50
266.5060874369926
 51
296.2283086027434
  0
LINE
  5
12386
330
1F07
100
AcDbEntity
  8
器具
100
AcDbLine
 10
4602.176918598297
 20
-31736.46738276933
 30
0.0
 11
4635.09764611325
 21
-31735.80039173376
 31
0.0
  0
LINE
  5
12387
330
1F07
100
AcDbEntity
  8
器具
100
AcDbLine
 10
5153.911564993785
 20
-31754.69265554444
 30
0.0
 11
5153.970271329161
 21
-31762.75126743634
 31
0.0
  0
ARC
  5
12388
330
1F07
100
AcDbEntity
  8
器具
100
AcDbCircle
 10
5154.23511490569
 20
-31738.71366352664
 30
0.0
 40
15.98226737554555
100
AcDbArc
 50
268.8400074614126
 51
306.6978930334379
  0
LINE
  5
12389
330
1F07
100
AcDbEntity
  8
器具
100
AcDbLine
 10
5121.387902022268
 20
-31751.86386104871
 30
0.0
 11
5121.446608357769
 21
-31759.92247293957
 31
0.0
  0
LWPOLYLINE
  5
1238A
330
1F07
100
AcDbEntity
  8
器具
100
AcDbPolyline
 90
        3
 70
   128
 43
0.0
 10
5115.94697315874
 20
-31750.60312919748
 10
5117.900569044263
 20
-31751.34109203491
 10
5121.38790202227
 20
-31751.86386104877
  0
LINE
  5
1238B
330
1F07
100
AcDbEntity
  8
器具
100
AcDbLine
 10
4637.047112274883
 20
-31757.85565732533
 30
0.0
 11
4637.105818610392
 21
-31765.91426921619
 31
0.0
  0
LWPOLYLINE
  5
1238C
330
1F07
100
AcDbEntity
  8
器具
100
AcDbPolyline
 90
        3
 70
   128
 43
0.0
 10
4637.047112274873
 20
-31757.85565732536
 10
4640.50893799961
 20
-31757.24692003525
 10
4642.30665273079
 20
-31756.52435785174
  0
LINE
  5
1238D
330
1F07
100
AcDbEntity
  8
器具
100
AcDbLine
 10
4604.669086453443
 20
-31761.48735280638
 30
0.0
 11
4604.727792788818
 21
-31769.54596469828
 31
0.0
  0
ARC
  5
1238E
330
1F07
100
AcDbEntity
  8
器具
100
AcDbCircle
 10
4603.95600195901
 20
-31745.35994653677
 30
0.0
 40
16.1431633358088
100
AcDbArc
 50
234.2843615194821
 51
272.5317237701154
  0
LINE
  5
1238F
330
1F07
100
AcDbEntity
  8
器具
100
AcDbLine
 10
5121.387902022268
 20
-31751.86386104871
 30
0.0
 11
5153.911564993785
 21
-31754.69265554444
 31
0.0
  0
LINE
  5
12390
330
1F07
100
AcDbEntity
  8
器具
100
AcDbLine
 10
4604.669086453443
 20
-31761.48735280638
 30
0.0
 11
4637.047112274883
 21
-31757.85565732533
 31
0.0
  0
LINE
  5
12391
330
1F07
100
AcDbEntity
  8
器具
100
AcDbLine
 10
5114.461496939298
 20
-31773.62593284526
 30
0.0
 11
5114.520203274934
 21
-31781.68454473638
 31
0.0
  0
LWPOLYLINE
  5
12392
330
1F07
100
AcDbEntity
  8
器具
100
AcDbPolyline
 90
        3
 70
   128
 43
0.0
 10
5110.457524182876
 20
-31772.47858802139
 10
5111.163319953694
 20
-31772.79389456385
 10
5114.461496939319
 20
-31773.62593284537
  0
LINE
  5
12393
330
1F07
100
AcDbEntity
  8
器具
100
AcDbLine
 10
4644.950535140239
 20
-31779.43426881958
 30
0.0
 11
4645.00924147575
 21
-31787.49288071043
 31
0.0
  0
LWPOLYLINE
  5
12394
330
1F07
100
AcDbEntity
  8
器具
100
AcDbPolyline
 90
        3
 70
   128
 43
0.0
 10
4644.950535140218
 20
-31779.4342688197
 10
4648.20937067944
 20
-31778.52111351421
 10
4648.779031522463
 20
-31778.25183644866
  0
LINE
  5
12395
330
1F07
100
AcDbEntity
  8
器具
100
AcDbLine
 10
5145.775548165593
 20
-31779.36154818308
 30
0.0
 11
5145.834254501093
 21
-31787.42016007393
 31
0.0
  0
ARC
  5
12396
330
1F07
100
AcDbEntity
  8
器具
100
AcDbCircle
 10
5147.783911651988
 20
-31763.04102580226
 30
0.0
 40
16.44363021521756
100
AcDbArc
 50
262.9845917330881
 51
306.580092422037
  0
LINE
  5
12397
330
1F07
100
AcDbEntity
  8
器具
100
AcDbLine
 10
5114.461496939298
 20
-31773.62593284526
 30
0.0
 11
5145.775548165593
 21
-31779.36154818308
 31
0.0
  0
LINE
  5
12398
330
1F07
100
AcDbEntity
  8
器具
100
AcDbLine
 10
4613.91246546466
 20
-31785.94124435121
 30
0.0
 11
4613.971171800161
 21
-31793.99985624312
 31
0.0
  0
ARC
  5
12399
330
1F07
100
AcDbEntity
  8
器具
100
AcDbCircle
 10
4611.500842411058
 20
-31769.53231421733
 30
0.0
 40
16.5852016543858
100
AcDbArc
 50
234.3968544465725
 51
278.3609134362828
  0
LINE
  5
1239A
330
1F07
100
AcDbEntity
  8
器具
100
AcDbLine
 10
4613.91246546466
 20
-31785.94124435121
 30
0.0
 11
4644.950535140239
 21
-31779.43426881958
 31
0.0
  0
LINE
  5
1239B
330
1F07
100
AcDbEntity
  8
器具
100
AcDbLine
 10
5101.733521962234
 20
-31794.52303402327
 30
0.0
 11
5101.792228297735
 21
-31802.58164591412
 31
0.0
  0
LINE
  5
1239C
330
1F07
100
AcDbEntity
  8
器具
100
AcDbLine
 10
5099.116203657668
 20
-31793.6176324875
 30
0.0
 11
5101.733521962234
 21
-31794.52303402327
 31
0.0
  0
LINE
  5
1239D
330
1F07
100
AcDbEntity
  8
器具
100
AcDbLine
 10
4658.613306209034
 20
-31800.00488918586
 30
0.0
 11
4658.672012544534
 21
-31808.06350107672
 31
0.0
  0
LINE
  5
1239E
330
1F07
100
AcDbEntity
  8
器具
100
AcDbLine
 10
4658.613306209034
 20
-31800.00488918586
 30
0.0
 11
4661.066826421211
 21
-31799.0985643295
 31
0.0
  0
LINE
  5
1239F
330
1F07
100
AcDbEntity
  8
器具
100
AcDbLine
 10
5131.066905577131
 20
-31803.02424031659
 30
0.0
 11
5131.125611912505
 21
-31811.08285220849
 31
0.0
  0
ARC
  5
123A0
330
1F07
100
AcDbEntity
  8
器具
100
AcDbCircle
 10
5134.589261790201
 20
-31785.81425239806
 30
0.0
 40
17.56674920040752
100
AcDbArc
 50
258.4330584033632
 51
305.4132990344045
  0
LINE
  5
123A1
330
1F07
100
AcDbEntity
  8
器具
100
AcDbLine
 10
5101.733521962234
 20
-31794.52303402327
 30
0.0
 11
5131.066905577131
 21
-31803.02424031659
 31
0.0
  0
LINE
  5
123A2
330
1F07
100
AcDbEntity
  8
器具
100
AcDbLine
 10
4629.679452963819
 20
-31809.22692143574
 30
0.0
 11
4629.73815929933
 21
-31817.28553332764
 31
0.0
  0
ARC
  5
123A3
330
1F07
100
AcDbEntity
  8
器具
100
AcDbCircle
 10
4625.729752400858
 20
-31792.00250042975
 30
0.0
 40
17.67146891280217
100
AcDbArc
 50
235.5359669254345
 51
282.9151117609239
  0
LINE
  5
123A4
330
1F07
100
AcDbEntity
  8
器具
100
AcDbLine
 10
4629.679452963819
 20
-31809.22692143574
 30
0.0
 11
4658.613306209034
 21
-31800.00488918586
 31
0.0
  0
LINE
  5
123A5
330
1F07
100
AcDbEntity
  8
器具
100
AcDbLine
 10
5083.517382076997
 20
-31814.04060859766
 30
0.0
 11
5083.576088412496
 21
-31822.09922048851
 31
0.0
  0
LINE
  5
123A6
330
1F07
100
AcDbEntity
  8
器具
100
AcDbLine
 10
5082.202272531922
 20
-31813.49974916134
 30
0.0
 11
5083.517382076997
 21
-31814.04060859766
 31
0.0
  0
LINE
  5
123A7
330
1F07
100
AcDbEntity
  8
器具
100
AcDbLine
 10
4677.699002712913
 20
-31819.0610014821
 30
0.0
 11
4677.757709048424
 21
-31827.11961337295
 31
0.0
  0
LINE
  5
123A8
330
1F07
100
AcDbEntity
  8
器具
100
AcDbLine
 10
4677.699002712913
 20
-31819.0610014821
 30
0.0
 11
4678.867471244426
 21
-31818.55122581401
 31
0.0
  0
LINE
  5
123A9
330
1F07
100
AcDbEntity
  8
器具
100
AcDbLine
 10
5110.147812823733
 20
-31825.09807793461
 30
0.0
 11
5110.206519159243
 21
-31833.15668982547
 31
0.0
  0
LINE
  5
123AA
330
1F07
100
AcDbEntity
  8
器具
100
AcDbLine
 10
5083.517382076997
 20
-31814.04060859766
 30
0.0
 11
5110.147812823733
 21
-31825.09807793461
 31
0.0
  0
ARC
  5
123AB
330
1F07
100
AcDbEntity
  8
器具
100
AcDbCircle
 10
5115.435968058656
 20
-31808.55639670347
 30
0.0
 40
17.36639869765305
100
AcDbArc
 50
252.2716139943411
 51
306.0556815144455
  0
LINE
  5
123AC
330
1F07
100
AcDbEntity
  8
器具
100
AcDbLine
 10
4651.581813391188
 20
-31830.77101340969
 30
0.0
 11
4651.640519726698
 21
-31838.82962530054
 31
0.0
  0
LINE
  5
123AD
330
1F07
100
AcDbEntity
  8
器具
100
AcDbLine
 10
4651.581813391188
 20
-31830.77101340969
 30
0.0
 11
4677.699002712913
 21
-31819.0610014821
 31
0.0
  0
ARC
  5
123AE
330
1F07
100
AcDbEntity
  8
器具
100
AcDbCircle
 10
4645.9418632274
 20
-31813.84695157001
 30
0.0
 40
17.83908369252113
100
AcDbArc
 50
235.5203662808484
 51
288.4306715080691
  0
LINE
  5
123AF
330
1F07
100
AcDbEntity
  8
器具
100
AcDbLine
 10
5060.261619103439
 20
-31831.69806910641
 30
0.0
 11
5060.320325438949
 21
-31839.75668099726
 31
0.0
  0
LINE
  5
123B0
330
1F07
100
AcDbEntity
  8
器具
100
AcDbLine
 10
4701.737671462089
 20
-31836.13338097817
 30
0.0
 11
4701.796377797725
 21
-31844.19199286902
 31
0.0
  0
LINE
  5
123B1
330
1F07
100
AcDbEntity
  8
器具
100
AcDbLine
 10
5083.533367395621
 20
-31845.03952989486
 30
0.0
 11
5083.592073731121
 21
-31853.09814178571
 31
0.0
  0
LINE
  5
123B2
330
1F07
100
AcDbEntity
  8
器具
100
AcDbLine
 10
5060.261619103439
 20
-31831.69806910641
 30
0.0
 11
5083.533367395621
 21
-31845.03952989486
 31
0.0
  0
LINE
  5
123B3
330
1F07
100
AcDbEntity
  8
器具
100
AcDbLine
 10
4679.080237943142
 20
-31850.0430332266
 30
0.0
 11
4679.138944278643
 21
-31858.10164511745
 31
0.0
  0
LINE
  5
123B4
330
1F07
100
AcDbEntity
  8
器具
100
AcDbLine
 10
4679.080237943142
 20
-31850.0430332266
 30
0.0
 11
4701.737671462089
 21
-31836.13338097817
 31
0.0
  0
ARC
  5
123B5
330
1F07
100
AcDbEntity
  8
器具
100
AcDbCircle
 10
5090.350536208743
 20
-31828.42224025124
 30
0.0
 40
17.96129465643778
100
AcDbArc
 50
247.6943284843896
 51
305.2623953474583
  0
LINE
  5
123B6
330
1F07
100
AcDbEntity
  8
器具
100
AcDbLine
 10
5032.546500597845
 20
-31848.10847865982
 30
0.0
 11
5032.597573442721
 21
-31855.11924216294
 31
0.0
  0
ARC
  5
123B7
330
1F07
100
AcDbEntity
  8
器具
100
AcDbCircle
 10
4671.877904442747
 20
-31833.27688127733
 30
0.0
 40
18.24766996205331
100
AcDbArc
 50
236.0607608505963
 51
293.2471905326364
  0
LINE
  5
123B8
330
1F07
100
AcDbEntity
  8
器具
100
AcDbLine
 10
4730.146076819381
 20
-31851.99262541408
 30
0.0
 11
4730.196106988109
 21
-31858.86026092322
 31
0.0
  0
LINE
  5
123B9
330
1F07
100
AcDbEntity
  8
器具
100
AcDbLine
 10
5051.8789052675
 20
-31862.35757146846
 30
0.0
 11
5051.937611603001
 21
-31870.41618335931
 31
0.0
  0
LINE
  5
123BA
330
1F07
100
AcDbEntity
  8
器具
100
AcDbLine
 10
5033.295079784931
 20
-31847.65875426555
 30
0.0
 11
5051.8789052675
 21
-31862.35757146846
 31
0.0
  0
LINE
  5
123BB
330
1F07
100
AcDbEntity
  8
器具
100
AcDbLine
 10
4711.497624145265
 20
-31866.56843979936
 30
0.0
 11
4711.556330480775
 21
-31874.62705169022
 31
0.0
  0
LINE
  5
123BC
330
1F07
100
AcDbEntity
  8
器具
100
AcDbLine
 10
4711.497624145265
 20
-31866.56843979936
 30
0.0
 11
4729.313884219006
 21
-31851.4982352437
 31
0.0
  0
LINE
  5
123BD
330
1F07
100
AcDbEntity
  8
器具
100
AcDbLine
 10
5001.049203952305
 20
-31862.14560815971
 30
0.0
 11
5001.090458584432
 21
-31867.80862674321
 31
0.0
  0
LINE
  5
123BE
330
1F07
100
AcDbEntity
  8
器具
100
AcDbLine
 10
4762.217515550056
 20
-31865.26070635763
 30
0.0
 11
4762.257601034
 21
-31870.76323609392
 31
0.0
  0
ARC
  5
123BF
330
1F07
100
AcDbEntity
  8
器具
100
AcDbCircle
 10
5060.220337352315
 20
-31846.77956480649
 30
0.0
 40
17.67070402601874
100
AcDbArc
 50
241.8326383965069
 51
305.8548792072905
  0
ARC
  5
123C0
330
1F07
100
AcDbEntity
  8
器具
100
AcDbCircle
 10
4702.774190599183
 20
-31851.19129179933
 30
0.0
 40
17.67922434512975
100
AcDbArc
 50
235.0024296096778
 51
299.5661786124419
  0
LINE
  5
123C1
330
1F07
100
AcDbEntity
  8
器具
100
AcDbLine
 10
4966.544370004934
 20
-31873.33654862482
 30
0.0
 11
4966.574790598298
 21
-31877.5123799755
 31
0.0
  0
LINE
  5
123C2
330
1F07
100
AcDbEntity
  8
器具
100
AcDbLine
 10
5015.963864352115
 20
-31876.62577499694
 30
0.0
 11
5016.022570687352
 21
-31884.68438688806
 31
0.0
  0
LINE
  5
123C3
330
1F07
100
AcDbEntity
  8
器具
100
AcDbLine
 10
5002.319565940092
 20
-31861.20545764643
 30
0.0
 11
5015.963864352115
 21
-31876.62577499694
 31
0.0
  0
LINE
  5
123C4
330
1F07
100
AcDbEntity
  8
器具
100
AcDbLine
 10
4797.162245784252
 20
-31875.60589420979
 30
0.0
 11
4797.191399545289
 21
-31879.60782762955
 31
0.0
  0
LINE
  5
123C5
330
1F07
100
AcDbEntity
  8
器具
100
AcDbLine
 10
4748.035748361888
 20
-31879.94032277295
 30
0.0
 11
4748.094454697262
 21
-31887.99893466485
 31
0.0
  0
LINE
  5
123C6
330
1F07
100
AcDbEntity
  8
器具
100
AcDbLine
 10
4748.035748361888
 20
-31879.94032277295
 30
0.0
 11
4760.897588592436
 21
-31864.28823558823
 31
0.0
  0
LWPOLYLINE
  5
123C7
330
1F07
100
AcDbEntity
  8
器具
100
AcDbPolyline
 90
        3
 70
   128
 43
0.0
 10
4829.673002218516
 20
-31879.36956442756
 10
4829.668315422622
 20
-31880.18488190258
 10
4829.612349106376
 20
-31896.29571086609
  0
LINE
  5
123C8
330
1F07
100
AcDbEntity
  8
器具
100
AcDbLine
 10
4929.88162228231
 20
-31881.40574195859
 30
0.0
 11
4929.900459781054
 21
-31883.99156325046
 31
0.0
  0
ARC
  5
123C9
330
1F07
100
AcDbEntity
  8
器具
100
AcDbCircle
 10
5025.65493465692
 20
-31861.90717199753
 30
0.0
 40
17.62254572669469
100
AcDbArc
 50
236.6381639321168
 51
305.2904144518751
  0
LINE
  5
123CA
330
1F07
100
AcDbEntity
  8
器具
100
AcDbLine
 10
4834.119812288502
 20
-31882.77345611135
 30
0.0
 11
4834.137316464434
 21
-31885.17625233228
 31
0.0
  0
ARC
  5
123CB
330
1F07
100
AcDbEntity
  8
器具
100
AcDbCircle
 10
4737.992292084466
 20
-31865.50176467327
 30
0.0
 40
17.58814868007676
100
AcDbArc
 50
235.5295289206706
 51
304.8224619651003
  0
LINE
  5
123CC
330
1F07
100
AcDbEntity
  8
器具
100
AcDbLine
 10
4976.672592151917
 20
-31887.4928099555
 30
0.0
 11
4976.731298487427
 21
-31895.55142184635
 31
0.0
  0
LINE
  5
123CD
330
1F07
100
AcDbEntity
  8
器具
100
AcDbLine
 10
4967.945487237823
 20
-31871.99254030708
 30
0.0
 11
4976.672592151917
 21
-31887.4928099555
 31
0.0
  0
LINE
  5
123CE
330
1F07
100
AcDbEntity
  8
器具
100
AcDbLine
 10
4787.794920711833
 20
-31889.82942201075
 30
0.0
 11
4787.853627047333
 21
-31897.88803390265
 31
0.0
  0
LINE
  5
123CF
330
1F07
100
AcDbEntity
  8
器具
100
AcDbLine
 10
4787.794920711833
 20
-31889.82942201075
 30
0.0
 11
4795.754102595487
 21
-31874.24803077139
 31
0.0
  0
LINE
  5
123D0
330
1F07
100
AcDbEntity
  8
器具
100
AcDbLine
 10
4891.963719309935
 20
-31886.15449784268
 30
0.0
 11
4891.970509872507
 21
-31887.08663757308
 31
0.0
  0
LINE
  5
123D1
330
1F07
100
AcDbEntity
  8
器具
100
AcDbLine
 10
4872.180197120399
 20
-31886.58690290191
 30
0.0
 11
4872.18562070052
 21
-31887.33139710562
 31
0.0
  0
LINE
  5
123D2
330
1F07
100
AcDbEntity
  8
器具
100
AcDbLine
 10
4934.972570188739
 20
-31894.6910938778
 30
0.0
 11
4935.031276524239
 21
-31902.74970576866
 31
0.0
  0
LINE
  5
123D3
330
1F07
100
AcDbEntity
  8
器具
100
AcDbLine
 10
4930.933413977508
 20
-31879.92403598936
 30
0.0
 11
4934.972570188739
 21
-31894.6910938778
 31
0.0
  0
LINE
  5
123D4
330
1F07
100
AcDbEntity
  8
器具
100
AcDbLine
 10
4829.796138418923
 20
-31895.99223506951
 30
0.0
 11
4829.854844754432
 21
-31904.05084696037
 31
0.0
  0
LINE
  5
123D5
330
1F07
100
AcDbEntity
  8
器具
100
AcDbLine
 10
4829.796138418923
 20
-31895.99223506951
 30
0.0
 11
4833.123392070495
 21
-31881.32767493903
 31
0.0
  0
ARC
  5
123D6
330
1F07
100
AcDbEntity
  8
器具
100
AcDbCircle
 10
4987.520450999347
 20
-31874.27226597964
 30
0.0
 40
17.1014275598855
100
AcDbArc
 50
230.6300792181279
 51
306.2303858083978
  0
ARC
  5
123D7
330
1F07
100
AcDbEntity
  8
器具
100
AcDbCircle
 10
4776.643020017253
 20
-31876.94450314491
 30
0.0
 40
17.04071663047441
100
AcDbArc
 50
234.4445090461366
 51
310.8761969060754
  0
ARC
  5
123D8
330
1F07
100
AcDbEntity
  8
器具
100
AcDbCircle
 10
4946.74137339534
 20
-31883.04394739721
 30
0.0
 40
16.55780027770172
100
AcDbArc
 50
224.7023245107719
 51
308.0917368488643
  0
ARC
  5
123D9
330
1F07
100
AcDbEntity
  8
器具
100
AcDbCircle
 10
4817.812249785694
 20
-31885.17796917551
 30
0.0
 40
16.14193091292949
100
AcDbArc
 50
231.3133284343046
 51
317.936893172067
  0
ARC
  5
123DA
330
1F07
100
AcDbEntity
  8
器具
100
AcDbCircle
 10
4904.252108551908
 20
-31888.33304125219
 30
0.0
 40
15.78744110534585
100
AcDbArc
 50
218.8562299093062
 51
312.4218589410763
  0
ARC
  5
123DB
330
1F07
100
AcDbEntity
  8
器具
100
AcDbCircle
 10
4860.551596936301
 20
-31888.64627137277
 30
0.0
 40
16.00024801238662
100
AcDbArc
 50
228.2824006284439
 51
319.5436439923741
  0
LWPOLYLINE
  5
123E9
330
1F07
100
AcDbEntity
  8
器具
100
AcDbPolyline
 90
       25
 70
   128
 43
0.0
 10
5006.068216000931
 20
-31380.28206111458
 10
5002.884061484834
 20
-31377.13831852096
 10
4995.101063010976
 20
-31370.54096483543
 10
4986.276192500613
 20
-31364.39864296244
 10
4976.487003233223
 20
-31358.76533184494
 10
4965.819522956493
 20
-31353.69053722545
 10
4954.367497870014
 20
-31349.21885658016
 10
4942.231568782511
 20
-31345.38958720044
 10
4929.51838667505
 20
-31342.23638084186
 10
4916.339675449026
 20
-31339.78694799698
 10
4902.811250092578
 20
-31338.06281436899
 10
4889.051998893911
 20
-31337.07913170715
 10
4875.182838647798
 20
-31336.84454464825
 10
4861.325652033012
 20
-31337.36111475169
 10
4847.602216503504
 20
-31338.62430238276
 10
4834.133134104279
 20
-31340.62300660204
 10
4821.036771615692
 20
-31343.33966272607
 10
4808.428220342588
 20
-31346.7503966808
 10
4796.418284686473
 20
-31350.82523481605
 10
4785.112508394005
 20
-31355.52836730575
 10
4774.610247033531
 20
-31360.81846285343
 10
4765.003794855583
 20
-31366.6490319099
 10
4756.377573707285
 20
-31372.9688352245
 10
4748.807391130332
 20
-31379.72233413649
 10
4746.423746233791
 20
-31382.17355006564
  0
LWPOLYLINE
  5
123ED
330
1F07
100
AcDbEntity
  8
器具
100
AcDbPolyline
 90
       35
 70
   128
 43
0.0
 10
4658.961044004079
 20
-31616.69564466319
 10
4673.691861522556
 20
-31608.5890080352
 10
4689.301286237719
 20
-31601.0516014827
 10
4705.722476196609
 20
-31594.11570133617
 10
4722.885113342782
 20
-31587.8110081857
 10
4740.715704629295
 20
-31582.16451969517
 10
4759.137896726498
 20
-31577.20041499497
 10
4778.072802979866
 20
-31572.93995114424
 10
4797.43934121394
 20
-31569.40137210208
 10
4817.154580938755
 20
-31566.59983060799
 10
4837.134098470876
 20
-31564.54732329307
 10
4857.29233844899
 20
-31563.25263930732
 10
4877.54298019499
 20
-31562.72132268843
 10
4897.799307351629
 20
-31562.95564861385
 10
4917.974579216674
 20
-31563.95461366513
 10
4937.982402178147
 20
-31565.71394011907
 10
4957.737099666712
 20
-31568.22609427213
 10
4977.154079035106
 20
-31571.48031869256
 10
4996.150193796162
 20
-31575.4626782925
 10
5014.644099670886
 20
-31580.1561199969
 10
5032.55660291445
 20
-31585.54054576718
 10
5049.810999438357
 20
-31591.59289866612
 10
5066.333403267556
 20
-31598.28726158911
 10
5082.05306293231
 20
-31605.5949682469
 10
5096.902664436684
 20
-31613.48472591748
 10
5110.818619507519
 20
-31621.92274944679
 10
5123.741337888088
 20
-31630.87290592398
 10
5135.615482515081
 20
-31640.29686940256
 10
5146.390206477786
 20
-31650.15428502682
 10
5156.019370754431
 20
-31660.40294182726
 10
5164.461741784806
 20
-31670.99895348356
 10
5171.681168040414
 20
-31681.89694624733
 10
5177.646734829504
 20
-31693.05025323947
 10
5182.332896679421
 20
-31704.41111428772
 10
5184.825127345867
 20
-31712.40262470954
  0
ARC
  5
123EE
330
1F07
100
AcDbEntity
  8
器具
100
AcDbCircle
 10
4736.396930617655
 20
-31770.69624269047
 30
0.0
 40
172.3731438727267
100
AcDbArc
 50
116.6945524093757
 51
162.3609410722963
  0
ARC
  5
123EF
330
1F07
100
AcDbEntity
  8
器具
100
AcDbCircle
 10
4215.895665778688
 20
-31541.610029392
 30
0.0
 40
746.2879611021888
100
AcDbArc
 50
6.648722182282045
 51
10.99122082366633
  0
ARC
  5
123F0
330
1F07
100
AcDbEntity
  8
器具
100
AcDbCircle
 10
5537.180035380061
 20
-31531.77710678012
 30
0.0
 40
744.6335782920216
100
AcDbArc
 50
169.8365610247815
 51
174.1254005875064
  0
ARC
  5
123F1
330
1F07
100
AcDbEntity
  8
器具
100
AcDbCircle
 10
4297.067469701818
 20
-31586.87763977479
 30
0.0
 40
710.5913425670435
100
AcDbArc
 50
1.91757668196539
 51
14.64226074375536
  0
ARC
  5
123F2
330
1F07
100
AcDbEntity
  8
器具
100
AcDbCircle
 10
5458.129240123232
 20
-31578.43376998729
 30
0.0
 40
710.4043577772328
100
AcDbArc
 50
166.188340496171
 51
178.9165659973557
  0
ARC
  5
123F3
330
1F07
100
AcDbEntity
  8
器具
100
AcDbCircle
 10
4464.895837792667
 20
-31601.66254691163
 30
0.0
 40
582.7156791389811
100
AcDbArc
 50
2.574891476282808
 51
18.33532421812462
  0
ARC
  5
123F4
330
1F07
100
AcDbEntity
  8
器具
100
AcDbCircle
 10
5290.633897382889
 20
-31595.66579594798
 30
0.0
 40
582.6246824996003
100
AcDbArc
 50
162.4959993828242
 51
178.259156929322
  0
ARC
  5
123F5
330
1F07
100
AcDbEntity
  8
器具
100
AcDbCircle
 10
4564.365816570863
 20
-31620.88044922505
 30
0.0
 40
519.0913864923933
100
AcDbArc
 50
3.321471772140664
 51
21.29602426973339
  0
ARC
  5
123F6
330
1F07
100
AcDbEntity
  8
器具
100
AcDbCircle
 10
5191.504838642321
 20
-31616.33428947974
 30
0.0
 40
519.0459870970056
100
AcDbArc
 50
159.5360820610435
 51
177.5124859267946
  0
ARC
  5
123F7
330
1F07
100
AcDbEntity
  8
器具
100
AcDbCircle
 10
4633.462180218219
 20
-31641.81973334236
 30
0.0
 40
480.7357411076243
100
AcDbArc
 50
3.994112746512311
 51
23.65846499753343
  0
ARC
  5
123F8
330
1F07
100
AcDbEntity
  8
器具
100
AcDbCircle
 10
5130.772473713847
 20
-31640.1312792814
 30
0.0
 40
488.828125158815
100
AcDbArc
 50
157.3391578929665
 51
176.6750146504223
  0
ARC
  5
123F9
330
1F07
100
AcDbEntity
  8
器具
100
AcDbCircle
 10
4878.911050123673
 20
-31751.11803306523
 30
0.0
 40
370.9919392814163
100
AcDbArc
 50
61.78436473977654
 51
118.9538939689511
  0
ARC
  5
123FA
330
1F07
100
AcDbEntity
  8
器具
100
AcDbCircle
 10
5008.136884899448
 20
-31542.43977276216
 30
0.0
 40
119.6053025964368
100
AcDbArc
 50
30.93641832637271
 51
39.56221899534224
  0
ARC
  5
123FB
330
1F07
100
AcDbEntity
  8
器具
100
AcDbCircle
 10
4745.804308412302
 20
-31543.71862022698
 30
0.0
 40
118.5012534148224
100
AcDbArc
 50
141.247988440285
 51
149.950809502278
  0
ARC
  5
123FC
330
1F07
100
AcDbEntity
  8
器具
100
AcDbCircle
 10
4665.124266054119
 20
-31668.37904962196
 30
0.0
 40
474.2124522008175
100
AcDbArc
 50
5.014972464996957
 51
25.04777116064254
  0
ARC
  5
123FD
330
1F07
100
AcDbEntity
  8
器具
100
AcDbCircle
 10
5096.447940563809
 20
-31666.55170758968
 30
0.0
 40
479.2327763754878
100
AcDbArc
 50
155.8919097080734
 51
175.7126845538276
  0
ARC
  5
123FE
330
1F07
100
AcDbEntity
  8
器具
100
AcDbCircle
 10
4675.915001598193
 20
-31697.32421226252
 30
0.0
 40
482.2201246759231
100
AcDbArc
 50
6.28657647128028
 51
25.72729949874344
  0
ARC
  5
123FF
330
1F07
100
AcDbEntity
  8
器具
100
AcDbCircle
 10
5083.465238517206
 20
-31695.02809413677
 30
0.0
 40
484.5891225139008
100
AcDbArc
 50
155.154791958345
 51
174.4989939644899
  0
ARC
  5
12400
330
1F07
100
AcDbEntity
  8
器具
100
AcDbCircle
 10
4666.261888251695
 20
-31728.29055883689
 30
0.0
 40
503.9117114101808
100
AcDbArc
 50
8.142852710320731
 51
13.98799799112033
  0
ARC
  5
12401
330
1F07
100
AcDbEntity
  8
器具
100
AcDbCircle
 10
5091.271601716025
 20
-31725.22434067543
 30
0.0
 40
503.9272891062284
100
AcDbArc
 50
166.8610401095325
 51
172.6896227056777
  0
LINE
  5
12402
330
1F07
100
AcDbEntity
  8
器具
100
AcDbLine
 10
5144.06794902487
 20
-31800.67300757143
 30
0.0
 11
5144.002498135318
 21
-31799.56039298274
 31
0.0
  0
LINE
  5
12403
330
1F07
100
AcDbEntity
  8
器具
100
AcDbLine
 10
5120.699614069528
 20
-31825.06327920396
 30
0.0
 11
5120.4372390727
 21
-31820.27326924997
 31
0.0
  0
LINE
  5
12404
330
1F07
100
AcDbEntity
  8
器具
100
AcDbLine
 10
4638.374146982665
 20
-31826.96582766102
 30
0.0
 11
4638.261177216701
 21
-31830.04008999886
 31
0.0
  0
LINE
  5
12405
330
1F07
100
AcDbEntity
  8
器具
100
AcDbLine
 10
5091.321926836455
 20
-31846.23740775176
 30
0.0
 11
5090.953847616044
 21
-31838.84502361864
 31
0.0
  0
LINE
  5
12406
330
1F07
100
AcDbEntity
  8
器具
100
AcDbLine
 10
4668.134270498294
 20
-31845.31189433832
 30
0.0
 11
4667.949835021928
 21
-31851.09251540442
 31
0.0
  0
LINE
  5
12407
330
1F07
100
AcDbEntity
  8
器具
100
AcDbLine
 10
5056.684309692673
 20
-31863.96340354113
 30
0.0
 11
5056.209344164184
 21
-31853.26771117584
 31
0.0
  0
LINE
  5
12408
330
1F07
100
AcDbEntity
  8
器具
100
AcDbLine
 10
4703.092580440451
 20
-31859.58343798947
 30
0.0
 11
4702.84908973632
 21
-31868.69358490463
 31
0.0
  0
LINE
  5
12409
330
1F07
100
AcDbEntity
  8
器具
100
AcDbLine
 10
5017.645741059393
 20
-31877.65035150462
 30
0.0
 11
5017.054204573376
 21
-31862.26399780938
 31
0.0
  0
LINE
  5
1240A
330
1F07
100
AcDbEntity
  8
器具
100
AcDbLine
 10
4742.382580738832
 20
-31868.54729331087
 30
0.0
 11
4742.089177748535
 21
-31882.51123642831
 31
0.0
  0
LWPOLYLINE
  5
1240B
330
1F07
100
AcDbEntity
  8
器具
100
AcDbPolyline
 90
        3
 70
   128
 43
0.0
 10
4975.126600671797
 20
-31884.74696410506
 10
4974.764427843695
 20
-31872.5251802032
 10
4974.680604312574
 20
-31870.02641597634
  0
LWPOLYLINE
  5
1240C
330
1F07
100
AcDbEntity
  8
器具
100
AcDbPolyline
 90
        3
 70
   128
 43
0.0
 10
4784.962264731298
 20
-31872.7736874912
 10
4784.941003535096
 20
-31873.91693554937
 10
4784.696878002392
 20
-31892.0823019199
  0
LINE
  5
12416
330
1F07
100
AcDbEntity
  8
器具
  6
Continuous
100
AcDbLine
 10
5272.332530504623
 20
-29315.64996739164
 30
0.0
 11
4500.489628227881
 21
-29552.6543899594
 31
0.0
  0
LINE
  5
12417
330
1F07
100
AcDbEntity
  8
器具
  6
Continuous
100
AcDbLine
 10
5272.332530504623
 20
-29385.35716548808
 30
0.0
 11
4500.489628227881
 21
-29622.36158805584
 31
0.0
  0
LINE
  5
12418
330
1F07
100
AcDbEntity
  8
器具
  6
Continuous
100
AcDbLine
 10
5272.332530504623
 20
-29385.35716548808
 30
0.0
 11
4500.489628227881
 21
-29622.36158805584
 31
0.0
  0
ELLIPSE
  5
1241E
330
1F07
100
AcDbEntity
  8
器具
  6
Continuous
370
     0
100
AcDbEllipse
 10
4879.731620643983
 20
-31379.33723843811
 30
0.0
 11
-267.1980508177477
 21
0.0
 31
0.0
210
0.0
220
0.0
230
1.0
 40
0.2982309177215146
 41
2.371694136013442
 42
7.040342444645809
  0
MTEXT
  5
12421
330
1F07
100
AcDbEntity
  8
記号
 62
     2
100
AcDbMText
 10
6994.674440567826
 20
-27453.7413357439
 30
0.0
 40
250.0
 41
2900.001845935049
 71
     5
 72
     5
  1
Re:ray
  7
スタイル1
 73
     1
 44
1.0
1001
ACAD
1000
MTEXTBEGIN
1070
    73
1070
     1
1070
    44
1040
1.0
1070
    74
1070
     0
1000
MTEXTEND
  0
MTEXT
  5
12422
330
1F07
100
AcDbEntity
  8
記号
 62
     2
100
AcDbMText
 10
1749.985198196155
 20
-32694.04142488969
 30
0.0
 40
250.0
 41
6533.332686219465
 71
     4
 72
     5
  1
幅:65　長さ:1500(mm)
  7
スタイル1
 73
     1
 44
1.0
1001
ACAD
1000
MTEXTBEGIN
1070
    73
1070
     1
1070
    44
1040
1.0
1070
    74
1070
     0
1000
MTEXTEND
  0
TEXT
  5
12423
330
1F07
100
AcDbEntity
  8
0
 62
     7
100
AcDbText
 10
2907.19556695631
 20
-26437.46617624883
 30
0.0
 40
299.9999947731441
  1
BCLL-10090W
  7
WMF-ＭＳ Ｐゴシック0
100
AcDbText
  0
TEXT
  5
12424
330
1F07
100
AcDbEntity
  8
0
 62
     7
100
AcDbText
 10
2907.19556695631
 20
-25947.0815694081
 30
0.0
 40
299.9999947731441
  1
LEDﾍﾟﾝﾀﾞﾝﾄﾗｲﾄ
  7
WMF-ＭＳ Ｐゴシック0
100
AcDbText
  0
ENDSEC
  0
SECTION
  2
OBJECTS
  0
DICTIONARY
  5
1EF5
330
0
100
AcDbDictionary
281
     1
  3
ACAD_COLOR
350
8C47
  3
ACAD_GROUP
350
1EF6
  3
ACAD_LAYOUT
350
1F02
  3
ACAD_MATERIAL
350
8C46
  3
ACAD_MLINESTYLE
350
1EFF
  3
ACAD_PLOTSETTINGS
350
1F01
  3
ACAD_PLOTSTYLENAME
350
1EF7
  3
ACAD_TABLESTYLE
350
8C48
  3
ACDBHEADERROUNDTRIPXREC
350
1521C
  3
AcDbVariableDictionary
350
4454
  0
DICTIONARY
  5
9A3A
330
1EEB
100
AcDbDictionary
280
     1
281
     1
  3
ACAD_LAYERFILTERS
360
A52F
  3
ACAD_LAYERSTATES
360
9A3B
  0
DICTIONARY
  5
980C
330
1F07
100
AcDbDictionary
280
     1
281
     1
  3
ACAD_SORTENTS
360
980D
  0
DICTIONARY
  5
8C47
102
{ACAD_REACTORS
330
1EF5
102
}
330
1EF5
100
AcDbDictionary
281
     1
  0
DICTIONARY
  5
1EF6
102
{ACAD_REACTORS
330
1EF5
102
}
330
1EF5
100
AcDbDictionary
281
     1
  0
DICTIONARY
  5
1F02
102
{ACAD_REACTORS
330
1EF5
102
}
330
1EF5
100
AcDbDictionary
281
     1
  3
Model
350
1F0A
  3
ﾚｲｱｳﾄ1
350
1F06
  0
DICTIONARY
  5
8C46
102
{ACAD_REACTORS
330
1EF5
102
}
330
1EF5
100
AcDbDictionary
281
     1
  0
DICTIONARY
  5
1EFF
102
{ACAD_REACTORS
330
1EF5
102
}
330
1EF5
100
AcDbDictionary
281
     1
  3
Standard
350
1F00
  0
DICTIONARY
  5
1F01
102
{ACAD_REACTORS
330
1EF5
102
}
330
1EF5
100
AcDbDictionary
281
     1
  0
ACDBDICTIONARYWDFLT
  5
1EF7
102
{ACAD_REACTORS
330
1EF5
102
}
330
1EF5
100
AcDbDictionary
281
     1
  3
Normal
350
1EF8
100
AcDbDictionaryWithDefault
340
1EF8
  0
DICTIONARY
  5
8C48
102
{ACAD_REACTORS
330
1EF5
102
}
330
1EF5
100
AcDbDictionary
281
     1
  3
Standard
350
8C49
  0
DICTIONARY
  5
1521C
102
{ACAD_REACTORS
330
1EF5
102
}
330
1EF5
100
AcDbDictionary
281
     1
  0
DICTIONARY
  5
4454
102
{ACAD_REACTORS
330
1EF5
102
}
330
1EF5
100
AcDbDictionary
281
     1
  3
CTABLESTYLE
350
8CAE
  3
DIMASSOC
350
8CAF
  3
PROJECTNAME
350
8CB0
  3
SORTENTS
350
4455
  0
DICTIONARY
  5
A52F
102
{ACAD_REACTORS
330
9A3A
102
}
330
9A3A
100
AcDbDictionary
280
     1
281
     1
  0
DICTIONARY
  5
9A3B
102
{ACAD_REACTORS
330
9A3A
102
}
330
9A3A
100
AcDbDictionary
281
     1
  0
SORTENTSTABLE
  5
980D
102
{ACAD_REACTORS
330
980C
102
}
330
980C
100
AcDbSortentsTable
330
1F07
331
1221F
  5
1222A
331
121ED
  5
121F8
331
12206
  5
12211
331
12230
  5
1223B
331
12249
  5
12254
331
122A0
  5
122AB
331
1235F
  5
1236A
331
1232D
  5
12338
331
12346
  5
12351
331
12378
  5
12383
331
1241E
  5
12167
331
123F4
  5
123FF
331
1218A
  5
121B3
331
12171
  5
1217C
331
121B3
  5
121BE
331
1228B
  5
12296
331
12272
  5
1227D
331
12240
  5
1224B
331
12259
  5
12264
331
122C9
  5
122D4
331
122B0
  5
122BB
331
122E2
  5
122ED
331
12399
  5
123A4
331
1236F
  5
1237A
331
12356
  5
12361
331
12388
  5
12393
331
123B2
  5
123BD
331
121C3
  5
121CE
331
121DC
  5
121E7
331
121F5
  5
12200
331
12282
  5
1228D
331
1229B
  5
122A6
331
1231C
  5
12327
331
122F2
  5
122FD
331
122D9
  5
122E4
331
1230B
  5
12316
331
123C2
  5
123CD
331
123A9
  5
123B4
331
123DB
  5
123F6
331
123FC
  5
12407
331
1221E
  5
12229
331
121EC
  5
121F7
331
12205
  5
12210
331
1222F
  5
1223A
331
12248
  5
12253
331
1232C
  5
12337
331
12345
  5
12350
331
1235E
  5
12369
331
123F3
  5
123FE
331
1240C
  5
12456
331
12189
  5
121B2
331
12157
  5
12166
331
12170
  5
1217B
331
121B2
  5
121BD
331
1228A
  5
12295
331
12271
  5
1227C
331
1223F
  5
1224A
331
12258
  5
12263
331
122AF
  5
122BA
331
122C8
  5
122D3
331
122E1
  5
122EC
331
12398
  5
123A3
331
12355
  5
12360
331
1236E
  5
12379
331
12387
  5
12392
331
123B1
  5
123BC
331
121C2
  5
121CD
331
121DB
  5
121E6
331
121F4
  5
121FF
331
12281
  5
1228C
331
1229A
  5
122A5
331
1230A
  5
12315
331
122BF
  5
122CA
331
122D8
  5
122E3
331
122F1
  5
122FC
331
1231B
  5
12326
331
123FB
  5
12406
331
123A8
  5
123B3
331
123C1
  5
123CC
331
123DA
  5
123F5
331
101E4
  5
101F2
331
1221D
  5
12228
331
121EB
  5
121F6
331
12204
  5
1220F
331
1222E
  5
12239
331
1235D
  5
12368
331
1232B
  5
12336
331
12344
  5
1234F
331
123F2
  5
123FD
331
1240B
  5
12424
331
12188
  5
121B1
331
12156
  5
12165
331
1216F
  5
1217A
331
121B1
  5
121BC
331
12289
  5
12294
331
1223E
  5
12249
331
12257
  5
12262
331
12270
  5
1227B
331
122AE
  5
122B9
331
122C7
  5
122D2
331
122E0
  5
122EB
331
12386
  5
12391
331
12354
  5
1235F
331
1236D
  5
12378
331
12397
  5
123A2
331
123B0
  5
123BB
331
121F3
  5
121FE
331
121C1
  5
121CC
331
1217F
  5
1218A
331
121DA
  5
121E5
331
12267
  5
12272
331
12280
  5
1228B
331
12299
  5
122A4
331
12309
  5
12314
331
122BE
  5
122C9
331
122D7
  5
122E2
331
122F0
  5
122FB
331
1231A
  5
12325
331
123FA
  5
12405
331
123C0
  5
123CB
331
123A7
  5
123B2
331
123D9
  5
123F4
331
101E3
  5
101EE
331
1221C
  5
12227
331
121EA
  5
121F5
331
12203
  5
1220E
331
1222D
  5
12238
331
1235C
  5
12367
331
1232A
  5
12335
331
12343
  5
1234E
331
123F1
  5
123FC
331
1240A
  5
12423
331
12187
  5
121B0
331
1216E
  5
12179
331
12155
  5
12164
331
121B0
  5
121BB
331
12288
  5
12293
331
1226F
  5
1227A
331
1223D
  5
12248
331
12256
  5
12261
331
122AD
  5
122B8
331
122C6
  5
122D1
331
12385
  5
12390
331
12353
  5
1235E
331
1236C
  5
12377
331
12396
  5
123A1
331
121F2
  5
121FD
331
121C0
  5
121CB
331
1217E
  5
12189
331
121D9
  5
121E4
331
12266
  5
12271
331
1227F
  5
1228A
331
12298
  5
122A3
331
12308
  5
12313
331
122BD
  5
122C8
331
122D6
  5
122E1
331
122EF
  5
122FA
331
12319
  5
12324
331
123F9
  5
12404
331
123BF
  5
123CA
331
123A6
  5
123B1
331
123D8
  5
123F3
331
101E2
  5
101EA
331
1221B
  5
12226
331
121E9
  5
121F4
331
12202
  5
1220D
331
1222C
  5
12237
331
1235B
  5
12366
331
12329
  5
12334
331
122FF
  5
1230A
331
12342
  5
1234D
331
123CF
  5
123DA
331
123F0
  5
123FB
331
12409
  5
12422
331
12186
  5
121AE
331
1216D
  5
12178
331
12154
  5
1215F
331
1226E
  5
12279
331
1223C
  5
12247
331
12255
  5
12260
331
122AC
  5
122B7
331
122C5
  5
122D0
331
12384
  5
1238F
331
12352
  5
1235D
331
1236B
  5
12376
331
12395
  5
123A0
331
121F1
  5
121FC
331
121D8
  5
121E3
331
121BF
  5
121CA
331
1217D
  5
12188
331
121AE
  5
121BA
331
12297
  5
122A2
331
12265
  5
12270
331
1227E
  5
12289
331
12307
  5
12312
331
122BC
  5
122C7
331
122D5
  5
122E0
331
122EE
  5
122F9
331
12318
  5
12323
331
123F8
  5
12403
331
123BE
  5
123C9
331
123A5
  5
123B0
331
123D7
  5
123F2
331
1221A
  5
12225
331
121CF
  5
121DA
331
121E8
  5
121F3
331
12201
  5
1220C
331
1222B
  5
12236
331
12328
  5
12333
331
122FE
  5
12309
331
12317
  5
12322
331
12341
  5
1234C
331
1235A
  5
12365
331
123CE
  5
123D9
331
123EF
  5
123FA
331
12408
  5
12421
331
12185
  5
121AD
331
1216C
  5
12177
331
12153
  5
1215E
331
1226D
  5
12278
331
1223B
  5
12246
331
12254
  5
1225F
331
122C4
  5
122CF
331
122AB
  5
122B6
331
12383
  5
1238E
331
12351
  5
1235C
331
1236A
  5
12375
331
12394
  5
1239F
331
121D7
  5
121E2
331
121BE
  5
121C9
331
1217C
  5
12187
331
121AD
  5
121B9
331
121F0
  5
121FB
331
1227D
  5
12288
331
12264
  5
1226F
331
12296
  5
122A1
331
12306
  5
12311
331
122BB
  5
122C6
331
122D4
  5
122DF
331
122ED
  5
122F8
331
123BD
  5
123C8
331
123A4
  5
123AF
331
123D6
  5
123F1
331
12200
  5
1220B
331
121CE
  5
121D9
331
121E7
  5
121F2
331
12219
  5
12224
331
1222A
  5
12235
331
12359
  5
12364
331
12327
  5
12332
331
122FD
  5
12308
331
12316
  5
12321
331
12340
  5
1234B
331
12407
  5
1241F
331
123CD
  5
123D8
331
123EE
  5
123F9
331
12418
  5
1245A
331
12184
  5
121AC
331
12152
  5
1215D
331
1216B
  5
12176
331
1223A
  5
12245
331
12253
  5
1225E
331
1226C
  5
12277
331
122C3
  5
122CE
331
122AA
  5
122B5
331
12382
  5
1238D
331
12350
  5
1235B
331
12337
  5
12342
331
12369
  5
12374
331
12393
  5
1239E
331
121D6
  5
121E1
331
121BD
  5
121C8
331
1217B
  5
12186
331
121AC
  5
121B8
331
1227C
  5
12287
331
12263
  5
1226E
331
12295
  5
122A0
331
12305
  5
12310
331
122BA
  5
122C5
331
122D3
  5
122DE
331
122EC
  5
122F7
331
123BC
  5
123C7
331
123A3
  5
123AE
331
123D5
  5
123F0
331
12229
  5
12234
331
121E6
  5
121F1
331
121CD
  5
121D8
331
121FF
  5
1220A
331
12218
  5
12223
331
12358
  5
12363
331
12326
  5
12331
331
122FC
  5
12307
331
12315
  5
12320
331
1233F
  5
1234A
331
12406
  5
1241E
331
123CC
  5
123D7
331
123ED
  5
123F8
331
12417
  5
12459
331
12183
  5
121AB
331
1216A
  5
12175
331
12151
  5
1215C
331
1226B
  5
12276
331
12239
  5
12244
331
1220F
  5
1221A
331
12252
  5
1225D
331
122C2
  5
122CD
331
122A9
  5
122B4
331
12381
  5
1238C
331
12336
  5
12341
331
1234F
  5
1235A
331
12368
  5
12373
331
12392
  5
1239D
331
121BC
  5
121C7
331
1217A
  5
12185
331
121AB
  5
121B7
331
121D5
  5
121E0
331
1227B
  5
12286
331
12262
  5
1226D
331
12294
  5
1229F
331
12304
  5
1230F
331
122B9
  5
122C4
331
122D2
  5
122DD
331
122EB
  5
122F6
331
123A2
  5
123AD
331
123BB
  5
123C6
331
123D4
  5
123EF
331
12228
  5
12233
331
121E5
  5
121F0
331
121CC
  5
121D7
331
121FE
  5
12209
331
12217
  5
12222
331
12325
  5
12330
331
122FB
  5
12306
331
12314
  5
1231F
331
1233E
  5
12349
331
12405
  5
1241B
331
123CB
  5
123D6
331
12416
  5
12457
331
12169
  5
12174
331
12150
  5
1215A
331
12182
  5
1218D
331
1226A
  5
12275
331
12238
  5
12243
331
1220E
  5
12219
331
12227
  5
12232
331
12251
  5
1225C
331
122A8
  5
122B3
331
122C1
  5
122CC
331
12380
  5
1238B
331
12367
  5
12372
331
12335
  5
12340
331
1234E
  5
12359
331
12391
  5
1239C
331
121D4
  5
121DF
331
121BB
  5
121C6
331
12179
  5
12184
331
1227A
  5
12285
331
12261
  5
1226C
331
12293
  5
1229E
331
12303
  5
1230E
331
122B8
  5
122C3
331
122D1
  5
122DC
331
122EA
  5
122F5
331
123A1
  5
123AC
331
12377
  5
12382
331
123BA
  5
123C5
331
123D3
  5
123EE
331
121E4
  5
121EF
331
121CB
  5
121D6
331
121FD
  5
12208
331
12216
  5
12221
331
12324
  5
1232F
331
122FA
  5
12305
331
12313
  5
1231E
331
1233D
  5
12348
331
12404
  5
12418
331
123CA
  5
123D5
331
10160
  5
10168
331
12168
  5
12173
331
1214F
  5
12157
331
12181
  5
1218C
331
12269
  5
12274
331
12237
  5
12242
331
1220D
  5
12218
331
12226
  5
12231
331
12250
  5
1225B
331
122C0
  5
122CB
331
122A7
  5
122B2
331
1237F
  5
1238A
331
12366
  5
12371
331
12334
  5
1233F
331
1234D
  5
12358
331
12390
  5
1239B
331
121D3
  5
121DE
331
121BA
  5
121C5
331
12178
  5
12183
331
1215F
  5
1216E
331
12279
  5
12284
331
12247
  5
12252
331
12260
  5
1226B
331
12292
  5
1229D
331
12302
  5
1230D
331
122B7
  5
122C2
331
122D0
  5
122DB
331
122E9
  5
122F4
331
12376
  5
12381
331
1238F
  5
1239A
331
123A0
  5
123AB
331
123B9
  5
123C4
331
123D2
  5
123ED
331
121E3
  5
121EE
331
121CA
  5
121D5
331
121FC
  5
12207
331
12215
  5
12220
331
12323
  5
1232E
331
12312
  5
1231D
331
122F9
  5
12304
331
1233C
  5
12347
331
123C9
  5
123D4
331
12403
  5
12417
331
1015F
  5
10167
331
1214E
  5
12156
331
12167
  5
12172
331
12180
  5
1218B
331
12236
  5
12241
331
12225
  5
12230
331
1220C
  5
12217
331
1224F
  5
1225A
331
12268
  5
12273
331
122A6
  5
122B1
331
12365
  5
12370
331
1234C
  5
12357
331
12333
  5
1233E
331
1237E
  5
12389
331
12424
  5
12460
331
121D2
  5
121DD
331
121B9
  5
121C4
331
12177
  5
12182
331
1215E
  5
1216D
331
1225F
  5
1226A
331
12246
  5
12251
331
12278
  5
12283
331
12291
  5
1229C
331
122CF
  5
122DA
331
122B6
  5
122C1
331
122E8
  5
122F3
331
12301
  5
1230C
331
1239F
  5
123AA
331
12375
  5
12380
331
1238E
  5
12399
331
123B8
  5
123C3
331
123D1
  5
123E9
331
121E2
  5
121ED
331
121C9
  5
121D4
331
121FB
  5
12206
331
12214
  5
1221F
331
12322
  5
1232D
331
12311
  5
1231C
331
122F8
  5
12303
331
122DF
  5
122EA
331
1233B
  5
12346
331
123E9
  5
123F7
331
123AF
  5
123BA
331
123C8
  5
123D3
331
12402
  5
12416
331
1015E
  5
10166
331
12166
  5
12171
331
1214D
  5
12155
331
12235
  5
12240
331
12224
  5
1222F
331
1220B
  5
12216
331
1224E
  5
12259
331
122A5
  5
122B0
331
12364
  5
1236F
331
1234B
  5
12356
331
12332
  5
1233D
331
1237D
  5
12388
331
12423
  5
1245F
331
121B8
  5
121C3
331
12176
  5
12181
331
1215D
  5
1216C
331
121D1
  5
121DC
331
1225E
  5
12269
331
12245
  5
12250
331
12277
  5
12282
331
12290
  5
1229B
331
122CE
  5
122D9
331
122B5
  5
122C0
331
122E7
  5
122F2
331
12300
  5
1230B
331
1239E
  5
123A9
331
12374
  5
1237F
331
1238D
  5
12398
331
123B7
  5
123C2
331
123D0
  5
123DB
331
121E1
  5
121EC
331
121C8
  5
121D3
331
121FA
  5
12205
331
12213
  5
1221E
331
12287
  5
12292
331
12321
  5
1232C
331
12310
  5
1231B
331
122F7
  5
12302
331
122DE
  5
122E9
331
1233A
  5
12345
331
123C7
  5
123D2
331
123AE
  5
123B9
331
12401
  5
1240C
331
12165
  5
12170
331
1214C
  5
12154
331
12234
  5
1223F
331
12223
  5
1222E
331
1220A
  5
12215
331
1224D
  5
12258
331
122A4
  5
122AF
331
12363
  5
1236E
331
1234A
  5
12355
331
12331
  5
1233C
331
1237C
  5
12387
331
12422
  5
1245E
331
121D0
  5
121DB
331
121B7
  5
121C2
331
12175
  5
12180
331
1215C
  5
1216B
331
1225D
  5
12268
331
12244
  5
1224F
331
12276
  5
12281
331
1228F
  5
1229A
331
122CD
  5
122D8
331
122B4
  5
122BF
331
122E6
  5
122F1
331
1239D
  5
123A8
331
12373
  5
1237E
331
1238C
  5
12397
331
123B6
  5
123C1
331
101D9
  5
101E7
331
121C7
  5
121D2
331
121E0
  5
121EB
331
121F9
  5
12204
331
12212
  5
1221D
331
12286
  5
12291
331
1229F
  5
122AA
331
12320
  5
1232B
331
122F6
  5
12301
331
122DD
  5
122E8
331
1230F
  5
1231A
331
12339
  5
12344
331
123C6
  5
123D1
331
123AD
  5
123B8
331
12400
  5
1240B
331
12164
  5
1216F
331
1214B
  5
12153
331
12233
  5
1223E
331
12209
  5
12214
331
12222
  5
1222D
331
1224C
  5
12257
331
122A3
  5
122AE
331
12362
  5
1236D
331
12349
  5
12354
331
12330
  5
1233B
331
1237B
  5
12386
331
12421
  5
1245C
331
123F7
  5
12402
331
121B6
  5
121C1
331
12174
  5
1217F
331
1215B
  5
1216A
331
1218D
  5
121B6
331
1225C
  5
12267
331
12243
  5
1224E
331
12275
  5
12280
331
1228E
  5
12299
331
122B3
  5
122BE
331
122CC
  5
122D7
331
122E5
  5
122F0
331
1239C
  5
123A7
331
12372
  5
1237D
331
1238B
  5
12396
331
123B5
  5
123C0
331
10127
  5
1013B
331
121DF
  5
121EA
331
121C6
  5
121D1
331
121F8
  5
12203
331
12211
  5
1221C
331
12285
  5
12290
331
1229E
  5
122A9
331
1231F
  5
1232A
331
122F5
  5
12300
331
122DC
  5
122E7
331
1230E
  5
12319
331
12338
  5
12343
331
123C5
  5
123D0
331
123AC
  5
123B7
331
123FF
  5
1240A
331
1214A
  5
12152
331
12232
  5
1223D
331
12221
  5
1222C
331
121EF
  5
121FA
331
12208
  5
12213
331
1224B
  5
12256
331
122A2
  5
122AD
331
12361
  5
1236C
331
1232F
  5
1233A
331
12348
  5
12353
331
1237A
  5
12385
331
123F6
  5
12401
331
1218C
  5
121B5
331
12173
  5
1217E
331
1215A
  5
12169
331
121B5
  5
121C0
331
1228D
  5
12298
331
12242
  5
1224D
331
1225B
  5
12266
331
12274
  5
1227F
331
122CB
  5
122D6
331
122B2
  5
122BD
331
122E4
  5
122EF
331
1239B
  5
123A6
331
12371
  5
1237C
331
1238A
  5
12395
331
123B4
  5
123BF
331
12210
  5
1221B
331
121DE
  5
121E9
331
121C5
  5
121D0
331
121F7
  5
12202
331
12284
  5
1228F
331
1229D
  5
122A8
331
1231E
  5
12329
331
122F4
  5
122FF
331
122DB
  5
122E6
331
1230D
  5
12318
331
123C4
  5
123CF
331
123AB
  5
123B6
331
123FE
  5
12409
331
12149
  5
12151
331
12231
  5
1223C
331
12220
  5
1222B
331
121EE
  5
121F9
331
12207
  5
12212
331
1224A
  5
12255
331
122A1
  5
122AC
331
12360
  5
1236B
331
1232E
  5
12339
331
12347
  5
12352
331
12379
  5
12384
331
123F5
  5
12400
331
1218B
  5
121B4
331
12159
  5
12168
331
12172
  5
1217D
331
121B4
  5
121BF
331
1228C
  5
12297
331
12273
  5
1227E
331
12241
  5
1224C
331
1225A
  5
12265
331
122CA
  5
122D5
331
122B1
  5
122BC
331
122E3
  5
122EE
331
1239A
  5
123A5
331
12370
  5
1237B
331
12357
  5
12362
331
12389
  5
12394
331
123B3
  5
123BE
331
121DD
  5
121E8
331
121C4
  5
121CF
331
121F6
  5
12201
331
12283
  5
1228E
331
1229C
  5
122A7
331
1231D
  5
12328
331
122F3
  5
122FE
331
122DA
  5
122E5
331
1230C
  5
12317
331
123C3
  5
123CE
331
123AA
  5
123B5
331
123FD
  5
12408
  0
LAYOUT
  5
1F0A
102
{ACAD_XDICTIONARY
360
1521F
102
}
102
{ACAD_REACTORS
330
1F02
102
}
330
1F02
100
AcDbPlotSettings
  1

  2
HP DesignJet 430 (D / A1)
  4
User270
  6

 40
4.995333194732666
 41
16.93330574035644
 42
4.995330810546875
 43
16.933349609375
 44
419.9466552734374
 45
593.8519897460937
 46
0.0
 47
0.0
 48
59336.11708285688
 49
-20537.1530523113
140
115469.3951683314
141
19749.53857783539
142
1.0
143
100.0
 70
 11936
 72
     1
 73
     1
 74
     4
  7

 75
     0
147
0.01
148
-59336.11708285688
149
20537.1530523113
100
AcDbLayout
  1
Model
 70
     1
 71
     0
 10
0.0
 20
0.0
 11
12.0
 21
9.0
 12
0.0
 22
0.0
 32
0.0
 14
0.0
 24
0.0
 34
0.0
 15
0.0
 25
0.0
 35
0.0
146
0.0
 13
0.0
 23
0.0
 33
0.0
 16
1.0
 26
0.0
 36
0.0
 17
0.0
 27
1.0
 37
0.0
 76
     0
330
1F07
  0
LAYOUT
  5
1F06
102
{ACAD_XDICTIONARY
360
1521D
102
}
102
{ACAD_REACTORS
330
1F02
102
}
330
1F02
100
AcDbPlotSettings
  1

  2
HP DesignJet 430 (D / A1)
  4

  6

 40
0.0
 41
0.0
 42
0.0
 43
0.0
 44
0.0
 45
0.0
 46
0.0
 47
0.0
 48
0.0
 49
0.0
140
0.0
141
0.0
142
1.0
143
1.0
 70
   688
 72
     0
 73
     0
 74
     5
  7

 75
    16
147
1.0
148
0.0
149
0.0
100
AcDbLayout
  1
ﾚｲｱｳﾄ1
 70
     0
 71
     1
 10
0.0
 20
0.0
 11
12.0
 21
9.0
 12
0.0
 22
0.0
 32
0.0
 14
1.000000000000000E+20
 24
1.000000000000000E+20
 34
1.000000000000000E+20
 15
-1.000000000000000E+20
 25
-1.000000000000000E+20
 35
-1.000000000000000E+20
146
0.0
 13
0.0
 23
0.0
 33
0.0
 16
1.0
 26
0.0
 36
0.0
 17
0.0
 27
1.0
 37
0.0
 76
     0
330
1F03
  0
MLINESTYLE
  5
1F00
102
{ACAD_REACTORS
330
1EFF
102
}
330
1EFF
100
AcDbMlineStyle
  2
STANDARD
 70
     0
  3

 62
   256
 51
90.0
 52
90.0
 71
     2
 49
0.5
 62
   256
  6
BYLAYER
 49
-0.5
 62
   256
  6
BYLAYER
  0
ACDBPLACEHOLDER
  5
1EF8
102
{ACAD_REACTORS
330
1EF7
102
}
330
1EF7
  0
TABLESTYLE
  5
8C49
102
{ACAD_REACTORS
330
8C48
102
}
330
8C48
100
AcDbTableStyle
  3
Standard
 70
     0
 71
     0
 40
0.06
 41
0.06
280
     0
281
     0
  7
STANDARD
140
0.18
170
     2
 62
     0
 63
     7
283
     0
274
    -2
284
     1
 64
     0
275
    -2
285
     1
 65
     0
276
    -2
286
     1
 66
     0
277
    -2
287
     1
 67
     0
278
    -2
288
     1
 68
     0
279
    -2
289
     1
 69
     0
  7
STANDARD
140
0.25
170
     5
 62
     0
 63
     7
283
     0
274
    -2
284
     1
 64
     0
275
    -2
285
     1
 65
     0
276
    -2
286
     1
 66
     0
277
    -2
287
     1
 67
     0
278
    -2
288
     1
 68
     0
279
    -2
289
     1
 69
     0
  7
STANDARD
140
0.18
170
     5
 62
     0
 63
     7
283
     0
274
    -2
284
     1
 64
     0
275
    -2
285
     1
 65
     0
276
    -2
286
     1
 66
     0
277
    -2
287
     1
 67
     0
278
    -2
288
     1
 68
     0
279
    -2
289
     1
 69
     0
  0
DICTIONARYVAR
  5
8CAE
102
{ACAD_REACTORS
330
4454
102
}
330
4454
100
DictionaryVariables
280
     0
  1
STANDARD
  0
DICTIONARYVAR
  5
8CAF
102
{ACAD_REACTORS
330
4454
102
}
330
4454
100
DictionaryVariables
280
     0
  1
1
  0
DICTIONARYVAR
  5
8CB0
102
{ACAD_REACTORS
330
4454
102
}
330
4454
100
DictionaryVariables
280
     0
  1

  0
DICTIONARYVAR
  5
4455
102
{ACAD_REACTORS
330
4454
102
}
330
4454
100
DictionaryVariables
280
     0
  1
96
  0
DICTIONARY
  5
1521F
330
1F0A
100
AcDbDictionary
280
     1
281
     1
  3
ACAD_XREC_ROUNDTRIP
360
15220
  0
DICTIONARY
  5
1521D
330
1F06
100
AcDbDictionary
280
     1
281
     1
  3
ACAD_XREC_ROUNDTRIP
360
1521E
  0
XRECORD
  5
15220
102
{ACAD_REACTORS
330
1521F
102
}
330
1521F
100
AcDbXrecord
280
     1
102
SHADEPLOT
 70
     0
102
SHADEPLOTRESLEVEL
 70
     2
102
SHADEPLOTCUSTOMDPI
 70
   300
  0
XRECORD
  5
1521E
102
{ACAD_REACTORS
330
1521D
102
}
330
1521D
100
AcDbXrecord
280
     1
102
SHADEPLOT
 70
     0
102
SHADEPLOTRESLEVEL
 70
     2
102
SHADEPLOTCUSTOMDPI
 70
   300
  0
ENDSEC
  0
EOF
